999
DXF file: C:\Users\sesa63760\Dev\_Creo\CAD\MCADID0004994_3D-CAD\drw0001_1.dxf
999
Pro/ENGINEER 2019471 by Parametric Technology Corporation
  0
SECTION
  2
HEADER
  9
$ACADVER
  1
AC1024
  9
$DWGCODEPAGE
  3
ANSI_1252
  9
$EXTMAX
 10
39.8144139429
 20
56.3089568622
 30
0.0
  9
$EXTMIN
 10
0.0
 20
0.0
 30
0.0
  9
$LIMMIN
 10
0.0
 20
0.0
  9
$LIMMAX
 10
39.8144139429
 20
56.3089568622
  9
$VIEWCTR
 10
19.9072069715
 20
28.1544784311
  9
$VIEWSIZE
 40
56.3089568622
  9
$CLAYER
  8
0
  9
$LTSCALE
 40
3.6705097806
  9
$CELTYPE
  6
BYLAYER
  9
$DIMSCALE
 40
1.0
  9
$DIMASZ
 40
0.4739811184
  9
$DIMEXO
 40
1.0
  9
$DIMDLI
 40
2.5359885757
  9
$DIMEXE
 40
1.0
  9
$DIMCEN
 40
0.6006288732
  9
$DIMLFAC
 40
1.0
  9
$DIMBLK
  1
_FILLED
  9
$DIMALT
 70
0
  9
$DIMALTF
 40
0.0393700787
  9
$DIMTXT
 40
0.6635735657
  9
$DIMTOL
 70
1
  9
$DIMLIM
 70
0
  9
$DIMTFAC
 40
1.0
  9
$DIMTP
 40
0.01
  9
$DIMTM
 40
0.01
  9
$DIMGAP
 40
0.625
  9
$DIMDSEP
 70
46
  9
$AUNITS
 70
0
  9
$PDMODE
 70
3
  9
$PDSIZE
 40
0.3125
  9
$HANDSEED
  5
264
  9
$TILEMODE
 70
1
  9
$MEASUREMENT
 70
1
  9
$INSUNITS
 70
4
  0
ENDSEC
  0
SECTION
  2
CLASSES
  0
CLASS
  1
ACDBDICTIONARYWDFLT
  2
AcDbDictionaryWithDefault
  3
AutoCAD 2000
 90
0
 91
1
280
0
281
0
  0
CLASS
  1
ACDBPLACEHOLDER
  2
AcDbPlaceHolder
  3
AutoCAD 2000
 90
0
 91
1
280
0
281
0
  0
CLASS
  1
LAYOUT
  2
AcDbLayout
  3
AutoCAD 2000
 90
0
 91
0
280
0
281
0
  0
ENDSEC
  0
SECTION
  2
TABLES
  0
TABLE
  2
VPORT
  5
8
100
AcDbSymbolTable
 70
2
  0
VPORT
  5
1F4
100
AcDbSymbolTableRecord
100
AcDbViewportTableRecord
  2
*ACTIVE
 70
0
 10
0.0
 20
0.0
 11
1.0
 21
1.0
 12
19.9072069715
 22
28.1544784311
 13
0.0
 23
0.0
 14
1.0
 24
1.0
 15
0.0
 25
0.0
 16
0.0
 26
0.0
 36
1.0
 17
0.0
 27
0.0
 37
0.0
 40
56.3089568622
 41
0.7070707071
 42
50.0
 43
0.0
 44
0.0
 50
0.0
 51
0.0
 71
0
 72
100
 73
1
 74
1
 75
0
 76
0
 77
0
 78
0
  0
ENDTAB
  0
TABLE
  2
LTYPE
  5
5
100
AcDbSymbolTable
 70
6
  0
LTYPE
  5
14
100
AcDbSymbolTableRecord
100
AcDbLinetypeTableRecord
  2
BYBLOCK
 70
0
  3

 72
65
 73
0
 40
0.0
  0
LTYPE
  5
15
100
AcDbSymbolTableRecord
100
AcDbLinetypeTableRecord
  2
BYLAYER
 70
0
  3

 72
65
 73
0
 40
0.0
  0
LTYPE
  5
16
100
AcDbSymbolTableRecord
100
AcDbLinetypeTableRecord
  2
CONTINUOUS
 70
64
  3
Solid line
 72
65
 73
0
 40
0.0
  0
LTYPE
  5
1F5
100
AcDbSymbolTableRecord
100
AcDbLinetypeTableRecord
  2
CENTER
 70
64
  3
____ _ ____ _ ____ _ ____ _ ____ _ ____ _ ____
 72
65
 73
4
 40
0.6
 49
0.375
 74
0
 49
-0.075
 74
0
 49
0.075
 74
0
 49
-0.075
 74
0
  0
LTYPE
  5
1F6
100
AcDbSymbolTableRecord
100
AcDbLinetypeTableRecord
  2
HIDDEN
 70
64
  3
- - - - - - - - - - - - - - - - - - - -
 72
65
 73
2
 40
0.2
 49
0.1
 74
0
 49
-0.1
 74
0
  0
LTYPE
  5
1F7
100
AcDbSymbolTableRecord
100
AcDbLinetypeTableRecord
  2
PHANTOM
 70
64
  3
_____ _ _ _____ _ _ _____ _ _ _____
 72
65
 73
6
 40
0.8
 49
0.45
 74
0
 49
-0.05
 74
0
 49
0.1
 74
0
 49
-0.05
 74
0
 49
0.1
 74
0
 49
-0.05
 74
0
  0
LTYPE
  5
1F8
100
AcDbSymbolTableRecord
100
AcDbLinetypeTableRecord
  2
DOT
 70
64
  3
. . . . . . . . . . . . . . . . . . . .
 72
65
 73
2
 40
0.2
 49
0.1
 74
0
 49
-0.1
 74
0
  0
LTYPE
  5
1F9
100
AcDbSymbolTableRecord
100
AcDbLinetypeTableRecord
  2
DASHED
 70
64
  3
- - - - - - - - - - - - - - - - - - - -
 72
65
 73
2
 40
0.2
 49
0.1
 74
0
 49
-0.1
 74
0
  0
ENDTAB
  0
TABLE
  2
LAYER
  5
2
100
AcDbSymbolTable
 70
36
  0
LAYER
  5
10
100
AcDbSymbolTableRecord
100
AcDbLayerTableRecord
  2
0
 70
0
 62
7
  6
CONTINUOUS
370
-3
390
F
  0
LAYER
  5
1FA
100
AcDbSymbolTableRecord
100
AcDbLayerTableRecord
  2
DEFAULT_1
 70
0
 62
7
  6
CENTER
370
-3
390
F
  0
LAYER
  5
1FB
100
AcDbSymbolTableRecord
100
AcDbLayerTableRecord
  2
DEFAULT_2
 70
0
 62
7
  6
HIDDEN
370
-3
390
F
  0
LAYER
  5
1FC
100
AcDbSymbolTableRecord
100
AcDbLayerTableRecord
  2
DEFAULT_3
 70
0
 62
7
  6
PHANTOM
370
-3
390
F
  0
LAYER
  5
1FD
100
AcDbSymbolTableRecord
100
AcDbLayerTableRecord
  2
00_COMPONENTS
 70
0
 62
7
  6
CONTINUOUS
370
-3
390
F
  0
LAYER
  5
1FE
100
AcDbSymbolTableRecord
100
AcDbLayerTableRecord
  2
01_1_DEFAULT_DATUMS
 70
0
 62
7
  6
CONTINUOUS
370
-3
390
F
  0
LAYER
  5
1FF
100
AcDbSymbolTableRecord
100
AcDbLayerTableRecord
  2
01_PLANES
 70
0
 62
7
  6
CONTINUOUS
370
-3
390
F
  0
LAYER
  5
200
100
AcDbSymbolTableRecord
100
AcDbLayerTableRecord
  2
02_COORD_SYS
 70
0
 62
7
  6
CONTINUOUS
370
-3
390
F
  0
LAYER
  5
201
100
AcDbSymbolTableRecord
100
AcDbLayerTableRecord
  2
03_AXES
 70
0
 62
7
  6
CONTINUOUS
370
-3
390
F
  0
LAYER
  5
202
100
AcDbSymbolTableRecord
100
AcDbLayerTableRecord
  2
04_POINTS
 70
0
 62
7
  6
CONTINUOUS
370
-3
390
F
  0
LAYER
  5
203
100
AcDbSymbolTableRecord
100
AcDbLayerTableRecord
  2
05_CURVES
 70
0
 62
7
  6
CONTINUOUS
370
-3
390
F
  0
LAYER
  5
204
100
AcDbSymbolTableRecord
100
AcDbLayerTableRecord
  2
06_SURFS
 70
0
 62
7
  6
CONTINUOUS
370
-3
390
F
  0
LAYER
  5
205
100
AcDbSymbolTableRecord
100
AcDbLayerTableRecord
  2
07_COSMETICS
 70
0
 62
7
  6
CONTINUOUS
370
-3
390
F
  0
LAYER
  5
206
100
AcDbSymbolTableRecord
100
AcDbLayerTableRecord
  2
10_NOTES
 70
0
 62
7
  6
CONTINUOUS
370
-3
390
F
  0
LAYER
  5
207
100
AcDbSymbolTableRecord
100
AcDbLayerTableRecord
  2
11_NOTES_PUB
 70
0
 62
7
  6
CONTINUOUS
370
-3
390
F
  0
LAYER
  5
208
100
AcDbSymbolTableRecord
100
AcDbLayerTableRecord
  2
13_REF_GTOL
 70
0
 62
7
  6
CONTINUOUS
370
-3
390
F
  0
LAYER
  5
209
100
AcDbSymbolTableRecord
100
AcDbLayerTableRecord
  2
16_MISC
 70
0
 62
7
  6
CONTINUOUS
370
-3
390
F
  0
LAYER
  5
20A
100
AcDbSymbolTableRecord
100
AcDbLayerTableRecord
  2
17_NO_PRINT
 70
0
 62
7
  6
CONTINUOUS
370
-3
390
F
  0
LAYER
  5
20B
100
AcDbSymbolTableRecord
100
AcDbLayerTableRecord
  2
18_DATUM_CAMS_JOINTS
 70
0
 62
7
  6
CONTINUOUS
370
-3
390
F
  0
LAYER
  5
20C
100
AcDbSymbolTableRecord
100
AcDbLayerTableRecord
  2
19_DATUM_FUNCTIONAL
 70
0
 62
7
  6
CONTINUOUS
370
-3
390
F
  0
LAYER
  5
20D
100
AcDbSymbolTableRecord
100
AcDbLayerTableRecord
  2
20_DATUM_KINEMATIC_SCHEME
 70
0
 62
7
  6
CONTINUOUS
370
-3
390
F
  0
ENDTAB
  0
TABLE
  2
STYLE
  5
3
100
AcDbSymbolTable
 70
1
  0
STYLE
  5
11
100
AcDbSymbolTableRecord
100
AcDbTextStyleTableRecord
  2
STANDARD
 70
0
 40
0.0
 41
1.0
 50
0.0
 71
0
 42
0.2
  3
ARIAL.TTF
  4

  0
STYLE
  5
20E
100
AcDbSymbolTableRecord
100
AcDbTextStyleTableRecord
  2
TEXTSTYLE_1
 70
0
 40
0.0
 41
0.8
 50
0.0
 71
0
 42
0.2
  3
gdt
  4

  0
ENDTAB
  0
TABLE
  2
VIEW
  5
6
100
AcDbSymbolTable
 70
0
  0
ENDTAB
  0
TABLE
  2
UCS
  5
7
100
AcDbSymbolTable
 70
0
  0
ENDTAB
  0
TABLE
  2
APPID
  5
9
100
AcDbSymbolTable
 70
1
  0
APPID
  5
20F
100
AcDbSymbolTableRecord
100
AcDbRegAppTableRecord
  2
ACAD
 70
0
  0
ENDTAB
  0
TABLE
  2
BLOCK_RECORD
  5
1
100
AcDbSymbolTable
 70
0
  0
BLOCK_RECORD
  5
210
100
AcDbSymbolTableRecord
100
AcDbBlockTableRecord
  2
*Model_Space
  0
BLOCK_RECORD
  5
211
100
AcDbSymbolTableRecord
100
AcDbBlockTableRecord
  2
*Paper_Space
  0
BLOCK_RECORD
  5
212
100
AcDbSymbolTableRecord
100
AcDbBlockTableRecord
  2
_FILLED
  0
ENDTAB
  0
TABLE
  2
DIMSTYLE
  5
A
100
AcDbSymbolTable
 70
1
100
AcDbDimStyleTable
 71
0
  0
DIMSTYLE
105
213
100
AcDbSymbolTableRecord
100
AcDbDimStyleTableRecord
  2
STANDARD
 70
0
  3

  4

 40
1.0
 41
0.4739811184
 42
1.0
 43
0.38
 44
1.0
 45
0.0
 46
0.0
 47
0.01
 48
0.01
140
0.6635735657
141
0.09
142
0.0
143
25.4
144
1.0
145
0.0
146
1.0
147
0.625
 71
1
 72
0
 73
0
 74
0
 75
0
 76
0
 77
1
 78
8
 79
2
170
0
171
1
172
0
173
0
174
0
175
0
176
0
177
0
178
0
270
2
179
2
271
2
272
2
273
2
274
2
275
0
280
0
281
0
282
0
283
1
284
8
285
0
286
0
287
3
288
0
340
11
278
46
341
212
342
212
343
212
344
212
  0
ENDTAB
  0
ENDSEC
  0
SECTION
  2
BLOCKS
  0
BLOCK
  5
20
100
AcDbEntity
  8
0
100
AcDbBlockBegin
  2
*Model_Space
 70
0
 10
0.0
 20
0.0
 30
0.0
  3
*Model_Space
  1

  0
ENDBLK
  5
21
100
AcDbEntity
  8
0
100
AcDbBlockEnd
  0
BLOCK
  5
1C
100
AcDbEntity
  8
0
100
AcDbBlockBegin
  2
*Paper_Space
 70
0
 10
0.0
 20
0.0
 30
0.0
  3
*Paper_Space
  1

  0
ENDBLK
  5
1D
100
AcDbEntity
  8
0
100
AcDbBlockEnd
  0
BLOCK
  5
214
100
AcDbEntity
  8
0
100
AcDbBlockBegin
  2
_FILLED
 70
64
 10
0.0
 20
0.0
  3
_FILLED
  1

  0
SOLID
  5
215
100
AcDbEntity
  8
0
  6
BYBLOCK
 62
0
100
AcDbTrace
 10
0.0
 20
0.0
 11
-1.0
 21
0.25
 12
-1.0
 22
-0.25
 13
-1.0
 23
-0.25
  0
ENDBLK
  5
216
100
AcDbEntity
  8
0
  6
BYBLOCK
 62
0
100
AcDbBlockEnd
  0
ENDSEC
  0
SECTION
  2
ENTITIES
  0
LINE
  5
217
100
AcDbEntity
  8
0
100
AcDbLine
 62
7
  6
BYLAYER
 10
13.5285126299
 20
8.0728057756
 11
10.4879408118
 21
9.82824102
  0
LINE
  5
218
100
AcDbEntity
  8
0
100
AcDbLine
 62
7
  6
BYLAYER
 10
7.6595019112
 20
11.4612040381
 11
4.6189300931
 21
13.2166392826
  0
LINE
  5
219
100
AcDbEntity
  8
0
100
AcDbLine
 62
7
  6
BYLAYER
 10
10.4879408118
 20
11.0529946457
 11
7.6595019112
 21
12.6859576638
  0
LINE
  5
21A
100
AcDbEntity
  8
0
100
AcDbLine
 62
7
  6
BYLAYER
 10
17.5589719092
 20
10.3997786353
 11
17.9125487664
 21
10.1956455597
  0
LINE
  5
21B
100
AcDbEntity
  8
0
100
AcDbLine
 62
7
  6
BYLAYER
 10
4.6189300931
 20
36.7319088959
 11
4.6189300931
 21
13.2166392826
  0
LINE
  5
21C
100
AcDbEntity
  8
0
100
AcDbLine
 62
7
  6
BYLAYER
 10
4.6189300931
 20
36.7319088959
 11
24.7830055544
 21
48.3735738001
  0
LINE
  5
21D
100
AcDbEntity
  8
0
100
AcDbLine
 62
7
  6
BYLAYER
 10
24.9835282592
 20
47.4279101465
 11
25.7022481971
 21
47.8428608192
  0
LINE
  5
21E
100
AcDbEntity
  8
0
100
AcDbLine
 62
7
  6
BYLAYER
 10
7.6595019112
 20
12.6859576638
 11
7.6595019112
 21
11.4612040381
  0
LINE
  5
21F
100
AcDbEntity
  8
0
100
AcDbLine
 62
7
  6
BYLAYER
 10
30.8994770036
 20
47.4958418381
 11
27.8826958502
 21
45.7541128237
  0
LINE
  5
220
100
AcDbEntity
  8
0
100
AcDbLine
 62
7
  6
BYLAYER
 10
29.8741855657
 20
45.6383362071
 11
30.7227101703
 21
46.1282291918
  0
LINE
  5
221
100
AcDbEntity
  8
0
100
AcDbLine
 62
7
  6
BYLAYER
 10
10.4879408118
 20
11.0529946457
 11
10.4879408118
 21
9.82824102
  0
LINE
  5
222
100
AcDbEntity
  8
0
100
AcDbLine
 62
7
  6
BYLAYER
 10
29.8741855657
 20
45.2300849986
 11
30.7227101703
 21
45.7199779832
  0
LINE
  5
223
100
AcDbEntity
  8
0
100
AcDbLine
 62
7
  6
BYLAYER
 10
31.8540857306
 20
45.4750439846
 11
31.0055611259
 21
44.9851509999
  0
LINE
  5
224
100
AcDbEntity
  8
0
100
AcDbLine
 62
7
  6
BYLAYER
 10
13.5285126299
 20
31.5880753889
 11
13.5285126299
 21
8.0728057756
  0
LINE
  5
225
100
AcDbEntity
  8
0
100
AcDbLine
 62
7
  6
BYLAYER
 10
34.2228927118
 20
45.5771102918
 11
31.2061115584
 21
43.8353812775
  0
LINE
  5
226
100
AcDbEntity
  8
0
100
AcDbLine
 62
7
  6
BYLAYER
 10
34.2228927118
 20
45.1688590833
 11
31.5596725305
 21
43.6312573729
  0
LINE
  5
227
100
AcDbEntity
  8
0
100
AcDbLine
 62
7
  6
BYLAYER
 10
32.0546255106
 20
43.3455026013
 11
32.7733454486
 21
43.760453274
  0
LINE
  5
228
100
AcDbEntity
  8
0
100
AcDbLine
 62
7
  6
BYLAYER
 10
33.6925880913
 20
43.2297402931
 11
13.5285126299
 21
31.5880753889
  0
LINE
  5
229
100
AcDbEntity
  8
0
100
AcDbLine
 62
7
  6
BYLAYER
 10
34.2228927118
 20
41.3312977228
 11
33.6925880913
 21
41.0251280349
  0
LINE
  5
22A
100
AcDbEntity
  8
0
100
AcDbLine
 62
7
  6
BYLAYER
 10
34.2228927118
 20
40.9230465142
 11
33.6925880913
 21
40.6168768263
  0
LINE
  5
22B
100
AcDbEntity
  8
0
100
AcDbLine
 62
7
  6
BYLAYER
 10
17.9125487664
 20
10.1956455597
 11
17.9125487664
 21
10.6039151104
  0
LINE
  5
22C
100
AcDbEntity
  8
0
100
AcDbLine
 62
7
  6
BYLAYER
 10
18.6196526036
 20
10.6038897136
 11
18.6196526036
 21
11.0121592643
  0
LINE
  5
22D
100
AcDbEntity
  8
0
100
AcDbLine
 62
7
  6
BYLAYER
 10
34.2228927118
 20
37.0854851537
 11
33.6925880913
 21
36.7793154658
  0
LINE
  5
22E
100
AcDbEntity
  8
0
100
AcDbLine
 62
7
  6
BYLAYER
 10
34.2228927118
 20
36.6772339451
 11
33.6925880913
 21
36.3710642573
  0
LINE
  5
22F
100
AcDbEntity
  8
0
100
AcDbLine
 62
7
  6
BYLAYER
 10
32.9738681533
 20
35.7112185914
 11
33.6925880913
 21
36.1261692641
  0
LINE
  5
230
100
AcDbEntity
  8
0
100
AcDbLine
 62
7
  6
BYLAYER
 10
13.5285126299
 20
31.5880753889
 11
4.6189300931
 21
36.7319088959
  0
LINE
  5
231
100
AcDbEntity
  8
0
100
AcDbLine
 62
7
  6
BYLAYER
 10
32.9738681533
 20
34.404814724
 11
33.6925880913
 21
34.8197653967
  0
LINE
  5
232
100
AcDbEntity
  8
0
100
AcDbLine
 62
7
  6
BYLAYER
 10
32.9738681533
 20
24.4568417092
 11
33.2683122467
 21
24.2868481784
  0
LINE
  5
233
100
AcDbEntity
  8
0
100
AcDbLine
 62
7
  6
BYLAYER
 10
32.9738681533
 20
31.3837557806
 11
33.6925880913
 21
31.7987064533
  0
LINE
  5
234
100
AcDbEntity
  8
0
100
AcDbLine
 62
7
  6
BYLAYER
 10
34.1168368513
 20
24.7767411631
 11
33.7632819888
 21
24.9808615403
  0
LINE
  5
235
100
AcDbEntity
  8
0
100
AcDbLine
 62
7
  6
BYLAYER
 10
25.7022481971
 20
47.0129663841
 11
25.7022481971
 21
47.8428608192
  0
LINE
  5
236
100
AcDbEntity
  8
0
100
AcDbLine
 62
7
  6
BYLAYER
 10
35.0360688958
 20
28.2876836313
 11
32.9738681533
 21
27.0970785845
  0
LINE
  5
237
100
AcDbEntity
  8
0
100
AcDbLine
 62
7
  6
BYLAYER
 10
35.3896237583
 20
28.083563254
 11
32.9738681533
 21
26.6888344306
  0
LINE
  5
238
100
AcDbEntity
  8
0
100
AcDbLine
 62
7
  6
BYLAYER
 10
8.7201848278
 20
12.0735859501
 11
7.6595019112
 21
11.4612040381
  0
LINE
  5
239
100
AcDbEntity
  8
0
100
AcDbLine
 62
7
  6
BYLAYER
 10
35.0360688958
 20
28.2876836313
 11
35.8138860607
 21
27.838608296
  0
LINE
  5
23A
100
AcDbEntity
  8
0
100
AcDbLine
 62
7
  6
BYLAYER
 10
29.8741855657
 20
45.6383362071
 11
29.8741855657
 21
45.2300849986
  0
LINE
  5
23B
100
AcDbEntity
  8
0
100
AcDbLine
 62
7
  6
BYLAYER
 10
30.3575839556
 20
41.3042862511
 11
30.3575839556
 21
17.7890166377
  0
LINE
  5
23C
100
AcDbEntity
  8
0
100
AcDbLine
 62
7
  6
BYLAYER
 10
33.2683122467
 20
25.5932520458
 11
34.1168368513
 21
26.0831450305
  0
LINE
  5
23D
100
AcDbEntity
  8
0
100
AcDbLine
 62
7
  6
BYLAYER
 10
33.7632819888
 20
24.9808615403
 11
32.9738681533
 21
24.5250959705
  0
LINE
  5
23E
100
AcDbEntity
  8
0
100
AcDbLine
 62
7
  6
BYLAYER
 10
34.1168368513
 20
24.7767411631
 11
33.2683122467
 21
24.2868481784
  0
LINE
  5
23F
100
AcDbEntity
  8
0
100
AcDbLine
 62
7
  6
BYLAYER
 10
30.7227101703
 20
45.7199779832
 11
30.7227101703
 21
46.1282291918
  0
LINE
  5
240
100
AcDbEntity
  8
0
100
AcDbLine
 62
7
  6
BYLAYER
 10
32.9738681533
 20
22.8512730701
 11
35.3896237583
 21
24.2460018935
  0
LINE
  5
241
100
AcDbEntity
  8
0
100
AcDbLine
 62
7
  6
BYLAYER
 10
32.9738681533
 20
19.2995200071
 11
32.9738681533
 21
31.3837557806
  0
LINE
  5
242
100
AcDbEntity
  8
0
100
AcDbLine
 62
7
  6
BYLAYER
 10
32.9738681533
 20
34.404814724
 11
32.9738681533
 21
35.7112185914
  0
LINE
  5
243
100
AcDbEntity
  8
0
100
AcDbLine
 62
7
  6
BYLAYER
 10
33.6925880913
 20
31.7987064533
 11
33.6925880913
 21
34.8197653967
  0
LINE
  5
244
100
AcDbEntity
  8
0
100
AcDbLine
 62
7
  6
BYLAYER
 10
33.6925880913
 20
36.1261692641
 11
33.6925880913
 21
43.2297402931
  0
LINE
  5
245
100
AcDbEntity
  8
0
100
AcDbLine
 62
7
  6
BYLAYER
 10
33.6925880913
 20
34.8197653967
 11
32.9738681533
 21
35.234709159
  0
LINE
  5
246
100
AcDbEntity
  8
0
100
AcDbLine
 62
7
  6
BYLAYER
 10
34.2228891791
 20
37.5753760987
 11
34.2228927118
 21
36.6772339451
  0
LINE
  5
247
100
AcDbEntity
  8
0
100
AcDbLine
 62
7
  6
BYLAYER
 10
34.2228891791
 20
41.8211886678
 11
34.2228927118
 21
40.9230465142
  0
LINE
  5
248
100
AcDbEntity
  8
0
100
AcDbLine
 62
7
  6
BYLAYER
 10
34.2228891791
 20
46.0670012369
 11
34.2228927118
 21
45.1688590833
  0
LINE
  5
249
100
AcDbEntity
  8
0
100
AcDbLine
 62
7
  6
BYLAYER
 10
35.8138860607
 20
24.9808498361
 11
35.3896237583
 21
24.2460018935
  0
LINE
  5
24A
100
AcDbEntity
  8
0
100
AcDbLine
 62
7
  6
BYLAYER
 10
13.5285126299
 20
8.0728057756
 11
32.9738681533
 21
19.2995200071
  0
LINE
  5
24B
100
AcDbEntity
  8
0
100
AcDbLine
 62
7
  6
BYLAYER
 10
17.9125487664
 20
10.1956455597
 11
18.6196526036
 21
10.6038897136
  0
LINE
  5
24C
100
AcDbEntity
  8
0
100
AcDbLine
 62
7
  6
BYLAYER
 10
34.2228891791
 20
37.5753760987
 11
33.6925880913
 21
37.8815386482
  0
LINE
  5
24D
100
AcDbEntity
  8
0
100
AcDbLine
 62
7
  6
BYLAYER
 10
35.8138860607
 20
24.9808498361
 11
35.8138860607
 21
27.838608296
  0
LINE
  5
24E
100
AcDbEntity
  8
0
100
AcDbLine
 62
7
  6
BYLAYER
 10
30.3575839556
 20
41.3042862511
 11
21.4480014188
 21
46.448119758
  0
LINE
  5
24F
100
AcDbEntity
  8
0
100
AcDbLine
 62
7
  6
BYLAYER
 10
34.2228891791
 20
41.8211886678
 11
33.6925880913
 21
42.1273512173
  0
LINE
  5
250
100
AcDbEntity
  8
0
100
AcDbLine
 62
7
  6
BYLAYER
 10
30.8994770036
 20
47.4958418381
 11
31.7480051411
 21
47.4958438777
  0
LINE
  5
251
100
AcDbEntity
  8
0
100
AcDbLine
 62
7
  6
BYLAYER
 10
32.0546255106
 20
43.3455026013
 11
24.9835282592
 21
47.4279101465
  0
LINE
  5
252
100
AcDbEntity
  8
0
100
AcDbLine
 62
7
  6
BYLAYER
 10
33.6925880913
 20
43.2297402931
 11
32.7733454486
 21
43.760453274
  0
LINE
  5
253
100
AcDbEntity
  8
0
100
AcDbLine
 62
7
  6
BYLAYER
 10
25.7022481971
 20
47.8428608192
 11
24.7830055544
 21
48.3735738001
  0
LINE
  5
254
100
AcDbEntity
  8
0
100
AcDbLine
 62
7
  6
BYLAYER
 10
34.2228891791
 20
46.0670012369
 11
31.7480051411
 21
47.4958438777
  0
SPLINE
  5
255
100
AcDbEntity
  8
0
100
AcDbSpline
 62
7
  6
BYLAYER
 70
0
 71
3
 72
13
 73
9
 74
0
 42
0.0000001
 43
0.0000001
 44
0.0000000001
 40
0.0
 40
0.0
 40
0.0
 40
0.0
 40
0.1081040887
 40
0.2182391431
 40
0.3322401274
 40
0.4516646903
 40
0.7106947514
 40
1.0
 40
1.0
 40
1.0
 40
1.0
 10
34.5168280686
 20
26.122763881
 30
0.0
 10
34.5037113104
 20
26.130336667
 30
0.0
 10
34.4758561431
 20
26.1433631821
 30
0.0
 10
34.4308040158
 20
26.1558275112
 30
0.0
 10
34.3827772636
 20
26.1611970884
 30
0.0
 10
34.3136128201
 20
26.1587869393
 30
0.0
 10
34.2217316055
 20
26.1366324868
 30
0.0
 10
34.1519394124
 20
26.1034113826
 30
0.0
 10
34.1168368513
 20
26.0831450305
 30
0.0
  0
SPLINE
  5
256
100
AcDbEntity
  8
0
100
AcDbSpline
 62
7
  6
BYLAYER
 70
0
 71
3
 72
9
 73
5
 74
0
 42
0.0000001
 43
0.0000001
 44
0.0000000001
 40
0.0
 40
0.0
 40
0.0
 40
0.0
 40
0.478674831
 40
1.0
 40
1.0
 40
1.0
 40
1.0
 10
34.3018700416
 20
26.1447543521
 30
0.0
 10
34.3112390165
 20
26.1164822899
 30
0.0
 10
34.3249510481
 20
26.0554149049
 30
0.0
 10
34.3289650585
 20
25.9930965869
 30
0.0
 10
34.3289650585
 20
25.9606587971
 30
0.0
  0
SPLINE
  5
257
100
AcDbEntity
  8
0
100
AcDbSpline
 62
7
  6
BYLAYER
 70
0
 71
3
 72
21
 73
17
 74
0
 42
0.0000001
 43
0.0000001
 44
0.0000000001
 40
0.0
 40
0.0
 40
0.0
 40
0.0
 40
0.0428244848
 40
0.0874145731
 40
0.1352105355
 40
0.1871310724
 40
0.2435909399
 40
0.3045631224
 40
0.3696748897
 40
0.4383019113
 40
0.5825298815
 40
0.7295780621
 40
0.8015782121
 40
0.8712093456
 40
0.9376296827
 40
1.0
 40
1.0
 40
1.0
 40
1.0
 10
29.639876073
 20
45.311743602
 30
0.0
 10
29.6398743491
 20
45.2889703694
 30
0.0
 10
29.6459788946
 20
45.2422893714
 30
0.0
 10
29.6727365875
 20
45.1748764518
 30
0.0
 10
29.7161913096
 20
45.11098036
 30
0.0
 10
29.7750701177
 20
45.0518452936
 30
0.0
 10
29.8480326801
 20
44.9985241961
 30
0.0
 10
29.9335268983
 20
44.9520343884
 30
0.0
 10
30.0297537759
 20
44.9132475869
 30
0.0
 10
30.1720024155
 20
44.8722847193
 30
0.0
 10
30.3625891541
 20
44.8455338317
 30
0.0
 10
30.556665804
 20
44.8508745284
 30
0.0
 10
30.7084600026
 20
44.8749210733
 30
0.0
 10
30.8158705318
 20
44.902175665
 30
0.0
 10
30.9152258236
 20
44.9382178976
 30
0.0
 10
30.9768373342
 20
44.96856741
 30
0.0
 10
31.0055611259
 20
44.9851509999
 30
0.0
  0
SPLINE
  5
258
100
AcDbEntity
  8
0
100
AcDbSpline
 62
7
  6
BYLAYER
 70
0
 71
3
 72
9
 73
5
 74
0
 42
0.0000001
 43
0.0000001
 44
0.0000000001
 40
0.0
 40
0.0
 40
0.0
 40
0.0
 40
0.4786297968
 40
1.0
 40
1.0
 40
1.0
 40
1.0
 10
29.7280426255
 20
45.1142815309
 30
0.0
 10
29.7478623694
 20
45.1365927011
 30
0.0
 10
29.7939662922
 20
45.1791161893
 30
0.0
 10
29.8460327604
 20
45.2138310659
 30
0.0
 10
29.8741855657
 20
45.2300849986
 30
0.0
  0
SPLINE
  5
259
100
AcDbEntity
  8
0
100
AcDbSpline
 62
7
  6
BYLAYER
 70
0
 71
3
 72
11
 73
7
 74
0
 42
0.0000001
 43
0.0000001
 44
0.0000000001
 40
0.0
 40
0.0
 40
0.0
 40
0.0
 40
0.2313238525
 40
0.4769225427
 40
0.7340508937
 40
1.0
 40
1.0
 40
1.0
 40
1.0
 10
33.2683122467
 20
25.5932520458
 30
0.0
 10
33.2414664743
 20
25.5777527245
 30
0.0
 10
33.1880618885
 20
25.5423584332
 30
0.0
 10
33.1120106688
 20
25.4797362455
 30
0.0
 10
33.0389300213
 20
25.4069478181
 30
0.0
 10
32.9936655466
 20
25.3533003349
 30
0.0
 10
32.9718130251
 20
25.3251473699
 30
0.0
  0
SPLINE
  5
25A
100
AcDbEntity
  8
0
100
AcDbSpline
 62
7
  6
BYLAYER
 70
0
 71
3
 72
15
 73
11
 74
0
 42
0.0000001
 43
0.0000001
 44
0.0000000001
 40
0.0
 40
0.0
 40
0.0
 40
0.0
 40
0.1141242661
 40
0.2373486253
 40
0.3669740476
 40
0.5000015346
 40
0.6330288076
 40
0.7626536034
 40
0.8858770013
 40
1.0
 40
1.0
 40
1.0
 40
1.0
 10
34.3289650585
 20
25.9606587971
 30
0.0
 10
34.3289650585
 20
25.9159544062
 30
0.0
 10
34.3207567783
 20
25.8228964224
 30
0.0
 10
34.288131388
 20
25.682512691
 30
0.0
 10
34.23580426
 20
25.5403141809
 30
0.0
 10
34.165817137
 20
25.4016532945
 30
0.0
 10
34.0807276347
 20
25.271712002
 30
0.0
 10
33.9837446207
 20
25.1552962484
 30
0.0
 10
33.8784824961
 20
25.0568504602
 30
0.0
 10
33.8019967548
 20
25.0032133875
 30
0.0
 10
33.7632819888
 20
24.9808615403
 30
0.0
  0
SPLINE
  5
25B
100
AcDbEntity
  8
0
100
AcDbSpline
 62
7
  6
BYLAYER
 70
0
 71
3
 72
13
 73
9
 74
0
 42
0.0000001
 43
0.0000001
 44
0.0000000001
 40
0.0
 40
0.0
 40
0.0
 40
0.0
 40
0.2893056469
 40
0.5483380184
 40
0.6677638292
 40
0.7817653218
 40
0.8918999303
 40
1.0
 40
1.0
 40
1.0
 40
1.0
 10
31.8540857306
 20
45.4750439846
 30
0.0
 10
31.8891884968
 20
45.4953104551
 30
0.0
 10
31.9528558413
 20
45.5391415433
 30
0.0
 10
32.0179846396
 20
45.607635327
 30
0.0
 10
32.0546553302
 20
45.6663287693
 30
0.0
 10
32.074017712
 20
45.7106068382
 30
0.0
 10
32.0857473449
 20
45.7558554191
 30
0.0
 10
32.0883940767
 20
45.7864912463
 30
0.0
 10
32.0883952232
 20
45.8016365897
 30
0.0
  0
SPLINE
  5
25C
100
AcDbEntity
  8
0
100
AcDbSpline
 62
7
  6
BYLAYER
 70
0
 71
3
 72
17
 73
13
 74
0
 42
0.0000001
 43
0.0000001
 44
0.0000000001
 40
0.0
 40
0.0
 40
0.0
 40
0.0
 40
0.057954508
 40
0.1190570042
 40
0.2486106627
 40
0.3846856546
 40
0.522483627
 40
0.6569681416
 40
0.7834989598
 40
0.8426472616
 40
0.8985623774
 40
1.0
 40
1.0
 40
1.0
 40
1.0
 10
30.7227101703
 20
45.7199779832
 30
0.0
 10
30.7454838273
 20
45.7331262817
 30
0.0
 10
30.7937109483
 20
45.7576917138
 30
0.0
 10
30.8985346183
 20
45.7996861082
 30
0.0
 10
31.042617608
 20
45.8373006147
 30
0.0
 10
31.2250430124
 20
45.8579825643
 30
0.0
 10
31.4108642587
 20
45.8540313616
 30
0.0
 10
31.5901540585
 20
45.8256301529
 30
0.0
 10
31.7293972591
 20
45.7818722691
 30
0.0
 10
31.828855819
 20
45.7353542699
 30
0.0
 10
31.9134181692
 20
45.6852605726
 30
0.0
 10
31.9691357797
 20
45.6390635009
 30
0.0
 10
31.9997523087
 20
45.6046960836
 30
0.0
  0
SPLINE
  5
25D
100
AcDbEntity
  8
0
100
AcDbSpline
 62
7
  6
BYLAYER
 70
0
 71
3
 72
11
 73
7
 74
0
 42
0.0000001
 43
0.0000001
 44
0.0000000001
 40
0.0
 40
0.0
 40
0.0
 40
0.0
 40
0.2223345463
 40
0.461635429
 40
0.7208207999
 40
1.0
 40
1.0
 40
1.0
 40
1.0
 10
32.9729922846
 20
24.2124318082
 30
0.0
 10
32.9957440662
 20
24.2094802877
 30
0.0
 10
33.0437592146
 20
24.2086196194
 30
0.0
 10
33.117412752
 20
24.2212547118
 30
0.0
 10
33.1935864103
 20
24.2473986477
 30
0.0
 10
33.2433636121
 20
24.2724441635
 30
0.0
 10
33.2683122467
 20
24.2868481784
 30
0.0
  0
SPLINE
  5
25E
100
AcDbEntity
  8
0
100
AcDbSpline
 62
7
  6
BYLAYER
 70
0
 71
3
 72
21
 73
17
 74
0
 42
0.0000001
 43
0.0000001
 44
0.0000000001
 40
0.0
 40
0.0
 40
0.0
 40
0.0
 40
0.0428244848
 40
0.0874145731
 40
0.1352105355
 40
0.1871310724
 40
0.2435909399
 40
0.3045631224
 40
0.3696748897
 40
0.4383019113
 40
0.5825298815
 40
0.7295780621
 40
0.8015782121
 40
0.8712093456
 40
0.9376296827
 40
1.0
 40
1.0
 40
1.0
 40
1.0
 10
32.0883952232
 20
45.8016365897
 30
0.0
 10
32.0883969471
 20
45.8244098223
 30
0.0
 10
32.0822924016
 20
45.8710908203
 30
0.0
 10
32.0555347087
 20
45.9385037399
 30
0.0
 10
32.0120799866
 20
46.0023998317
 30
0.0
 10
31.9532011785
 20
46.0615348981
 30
0.0
 10
31.8802386161
 20
46.1148559956
 30
0.0
 10
31.7947443979
 20
46.1613458033
 30
0.0
 10
31.6985175203
 20
46.2001326048
 30
0.0
 10
31.5562688807
 20
46.2410954724
 30
0.0
 10
31.3656821421
 20
46.26784636
 30
0.0
 10
31.1716054923
 20
46.2625056633
 30
0.0
 10
31.0198112936
 20
46.2384591184
 30
0.0
 10
30.9124007645
 20
46.2112045267
 30
0.0
 10
30.8130454727
 20
46.1751622941
 30
0.0
 10
30.751433962
 20
46.1448127817
 30
0.0
 10
30.7227101703
 20
46.1282291918
 30
0.0
  0
SPLINE
  5
25F
100
AcDbEntity
  8
0
100
AcDbSpline
 62
7
  6
BYLAYER
 70
0
 71
3
 72
13
 73
9
 74
0
 42
0.0000001
 43
0.0000001
 44
0.0000000001
 40
0.0
 40
0.0
 40
0.0
 40
0.0
 40
0.2893056469
 40
0.5483380184
 40
0.6677638292
 40
0.7817653218
 40
0.8918999303
 40
1.0
 40
1.0
 40
1.0
 40
1.0
 10
29.8741855657
 20
45.6383362071
 30
0.0
 10
29.8390827994
 20
45.6180697366
 30
0.0
 10
29.7754154549
 20
45.5742386484
 30
0.0
 10
29.7102866566
 20
45.5057448647
 30
0.0
 10
29.673615966
 20
45.4470514224
 30
0.0
 10
29.6542535842
 20
45.4027733535
 30
0.0
 10
29.6425239513
 20
45.3575247726
 30
0.0
 10
29.6398772195
 20
45.3268889454
 30
0.0
 10
29.639876073
 20
45.311743602
 30
0.0
  0
SPLINE
  5
260
100
AcDbEntity
  8
0
100
AcDbSpline
 62
7
  6
BYLAYER
 70
0
 71
3
 72
13
 73
9
 74
0
 42
0.0000001
 43
0.0000001
 44
0.0000000001
 40
0.0
 40
0.0
 40
0.0
 40
0.0
 40
0.2893067043
 40
0.5483372018
 40
0.6677616121
 40
0.7817621933
 40
0.8918966414
 40
1.0
 40
1.0
 40
1.0
 40
1.0
 10
34.6825199211
 20
25.7565384199
 30
0.0
 10
34.6825199211
 20
25.7970731184
 30
0.0
 10
34.6763940655
 20
25.8741288285
 30
0.0
 10
34.6496386397
 20
25.9647813812
 30
0.0
 10
34.6171421824
 20
26.0258869341
 30
0.0
 10
34.5884772899
 20
26.0647957473
 30
0.0
 10
34.5551552881
 20
26.0975806439
 30
0.0
 10
34.5299452589
 20
26.1151908456
 30
0.0
 10
34.5168280686
 20
26.122763881
 30
0.0
  0
SPLINE
  5
261
100
AcDbEntity
  8
0
100
AcDbSpline
 62
7
  6
BYLAYER
 70
0
 71
3
 72
15
 73
11
 74
0
 42
0.0000001
 43
0.0000001
 44
0.0000000001
 40
0.0
 40
0.0
 40
0.0
 40
0.0
 40
0.1141229605
 40
0.2373462928
 40
0.366971064
 40
0.4999983279
 40
0.633025824
 40
0.762651271
 40
0.8858756957
 40
1.0
 40
1.0
 40
1.0
 40
1.0
 10
34.1168368513
 20
24.7767411631
 30
0.0
 10
34.1555516044
 20
24.7990930028
 30
0.0
 10
34.2320373203
 20
24.8527300404
 30
0.0
 10
34.337299407
 20
24.9511757959
 30
0.0
 10
34.4342824092
 20
25.0675915076
 30
0.0
 10
34.5193719217
 20
25.1975327823
 30
0.0
 10
34.5893590652
 20
25.3361936689
 30
0.0
 10
34.6416862235
 20
25.47839221
 30
0.0
 10
34.6743116233
 20
25.6187759907
 30
0.0
 10
34.6825199211
 20
25.711834014
 30
0.0
 10
34.6825199211
 20
25.7565384199
 30
0.0
  0
ENDSEC
  0
SECTION
  2
OBJECTS
  0
DICTIONARY
  5
C
100
AcDbDictionary
280
0
281
1
  3
ACAD_GROUP
350
D
  3
ACAD_MLINESTYLE
350
17
  3
ACAD_LAYOUT
350
1A
  3
ACAD_PLOTSETTINGS
350
19
  3
ACAD_PLOTSTYLENAME
350
E
  0
DICTIONARY
  5
D
102
{ACAD_REACTORS
330
C
102
}
100
AcDbDictionary
280
0
281
1
  0
ACDBDICTIONARYWDFLT
  5
E
102
{ACAD_REACTORS
330
C
102
}
100
AcDbDictionary
281
1
  3
Normal
350
F
100
AcDbDictionaryWithDefault
340
F
  0
DICTIONARY
  5
17
102
{ACAD_REACTORS
330
C
102
}
100
AcDbDictionary
280
0
281
1
  3
Standard
350
18
  0
DICTIONARY
  5
19
102
{ACAD_REACTORS
330
C
102
}
100
AcDbDictionary
281
1
  0
DICTIONARY
  5
1A
102
{ACAD_REACTORS
330
C
102
}
100
AcDbDictionary
281
1
  3
Model
350
262
  3
Layout1
350
263
  0
ACDBPLACEHOLDER
  5
F
102
{ACAD_REACTORS
330
E
102
}
  0
MLINESTYLE
  5
18
102
{ACAD_REACTORS
330
17
102
}
100
AcDbMlineStyle
  2
STANDARD
 70
0
  3

 62
256
 51
90.0
 52
90.0
 71
2
 49
0.5
 62
256
  6
BYLAYER
 49
-0.5
 62
256
  6
BYLAYER
  0
LAYOUT
  5
262
102
{ACAD_REACTORS
330
1A
102
}
100
AcDbPlotSettings
  1

  2
none_device
  4

  6

 40
0.0
 41
0.0
 42
0.0
 43
0.0
 44
210.0
 45
297.0
 46
0.0
 47
0.0
 48
0.0
 49
0.0
140
0.0
141
0.0
142
1.0
143
1.0
 70
1024
 72
1
 73
0
 74
0
  7

 75
0
147
1.0
148
0.0
149
0.0
100
AcDbLayout
  1
Model
 70
0
 71
0
 10
0.0
 20
0.0
 11
210.0
 21
297.0
 12
0.0
 22
0.0
 32
0.0
 14
0.0
 24
0.0
 34
0.0
 15
0.0
 25
0.0
 35
0.0
146
0.0
 13
0.0
 23
0.0
 33
0.0
 16
1.0
 26
0.0
 36
0.0
 17
0.0
 27
1.0
 37
0.0
 76
0
330
210
345
0
346
0
  0
LAYOUT
  5
263
102
{ACAD_REACTORS
330
1A
102
}
100
AcDbPlotSettings
  1

  2
none_device
  4

  6

 40
0.0
 41
0.0
 42
0.0
 43
0.0
 44
210.0
 45
297.0
 46
0.0
 47
0.0
 48
0.0
 49
0.0
140
0.0
141
0.0
142
1.0
143
1.0
 70
0
 72
1
 73
0
 74
0
  7

 75
0
147
1.0
148
0.0
149
0.0
100
AcDbLayout
  1
Layout1
 70
0
 71
1
 10
0.0
 20
0.0
 11
210.0
 21
297.0
 12
0.0
 22
0.0
 32
0.0
 14
0.0
 24
0.0
 34
0.0
 15
0.0
 25
0.0
 35
0.0
146
0.0
 13
0.0
 23
0.0
 33
0.0
 16
1.0
 26
0.0
 36
0.0
 17
0.0
 27
1.0
 37
0.0
 76
0
330
211
345
0
346
0
  0
ENDSEC
  0
EOF
