999
DXF file: C:\Users\sesa63760\Dev\_Creo\CAD\MCADID0003561_3D-CAD\drw0001_1.dxf
999
Pro/ENGINEER 2019471 by Parametric Technology Corporation
  0
SECTION
  2
HEADER
  9
$ACADVER
  1
AC1024
  9
$DWGCODEPAGE
  3
ANSI_1252
  9
$EXTMAX
 10
67.0451777358
 20
94.8210370835
 30
0.0
  9
$EXTMIN
 10
0.0
 20
0.0
 30
0.0
  9
$LIMMIN
 10
0.0
 20
0.0
  9
$LIMMAX
 10
67.0451777358
 20
94.8210370835
  9
$VIEWCTR
 10
33.5225888679
 20
47.4105185417
  9
$VIEWSIZE
 40
94.8210370835
  9
$CLAYER
  8
0
  9
$LTSCALE
 40
6.1809268617
  9
$CELTYPE
  6
BYLAYER
  9
$DIMSCALE
 40
1.0
  9
$DIMASZ
 40
0.7981568778
  9
$DIMEXO
 40
1.0
  9
$DIMDLI
 40
4.270458559
  9
$DIMEXE
 40
1.0
  9
$DIMCEN
 40
1.0114243956
  9
$DIMLFAC
 40
1.0
  9
$DIMBLK
  1
_FILLED
  9
$DIMALT
 70
0
  9
$DIMALTF
 40
0.0393700787
  9
$DIMTXT
 40
1.1174196289
  9
$DIMTOL
 70
1
  9
$DIMLIM
 70
0
  9
$DIMTFAC
 40
1.0
  9
$DIMTP
 40
0.01
  9
$DIMTM
 40
0.01
  9
$DIMGAP
 40
0.625
  9
$DIMDSEP
 70
46
  9
$AUNITS
 70
0
  9
$PDMODE
 70
3
  9
$PDSIZE
 40
0.3125
  9
$HANDSEED
  5
334
  9
$TILEMODE
 70
1
  9
$MEASUREMENT
 70
1
  9
$INSUNITS
 70
4
  0
ENDSEC
  0
SECTION
  2
CLASSES
  0
CLASS
  1
ACDBDICTIONARYWDFLT
  2
AcDbDictionaryWithDefault
  3
AutoCAD 2000
 90
0
 91
1
280
0
281
0
  0
CLASS
  1
ACDBPLACEHOLDER
  2
AcDbPlaceHolder
  3
AutoCAD 2000
 90
0
 91
1
280
0
281
0
  0
CLASS
  1
LAYOUT
  2
AcDbLayout
  3
AutoCAD 2000
 90
0
 91
0
280
0
281
0
  0
ENDSEC
  0
SECTION
  2
TABLES
  0
TABLE
  2
VPORT
  5
8
100
AcDbSymbolTable
 70
2
  0
VPORT
  5
1F4
100
AcDbSymbolTableRecord
100
AcDbViewportTableRecord
  2
*ACTIVE
 70
0
 10
0.0
 20
0.0
 11
1.0
 21
1.0
 12
33.5225888679
 22
47.4105185417
 13
0.0
 23
0.0
 14
1.0
 24
1.0
 15
0.0
 25
0.0
 16
0.0
 26
0.0
 36
1.0
 17
0.0
 27
0.0
 37
0.0
 40
94.8210370835
 41
0.7070707071
 42
50.0
 43
0.0
 44
0.0
 50
0.0
 51
0.0
 71
0
 72
100
 73
1
 74
1
 75
0
 76
0
 77
0
 78
0
  0
ENDTAB
  0
TABLE
  2
LTYPE
  5
5
100
AcDbSymbolTable
 70
6
  0
LTYPE
  5
14
100
AcDbSymbolTableRecord
100
AcDbLinetypeTableRecord
  2
BYBLOCK
 70
0
  3

 72
65
 73
0
 40
0.0
  0
LTYPE
  5
15
100
AcDbSymbolTableRecord
100
AcDbLinetypeTableRecord
  2
BYLAYER
 70
0
  3

 72
65
 73
0
 40
0.0
  0
LTYPE
  5
16
100
AcDbSymbolTableRecord
100
AcDbLinetypeTableRecord
  2
CONTINUOUS
 70
64
  3
Solid line
 72
65
 73
0
 40
0.0
  0
LTYPE
  5
1F5
100
AcDbSymbolTableRecord
100
AcDbLinetypeTableRecord
  2
CENTER
 70
64
  3
____ _ ____ _ ____ _ ____ _ ____ _ ____ _ ____
 72
65
 73
4
 40
0.6
 49
0.375
 74
0
 49
-0.075
 74
0
 49
0.075
 74
0
 49
-0.075
 74
0
  0
LTYPE
  5
1F6
100
AcDbSymbolTableRecord
100
AcDbLinetypeTableRecord
  2
HIDDEN
 70
64
  3
- - - - - - - - - - - - - - - - - - - -
 72
65
 73
2
 40
0.2
 49
0.1
 74
0
 49
-0.1
 74
0
  0
LTYPE
  5
1F7
100
AcDbSymbolTableRecord
100
AcDbLinetypeTableRecord
  2
PHANTOM
 70
64
  3
_____ _ _ _____ _ _ _____ _ _ _____
 72
65
 73
6
 40
0.8
 49
0.45
 74
0
 49
-0.05
 74
0
 49
0.1
 74
0
 49
-0.05
 74
0
 49
0.1
 74
0
 49
-0.05
 74
0
  0
LTYPE
  5
1F8
100
AcDbSymbolTableRecord
100
AcDbLinetypeTableRecord
  2
DOT
 70
64
  3
. . . . . . . . . . . . . . . . . . . .
 72
65
 73
2
 40
0.2
 49
0.1
 74
0
 49
-0.1
 74
0
  0
LTYPE
  5
1F9
100
AcDbSymbolTableRecord
100
AcDbLinetypeTableRecord
  2
DASHED
 70
64
  3
- - - - - - - - - - - - - - - - - - - -
 72
65
 73
2
 40
0.2
 49
0.1
 74
0
 49
-0.1
 74
0
  0
ENDTAB
  0
TABLE
  2
LAYER
  5
2
100
AcDbSymbolTable
 70
36
  0
LAYER
  5
10
100
AcDbSymbolTableRecord
100
AcDbLayerTableRecord
  2
0
 70
0
 62
7
  6
CONTINUOUS
370
-3
390
F
  0
LAYER
  5
1FA
100
AcDbSymbolTableRecord
100
AcDbLayerTableRecord
  2
DEFAULT_1
 70
0
 62
7
  6
CENTER
370
-3
390
F
  0
LAYER
  5
1FB
100
AcDbSymbolTableRecord
100
AcDbLayerTableRecord
  2
DEFAULT_2
 70
0
 62
7
  6
HIDDEN
370
-3
390
F
  0
LAYER
  5
1FC
100
AcDbSymbolTableRecord
100
AcDbLayerTableRecord
  2
DEFAULT_3
 70
0
 62
7
  6
PHANTOM
370
-3
390
F
  0
LAYER
  5
1FD
100
AcDbSymbolTableRecord
100
AcDbLayerTableRecord
  2
00_COMPONENTS
 70
0
 62
7
  6
CONTINUOUS
370
-3
390
F
  0
LAYER
  5
1FE
100
AcDbSymbolTableRecord
100
AcDbLayerTableRecord
  2
01_1_DEFAULT_DATUMS
 70
0
 62
7
  6
CONTINUOUS
370
-3
390
F
  0
LAYER
  5
1FF
100
AcDbSymbolTableRecord
100
AcDbLayerTableRecord
  2
01_PLANES
 70
0
 62
7
  6
CONTINUOUS
370
-3
390
F
  0
LAYER
  5
200
100
AcDbSymbolTableRecord
100
AcDbLayerTableRecord
  2
02_COORD_SYS
 70
0
 62
7
  6
CONTINUOUS
370
-3
390
F
  0
LAYER
  5
201
100
AcDbSymbolTableRecord
100
AcDbLayerTableRecord
  2
03_AXES
 70
0
 62
7
  6
CONTINUOUS
370
-3
390
F
  0
LAYER
  5
202
100
AcDbSymbolTableRecord
100
AcDbLayerTableRecord
  2
04_POINTS
 70
0
 62
7
  6
CONTINUOUS
370
-3
390
F
  0
LAYER
  5
203
100
AcDbSymbolTableRecord
100
AcDbLayerTableRecord
  2
05_CURVES
 70
0
 62
7
  6
CONTINUOUS
370
-3
390
F
  0
LAYER
  5
204
100
AcDbSymbolTableRecord
100
AcDbLayerTableRecord
  2
06_SURFS
 70
0
 62
7
  6
CONTINUOUS
370
-3
390
F
  0
LAYER
  5
205
100
AcDbSymbolTableRecord
100
AcDbLayerTableRecord
  2
07_COSMETICS
 70
0
 62
7
  6
CONTINUOUS
370
-3
390
F
  0
LAYER
  5
206
100
AcDbSymbolTableRecord
100
AcDbLayerTableRecord
  2
10_NOTES
 70
0
 62
7
  6
CONTINUOUS
370
-3
390
F
  0
LAYER
  5
207
100
AcDbSymbolTableRecord
100
AcDbLayerTableRecord
  2
11_NOTES_PUB
 70
0
 62
7
  6
CONTINUOUS
370
-3
390
F
  0
LAYER
  5
208
100
AcDbSymbolTableRecord
100
AcDbLayerTableRecord
  2
13_REF_GTOL
 70
0
 62
7
  6
CONTINUOUS
370
-3
390
F
  0
LAYER
  5
209
100
AcDbSymbolTableRecord
100
AcDbLayerTableRecord
  2
16_MISC
 70
0
 62
7
  6
CONTINUOUS
370
-3
390
F
  0
LAYER
  5
20A
100
AcDbSymbolTableRecord
100
AcDbLayerTableRecord
  2
17_NO_PRINT
 70
0
 62
7
  6
CONTINUOUS
370
-3
390
F
  0
LAYER
  5
20B
100
AcDbSymbolTableRecord
100
AcDbLayerTableRecord
  2
18_DATUM_CAMS_JOINTS
 70
0
 62
7
  6
CONTINUOUS
370
-3
390
F
  0
LAYER
  5
20C
100
AcDbSymbolTableRecord
100
AcDbLayerTableRecord
  2
19_DATUM_FUNCTIONAL
 70
0
 62
7
  6
CONTINUOUS
370
-3
390
F
  0
LAYER
  5
20D
100
AcDbSymbolTableRecord
100
AcDbLayerTableRecord
  2
20_DATUM_KINEMATIC_SCHEME
 70
0
 62
7
  6
CONTINUOUS
370
-3
390
F
  0
ENDTAB
  0
TABLE
  2
STYLE
  5
3
100
AcDbSymbolTable
 70
1
  0
STYLE
  5
11
100
AcDbSymbolTableRecord
100
AcDbTextStyleTableRecord
  2
STANDARD
 70
0
 40
0.0
 41
1.0
 50
0.0
 71
0
 42
0.2
  3
ARIAL.TTF
  4

  0
STYLE
  5
20E
100
AcDbSymbolTableRecord
100
AcDbTextStyleTableRecord
  2
TEXTSTYLE_1
 70
0
 40
0.0
 41
0.8
 50
0.0
 71
0
 42
0.2
  3
gdt
  4

  0
ENDTAB
  0
TABLE
  2
VIEW
  5
6
100
AcDbSymbolTable
 70
0
  0
ENDTAB
  0
TABLE
  2
UCS
  5
7
100
AcDbSymbolTable
 70
0
  0
ENDTAB
  0
TABLE
  2
APPID
  5
9
100
AcDbSymbolTable
 70
1
  0
APPID
  5
20F
100
AcDbSymbolTableRecord
100
AcDbRegAppTableRecord
  2
ACAD
 70
0
  0
ENDTAB
  0
TABLE
  2
BLOCK_RECORD
  5
1
100
AcDbSymbolTable
 70
0
  0
BLOCK_RECORD
  5
210
100
AcDbSymbolTableRecord
100
AcDbBlockTableRecord
  2
*Model_Space
  0
BLOCK_RECORD
  5
211
100
AcDbSymbolTableRecord
100
AcDbBlockTableRecord
  2
*Paper_Space
  0
BLOCK_RECORD
  5
212
100
AcDbSymbolTableRecord
100
AcDbBlockTableRecord
  2
_FILLED
  0
ENDTAB
  0
TABLE
  2
DIMSTYLE
  5
A
100
AcDbSymbolTable
 70
1
100
AcDbDimStyleTable
 71
0
  0
DIMSTYLE
105
213
100
AcDbSymbolTableRecord
100
AcDbDimStyleTableRecord
  2
STANDARD
 70
0
  3

  4

 40
1.0
 41
0.7981568778
 42
1.0
 43
0.38
 44
1.0
 45
0.0
 46
0.0
 47
0.01
 48
0.01
140
1.1174196289
141
0.09
142
0.0
143
25.4
144
1.0
145
0.0
146
1.0
147
0.625
 71
1
 72
0
 73
0
 74
0
 75
0
 76
0
 77
1
 78
8
 79
2
170
0
171
1
172
0
173
0
174
0
175
0
176
0
177
0
178
0
270
2
179
2
271
2
272
2
273
2
274
2
275
0
280
0
281
0
282
0
283
1
284
8
285
0
286
0
287
3
288
0
340
11
278
46
341
212
342
212
343
212
344
212
  0
ENDTAB
  0
ENDSEC
  0
SECTION
  2
BLOCKS
  0
BLOCK
  5
20
100
AcDbEntity
  8
0
100
AcDbBlockBegin
  2
*Model_Space
 70
0
 10
0.0
 20
0.0
 30
0.0
  3
*Model_Space
  1

  0
ENDBLK
  5
21
100
AcDbEntity
  8
0
100
AcDbBlockEnd
  0
BLOCK
  5
1C
100
AcDbEntity
  8
0
100
AcDbBlockBegin
  2
*Paper_Space
 70
0
 10
0.0
 20
0.0
 30
0.0
  3
*Paper_Space
  1

  0
ENDBLK
  5
1D
100
AcDbEntity
  8
0
100
AcDbBlockEnd
  0
BLOCK
  5
214
100
AcDbEntity
  8
0
100
AcDbBlockBegin
  2
_FILLED
 70
64
 10
0.0
 20
0.0
  3
_FILLED
  1

  0
SOLID
  5
215
100
AcDbEntity
  8
0
  6
BYBLOCK
 62
0
100
AcDbTrace
 10
0.0
 20
0.0
 11
-1.0
 21
0.25
 12
-1.0
 22
-0.25
 13
-1.0
 23
-0.25
  0
ENDBLK
  5
216
100
AcDbEntity
  8
0
  6
BYBLOCK
 62
0
100
AcDbBlockEnd
  0
ENDSEC
  0
SECTION
  2
ENTITIES
  0
LINE
  5
217
100
AcDbEntity
  8
0
100
AcDbLine
 62
7
  6
BYLAYER
 10
29.0938475966
 20
85.6744854446
 11
30.2578240875
 21
86.1235139108
  0
LWPOLYLINE
  5
218
100
AcDbEntity
  8
0
100
AcDbPolyline
 62
7
  6
BYLAYER
 90
4
 70
0
 10
35.789099762
 20
79.7564309013
 10
37.8568693437
 20
80.4608753362
 10
39.2284325429
 20
81.477187993
 10
39.3698060246
 20
81.6517118818
  0
LINE
  5
219
100
AcDbEntity
  8
0
100
AcDbLine
 62
7
  6
BYLAYER
 10
34.9777260674
 20
12.6628171934
 11
17.2999829387
 21
22.8688360564
  0
LWPOLYLINE
  5
21A
100
AcDbEntity
  8
0
100
AcDbPolyline
 62
7
  6
BYLAYER
 90
3
 70
0
 10
27.2267568681
 20
77.715071952
 10
26.1724105075
 20
76.8040521968
 10
25.5634595136
 20
75.0365561696
  0
LINE
  5
21B
100
AcDbEntity
  8
0
100
AcDbLine
 62
7
  6
BYLAYER
 10
30.3815128539
 20
17.1944409178
 11
25.4317447779
 21
20.0521261995
  0
LINE
  5
21C
100
AcDbEntity
  8
0
100
AcDbLine
 62
7
  6
BYLAYER
 10
25.5731655454
 20
20.1337750302
 11
30.5229336214
 21
17.2760897486
  0
LINE
  5
21D
100
AcDbEntity
  8
0
100
AcDbLine
 62
7
  6
BYLAYER
 10
25.4317447779
 20
21.6851310337
 11
30.3815128539
 21
18.8274457521
  0
LINE
  5
21E
100
AcDbEntity
  8
0
100
AcDbLine
 62
7
  6
BYLAYER
 10
40.4578073015
 20
17.0516450616
 11
40.6699402191
 21
16.9291728352
  0
LINE
  5
21F
100
AcDbEntity
  8
0
100
AcDbLine
 62
7
  6
BYLAYER
 10
39.1400492744
 20
79.1637395082
 11
40.8200690779
 21
80.6002873363
  0
LWPOLYLINE
  5
220
100
AcDbEntity
  8
0
100
AcDbPolyline
 62
7
  6
BYLAYER
 90
3
 70
0
 10
38.3534735337
 20
75.4134719552
 10
38.735768689
 20
75.6860596679
 10
39.1959300893
 20
76.3788649699
  0
LINE
  5
221
100
AcDbEntity
  8
0
100
AcDbLine
 62
7
  6
BYLAYER
 10
37.8287676865
 20
75.2850195291
 11
38.1441461948
 21
75.4766443186
  0
LINE
  5
222
100
AcDbEntity
  8
0
100
AcDbLine
 62
7
  6
BYLAYER
 10
37.828605688
 20
75.2851082511
 11
37.7239104271
 21
75.2229356096
  0
LINE
  5
223
100
AcDbEntity
  8
0
100
AcDbLine
 62
7
  6
BYLAYER
 10
38.2587703996
 20
75.546289935
 11
38.143361426
 21
75.477935901
  0
LINE
  5
224
100
AcDbEntity
  8
0
100
AcDbLine
 62
7
  6
BYLAYER
 10
25.0898477125
 20
66.5584057565
 11
17.2999829387
 21
62.0609520787
  0
LINE
  5
225
100
AcDbEntity
  8
0
100
AcDbLine
 62
7
  6
BYLAYER
 10
38.0980985776
 20
74.756121871
 11
38.1197235319
 21
74.7685479916
  0
LINE
  5
226
100
AcDbEntity
  8
0
100
AcDbLine
 62
7
  6
BYLAYER
 10
38.2657391859
 20
73.8229425505
 11
39.707269
 21
75.0685124956
  0
LINE
  5
227
100
AcDbEntity
  8
0
100
AcDbLine
 62
7
  6
BYLAYER
 10
17.2999829387
 20
22.8688360564
 11
17.2999829387
 21
62.0609520787
  0
LINE
  5
228
100
AcDbEntity
  8
0
100
AcDbLine
 62
7
  6
BYLAYER
 10
27.1590803733
 20
77.2854773697
 11
26.9134596147
 21
76.5384130197
  0
LINE
  5
229
100
AcDbEntity
  8
0
100
AcDbLine
 62
7
  6
BYLAYER
 10
21.2880179938
 20
59.172010877
 11
21.1465972264
 21
59.0903620462
  0
LINE
  5
22A
100
AcDbEntity
  8
0
100
AcDbLine
 62
7
  6
BYLAYER
 10
21.1465972264
 20
57.3213346085
 11
21.1465972264
 21
59.0903620462
  0
LINE
  5
22B
100
AcDbEntity
  8
0
100
AcDbLine
 62
7
  6
BYLAYER
 10
29.4254521624
 20
82.9904597512
 11
29.2018903421
 21
81.9617048582
  0
LINE
  5
22C
100
AcDbEntity
  8
0
100
AcDbLine
 62
7
  6
BYLAYER
 10
39.7323656729
 20
82.2983842961
 11
39.3698060246
 21
81.6517118818
  0
LINE
  5
22D
100
AcDbEntity
  8
0
100
AcDbLine
 62
7
  6
BYLAYER
 10
23.3747023006
 20
60.7428832039
 11
23.3747023006
 21
62.2682643794
  0
LINE
  5
22E
100
AcDbEntity
  8
0
100
AcDbLine
 62
7
  6
BYLAYER
 10
23.3747023006
 20
70.1326610009
 11
23.3747023006
 21
71.6580421764
  0
LINE
  5
22F
100
AcDbEntity
  8
0
100
AcDbLine
 62
7
  6
BYLAYER
 10
25.5634595136
 20
61.6448182751
 11
25.5634595136
 21
68.3257138111
  0
LINE
  5
230
100
AcDbEntity
  8
0
100
AcDbLine
 62
7
  6
BYLAYER
 10
41.1924710916
 20
81.2069510196
 11
41.1978347497
 21
81.2177817662
  0
LINE
  5
231
100
AcDbEntity
  8
0
100
AcDbLine
 62
7
  6
BYLAYER
 10
41.1835601235
 20
81.2099211676
 11
41.1898303495
 21
81.2204373603
  0
LINE
  5
232
100
AcDbEntity
  8
0
100
AcDbLine
 62
7
  6
BYLAYER
 10
27.6997875794
 20
53.8645265898
 11
27.4169460445
 21
53.7012289282
  0
LINE
  5
233
100
AcDbEntity
  8
0
100
AcDbLine
 62
7
  6
BYLAYER
 10
26.0264168728
 20
52.8886657107
 11
25.8849961053
 21
52.8070168799
  0
LINE
  5
234
100
AcDbEntity
  8
0
100
AcDbLine
 62
7
  6
BYLAYER
 10
26.9134595136
 20
75.6729568216
 11
26.9134595136
 21
76.5377435681
  0
LINE
  5
235
100
AcDbEntity
  8
0
100
AcDbLine
 62
7
  6
BYLAYER
 10
27.0865270808
 20
78.1220840283
 11
27.0865270808
 21
78.7098533585
  0
LINE
  5
236
100
AcDbEntity
  8
0
100
AcDbLine
 62
7
  6
BYLAYER
 10
27.4169460445
 20
54.5055052112
 11
27.4169460445
 21
53.7012289282
  0
LINE
  5
237
100
AcDbEntity
  8
0
100
AcDbLine
 62
7
  6
BYLAYER
 10
27.6997875794
 20
54.3422102692
 11
27.6997875794
 21
53.8645265898
  0
LINE
  5
238
100
AcDbEntity
  8
0
100
AcDbLine
 62
7
  6
BYLAYER
 10
28.1134700525
 20
53.2990997021
 11
28.1134700525
 21
54.1033759851
  0
LINE
  5
239
100
AcDbEntity
  8
0
100
AcDbLine
 62
7
  6
BYLAYER
 10
39.8258481751
 20
78.2406538241
 11
41.1835601235
 21
81.2099211676
  0
LINE
  5
23A
100
AcDbEntity
  8
0
100
AcDbLine
 62
7
  6
BYLAYER
 10
26.5738160781
 20
50.4754442909
 11
26.4323953106
 21
50.3937954601
  0
LINE
  5
23B
100
AcDbEntity
  8
0
100
AcDbLine
 62
7
  6
BYLAYER
 10
27.1081432573
 20
48.3177926922
 11
26.7541146907
 21
49.2780954854
  0
LINE
  5
23C
100
AcDbEntity
  8
0
100
AcDbLine
 62
7
  6
BYLAYER
 10
26.8955354581
 20
49.3597443162
 11
27.2495640247
 21
48.399441523
  0
LINE
  5
23D
100
AcDbEntity
  8
0
100
AcDbLine
 62
7
  6
BYLAYER
 10
26.7541146907
 20
49.2780954854
 11
26.4323953106
 21
50.3937954601
  0
LINE
  5
23E
100
AcDbEntity
  8
0
100
AcDbLine
 62
7
  6
BYLAYER
 10
26.5738160781
 20
50.4754442909
 11
26.8955354581
 21
49.3597443162
  0
LINE
  5
23F
100
AcDbEntity
  8
0
100
AcDbLine
 62
7
  6
BYLAYER
 10
26.4323953106
 20
50.3937954601
 11
25.8849961053
 21
52.8070168799
  0
LINE
  5
240
100
AcDbEntity
  8
0
100
AcDbLine
 62
7
  6
BYLAYER
 10
26.0264168728
 20
52.8886657107
 11
26.5738160781
 21
50.4754442909
  0
LINE
  5
241
100
AcDbEntity
  8
0
100
AcDbLine
 62
7
  6
BYLAYER
 10
25.8849961053
 20
52.8070168799
 11
25.5010025085
 21
54.8073744201
  0
LINE
  5
242
100
AcDbEntity
  8
0
100
AcDbLine
 62
7
  6
BYLAYER
 10
25.67767712
 20
54.7053735932
 11
26.0264168728
 21
52.8886657107
  0
LINE
  5
243
100
AcDbEntity
  8
0
100
AcDbLine
 62
7
  6
BYLAYER
 10
30.0634595136
 20
83.2989249963
 11
30.0634595136
 21
85.6014568877
  0
LINE
  5
244
100
AcDbEntity
  8
0
100
AcDbLine
 62
7
  6
BYLAYER
 10
30.8334296208
 20
56.436682397
 11
30.8334296208
 21
57.9620635725
  0
LINE
  5
245
100
AcDbEntity
  8
0
100
AcDbLine
 62
7
  6
BYLAYER
 10
30.8334296208
 20
65.826460194
 11
30.8334296208
 21
67.3518413695
  0
LINE
  5
246
100
AcDbEntity
  8
0
100
AcDbLine
 62
7
  6
BYLAYER
 10
29.1962504338
 20
81.3569741111
 11
29.2018903421
 21
81.9617048582
  0
LINE
  5
247
100
AcDbEntity
  8
0
100
AcDbLine
 62
7
  6
BYLAYER
 10
30.3122364592
 20
52.0296700437
 11
29.9280231151
 21
50.4728269539
  0
LINE
  5
248
100
AcDbEntity
  8
0
100
AcDbLine
 62
7
  6
BYLAYER
 10
29.9280231151
 20
50.4728269539
 11
29.3805014823
 21
48.6917440738
  0
LINE
  5
249
100
AcDbEntity
  8
0
100
AcDbLine
 62
7
  6
BYLAYER
 10
39.707269
 20
75.0685124956
 11
40.2134594126
 21
76.5370741165
  0
LINE
  5
24A
100
AcDbEntity
  8
0
100
AcDbLine
 62
7
  6
BYLAYER
 10
29.3805014823
 20
48.6917440738
 11
29.0587523007
 21
47.947542442
  0
LINE
  5
24B
100
AcDbEntity
  8
0
100
AcDbLine
 62
7
  6
BYLAYER
 10
29.0587523007
 20
47.947542442
 11
28.7055521343
 21
47.3973505562
  0
LINE
  5
24C
100
AcDbEntity
  8
0
100
AcDbLine
 62
7
  6
BYLAYER
 10
26.8955354581
 20
49.3597443162
 11
26.7541146907
 21
49.2780954854
  0
LINE
  5
24D
100
AcDbEntity
  8
0
100
AcDbLine
 62
7
  6
BYLAYER
 10
27.2495640247
 20
48.399441523
 11
27.1081432573
 21
48.3177926922
  0
LINE
  5
24E
100
AcDbEntity
  8
0
100
AcDbLine
 62
7
  6
BYLAYER
 10
34.5248278605
 20
51.5299080247
 11
34.3834070931
 21
51.448259194
  0
LINE
  5
24F
100
AcDbEntity
  8
0
100
AcDbLine
 62
7
  6
BYLAYER
 10
28.0478450006
 20
47.2499932455
 11
27.9064242331
 21
47.1683444147
  0
LINE
  5
250
100
AcDbEntity
  8
0
100
AcDbLine
 62
7
  6
BYLAYER
 10
34.3834070931
 20
51.448259194
 11
34.3834070931
 21
49.6792317563
  0
LINE
  5
251
100
AcDbEntity
  8
0
100
AcDbLine
 62
7
  6
BYLAYER
 10
34.5248278605
 20
49.760880587
 11
34.3834070931
 21
49.6792317563
  0
LINE
  5
252
100
AcDbEntity
  8
0
100
AcDbLine
 62
7
  6
BYLAYER
 10
38.5132746931
 20
49.8137294431
 11
49.8269360886
 21
56.345635905
  0
LINE
  5
253
100
AcDbEntity
  8
0
100
AcDbLine
 62
7
  6
BYLAYER
 10
34.5248278605
 20
51.5299080247
 11
34.5248278605
 21
49.760880587
  0
LINE
  5
254
100
AcDbEntity
  8
0
100
AcDbLine
 62
7
  6
BYLAYER
 10
37.0634595136
 20
83.2989249963
 11
37.0634595136
 21
85.6014568877
  0
LINE
  5
255
100
AcDbEntity
  8
0
100
AcDbLine
 62
7
  6
BYLAYER
 10
34.3834070931
 20
49.6792317563
 11
28.1134700525
 21
53.2990997021
  0
LINE
  5
256
100
AcDbEntity
  8
0
100
AcDbLine
 62
7
  6
BYLAYER
 10
27.4169460445
 20
53.7012289282
 11
21.1465972264
 21
57.3213346085
  0
LINE
  5
257
100
AcDbEntity
  8
0
100
AcDbLine
 62
7
  6
BYLAYER
 10
28.1134700525
 20
54.1033759851
 11
27.4169460445
 21
54.5055052112
  0
LINE
  5
258
100
AcDbEntity
  8
0
100
AcDbLine
 62
7
  6
BYLAYER
 10
37.9250286852
 20
81.9617048582
 11
37.9306685935
 21
81.3569741111
  0
LINE
  5
259
100
AcDbEntity
  8
0
100
AcDbLine
 62
7
  6
BYLAYER
 10
38.5132746931
 20
49.8137294431
 11
38.5132746931
 21
14.7041255065
  0
LINE
  5
25A
100
AcDbEntity
  8
0
100
AcDbLine
 62
7
  6
BYLAYER
 10
39.3971544897
 20
15.2144306988
 11
39.3971544897
 21
22.5630557136
  0
LINE
  5
25B
100
AcDbEntity
  8
0
100
AcDbLine
 62
7
  6
BYLAYER
 10
40.0403919465
 20
78.1220840283
 11
40.0403919465
 21
78.7098533585
  0
LINE
  5
25C
100
AcDbEntity
  8
0
100
AcDbLine
 62
7
  6
BYLAYER
 10
40.2134595136
 20
75.6729568216
 11
40.2134595136
 21
76.5377435681
  0
LINE
  5
25D
100
AcDbEntity
  8
0
100
AcDbLine
 62
7
  6
BYLAYER
 10
21.1465972264
 20
59.0903620462
 11
34.3834070931
 21
51.448259194
  0
LINE
  5
25E
100
AcDbEntity
  8
0
100
AcDbLine
 62
7
  6
BYLAYER
 10
21.2880179938
 20
59.172010877
 11
34.5248278605
 21
51.5299080247
  0
LINE
  5
25F
100
AcDbEntity
  8
0
100
AcDbLine
 62
7
  6
BYLAYER
 10
41.6095679849
 20
14.9405049356
 11
41.5893439722
 21
15.1088029376
  0
LINE
  5
260
100
AcDbEntity
  8
0
100
AcDbLine
 62
7
  6
BYLAYER
 10
40.4578073015
 20
22.1139642806
 11
40.4578073015
 21
17.0516450616
  0
LINE
  5
261
100
AcDbEntity
  8
0
100
AcDbLine
 62
7
  6
BYLAYER
 10
40.6699402191
 20
22.2364385466
 11
40.6699402191
 21
16.9291728352
  0
LINE
  5
262
100
AcDbEntity
  8
0
100
AcDbLine
 62
7
  6
BYLAYER
 10
41.0221868339
 20
58.0128923392
 11
41.0221868339
 21
59.5382735147
  0
LINE
  5
263
100
AcDbEntity
  8
0
100
AcDbLine
 62
7
  6
BYLAYER
 10
41.0221868339
 20
67.4026701362
 11
41.0221868339
 21
68.9280513117
  0
LINE
  5
264
100
AcDbEntity
  8
0
100
AcDbLine
 62
7
  6
BYLAYER
 10
41.5634595136
 20
61.6448182751
 11
41.5634595136
 21
68.1595513312
  0
LWPOLYLINE
  5
265
100
AcDbEntity
  8
0
100
AcDbPolyline
 62
7
  6
BYLAYER
 90
3
 70
0
 10
33.5634928208
 20
56.217665963
 10
36.6249577444
 20
56.5692536748
 10
37.3935481774
 20
56.865753635
  0
LINE
  5
266
100
AcDbEntity
  8
0
100
AcDbLine
 62
7
  6
BYLAYER
 10
30.844140383
 20
56.529950872
 11
33.5634928208
 21
56.217665963
  0
LINE
  5
267
100
AcDbEntity
  8
0
100
AcDbLine
 62
7
  6
BYLAYER
 10
25.9290799646
 20
81.2177901813
 11
25.9342775507
 21
81.2072934135
  0
LINE
  5
268
100
AcDbEntity
  8
0
100
AcDbLine
 62
7
  6
BYLAYER
 10
27.3010708522
 20
78.2406538241
 11
25.9432007885
 21
81.2102669599
  0
LINE
  5
269
100
AcDbEntity
  8
0
100
AcDbLine
 62
7
  6
BYLAYER
 10
43.7522167267
 20
63.8953030882
 11
43.7522167267
 21
65.4206842638
  0
LINE
  5
26A
100
AcDbEntity
  8
0
100
AcDbLine
 62
7
  6
BYLAYER
 10
43.7522167267
 20
73.2850808852
 11
43.7522167267
 21
74.8104620608
  0
LINE
  5
26B
100
AcDbEntity
  8
0
100
AcDbLine
 62
7
  6
BYLAYER
 10
25.9371246882
 20
81.220458919
 11
25.9432007885
 21
81.2102669599
  0
LINE
  5
26C
100
AcDbEntity
  8
0
100
AcDbLine
 62
7
  6
BYLAYER
 10
27.7556705338
 20
81.6536490429
 11
27.3945533544
 21
82.2983842961
  0
LINE
  5
26D
100
AcDbEntity
  8
0
100
AcDbLine
 62
7
  6
BYLAYER
 10
37.7014668648
 20
82.9904597512
 11
37.9250286852
 21
81.9617048582
  0
LINE
  5
26E
100
AcDbEntity
  8
0
100
AcDbLine
 62
7
  6
BYLAYER
 10
47.3874266726
 20
26.1147580083
 11
47.3874266726
 21
20.807492297
  0
LINE
  5
26F
100
AcDbEntity
  8
0
100
AcDbLine
 62
7
  6
BYLAYER
 10
48.5895014295
 20
26.8087720501
 11
48.5895014295
 21
19.1503213916
  0
LINE
  5
270
100
AcDbEntity
  8
0
100
AcDbLine
 62
7
  6
BYLAYER
 10
48.801634347
 20
26.9312463161
 11
48.801634347
 21
27.9927022802
  0
LINE
  5
271
100
AcDbEntity
  8
0
100
AcDbLine
 62
7
  6
BYLAYER
 10
48.943056292
 20
28.0743517909
 11
48.943056292
 21
20.7257267761
  0
LINE
  5
272
100
AcDbEntity
  8
0
100
AcDbLine
 62
7
  6
BYLAYER
 10
49.8269360886
 20
21.2360319684
 11
49.8269360886
 21
56.345635905
  0
LINE
  5
273
100
AcDbEntity
  8
0
100
AcDbLine
 62
7
  6
BYLAYER
 10
41.5634595136
 20
75.0365561696
 11
40.9544830276
 21
76.8040877285
  0
LINE
  5
274
100
AcDbEntity
  8
0
100
AcDbLine
 62
7
  6
BYLAYER
 10
40.2134594126
 20
76.5370741165
 11
39.8557286634
 21
77.5860937238
  0
LINE
  5
275
100
AcDbEntity
  8
0
100
AcDbLine
 62
7
  6
BYLAYER
 10
25.4317447779
 20
20.0521261995
 11
25.5731655454
 21
20.1337750302
  0
LINE
  5
276
100
AcDbEntity
  8
0
100
AcDbLine
 62
7
  6
BYLAYER
 10
26.3068499494
 20
80.6002873363
 11
27.9869161878
 21
79.1637126994
  0
LINE
  5
277
100
AcDbEntity
  8
0
100
AcDbLine
 62
7
  6
BYLAYER
 10
29.2981693745
 20
75.2850085717
 11
28.8681489252
 21
75.5462900982
  0
LINE
  5
278
100
AcDbEntity
  8
0
100
AcDbLine
 62
7
  6
BYLAYER
 10
27.7556705338
 20
81.6536490429
 11
28.9887084977
 21
80.613463579
  0
LINE
  5
279
100
AcDbEntity
  8
0
100
AcDbLine
 62
7
  6
BYLAYER
 10
39.3971544897
 20
22.5630557136
 11
48.943056292
 21
28.0743517909
  0
LINE
  5
27A
100
AcDbEntity
  8
0
100
AcDbLine
 62
7
  6
BYLAYER
 10
30.5229336214
 20
17.2760897486
 11
30.3815128539
 21
17.1944409178
  0
LINE
  5
27B
100
AcDbEntity
  8
0
100
AcDbLine
 62
7
  6
BYLAYER
 10
48.801634347
 20
26.9312463161
 11
47.3874266726
 21
26.1147580083
  0
LINE
  5
27C
100
AcDbEntity
  8
0
100
AcDbLine
 62
7
  6
BYLAYER
 10
39.3971544897
 20
21.5015997495
 11
40.6699402191
 21
22.2364385466
  0
LWPOLYLINE
  5
27D
100
AcDbEntity
  8
0
100
AcDbPolyline
 62
7
  6
BYLAYER
 90
4
 70
0
 10
30.5189067358
 20
80.0137941335
 10
30.9466614386
 20
79.8461613268
 10
33.3457810334
 20
79.5344259037
 10
35.789099762
 20
79.7564309013
  0
LINE
  5
27E
100
AcDbEntity
  8
0
100
AcDbLine
 62
7
  6
BYLAYER
 10
40.9544830276
 20
76.8040877285
 11
39.8972075859
 21
77.7176219217
  0
LINE
  5
27F
100
AcDbEntity
  8
0
100
AcDbLine
 62
7
  6
BYLAYER
 10
40.6699402191
 20
16.9291728352
 11
41.60209112
 21
17.4673471922
  0
LINE
  5
280
100
AcDbEntity
  8
0
100
AcDbLine
 62
7
  6
BYLAYER
 10
46.6609362962
 20
20.3880553831
 11
47.3874266726
 21
20.807492297
  0
LINE
  5
281
100
AcDbEntity
  8
0
100
AcDbLine
 62
7
  6
BYLAYER
 10
49.8269360886
 20
21.2360319684
 11
48.943056292
 21
20.7257267761
  0
LINE
  5
282
100
AcDbEntity
  8
0
100
AcDbLine
 62
7
  6
BYLAYER
 10
39.3971544897
 20
15.2144306988
 11
38.5132746931
 21
14.7041255065
  0
LINE
  5
283
100
AcDbEntity
  8
0
100
AcDbLine
 62
7
  6
BYLAYER
 10
39.0435996271
 20
13.6390253144
 11
41.5893435765
 21
15.1088036728
  0
LINE
  5
284
100
AcDbEntity
  8
0
100
AcDbLine
 62
7
  6
BYLAYER
 10
47.5545351125
 20
18.5527963443
 11
48.5895014295
 21
19.1503213916
  0
LINE
  5
285
100
AcDbEntity
  8
0
100
AcDbLine
 62
7
  6
BYLAYER
 10
48.7913762706
 20
18.9471022603
 11
47.6760723551
 21
18.3031850881
  0
LINE
  5
286
100
AcDbEntity
  8
0
100
AcDbLine
 62
7
  6
BYLAYER
 10
41.6584080537
 20
14.8289057225
 11
37.4777148752
 21
12.4151957984
  0
LINE
  5
287
100
AcDbEntity
  8
0
100
AcDbLine
 62
7
  6
BYLAYER
 10
36.065867151
 20
87.0142301429
 11
36.0251103751
 21
87.0380325844
  0
LINE
  5
288
100
AcDbEntity
  8
0
100
AcDbLine
 62
7
  6
BYLAYER
 10
36.8521131828
 20
86.1300638994
 11
38.0330342133
 21
85.6745069318
  0
ARC
  5
289
100
AcDbEntity
  8
0
100
AcDbCircle
 62
7
  6
BYLAYER
 10
3.8367432196
 20
-2.1989129352
 40
48.4808518009
100
AcDbArc
 50
27.7838029544
 51
29.4592267021
  0
ARC
  5
28A
100
AcDbEntity
  8
0
100
AcDbCircle
 62
7
  6
BYLAYER
 10
37.6446373433
 20
48.669088326
 40
31.0922032784
100
AcDbArc
 50
109.7242191513
 51
111.7866255337
  0
ARC
  5
28B
100
AcDbEntity
  8
0
100
AcDbCircle
 62
7
  6
BYLAYER
 10
20.142125529
 20
48.757194671
 40
13.8942070271
100
AcDbArc
 50
59.9293264813
 51
66.720413425
  0
ARC
  5
28C
100
AcDbEntity
  8
0
100
AcDbCircle
 62
7
  6
BYLAYER
 10
34.2757278023
 20
69.8446166882
 40
13.8656080968
100
AcDbArc
 50
254.3414441384
 51
255.5178228023
  0
ARC
  5
28D
100
AcDbEntity
  8
0
100
AcDbCircle
 62
7
  6
BYLAYER
 10
20.327212325
 20
49.1616066494
 40
13.4495735188
100
AcDbArc
 50
66.7638121003
 51
67.2423530161
  0
ARC
  5
28E
100
AcDbEntity
  8
0
100
AcDbCircle
 62
7
  6
BYLAYER
 10
34.1509874378
 20
69.4032100293
 40
13.4069153707
100
AcDbArc
 50
251.4460693636
 51
254.3456043595
  0
ARC
  5
28F
100
AcDbEntity
  8
0
100
AcDbCircle
 62
7
  6
BYLAYER
 10
34.9793133713
 20
80.9610997726
 40
6.3305833962
100
AcDbArc
 50
296.956307462
 51
299.9870038207
  0
ARC
  5
290
100
AcDbEntity
  8
0
100
AcDbCircle
 62
7
  6
BYLAYER
 10
34.966918966
 20
80.2346365224
 40
6.3101826111
100
AcDbArc
 50
297.8987497893
 51
299.7496082915
  0
ARC
  5
291
100
AcDbEntity
  8
0
100
AcDbCircle
 62
7
  6
BYLAYER
 10
32.1338692776
 20
80.1866090769
 40
6.2555189682
100
AcDbArc
 50
240.2399042642
 51
242.1075829122
  0
ARC
  5
292
100
AcDbEntity
  8
0
100
AcDbCircle
 62
7
  6
BYLAYER
 10
35.0483756222
 20
80.0883608617
 40
5.7515696127
100
AcDbArc
 50
299.9996953855
 51
300.2664273648
  0
ARC
  5
293
100
AcDbEntity
  8
0
100
AcDbCircle
 62
7
  6
BYLAYER
 10
31.5953899129
 20
79.3461170395
 40
4.8656037181
100
AcDbArc
 50
233.7740866627
 51
234.5469543237
  0
ARC
  5
294
100
AcDbEntity
  8
0
100
AcDbCircle
 62
7
  6
BYLAYER
 10
37.8155148217
 20
82.8862461108
 40
3.7714534816
100
AcDbArc
 50
333.7433407545
 51
335.1147205476
  0
ARC
  5
295
100
AcDbEntity
  8
0
100
AcDbCircle
 62
7
  6
BYLAYER
 10
29.311230827
 20
82.8861604406
 40
3.7712602374
100
AcDbArc
 50
204.8782271055
 51
206.2565136332
  0
ARC
  5
296
100
AcDbEntity
  8
0
100
AcDbCircle
 62
7
  6
BYLAYER
 10
29.7349695601
 20
81.6179265416
 40
1.9353254014
100
AcDbArc
 50
172.1935845389
 51
179.9798305879
  0
ARC
  5
297
100
AcDbEntity
  8
0
100
AcDbCircle
 62
7
  6
BYLAYER
 10
37.3993462065
 20
81.6184325135
 40
1.9279285529
100
AcDbArc
 50
0.0060333825
 51
7.8213756309
  0
ARC
  5
298
100
AcDbEntity
  8
0
100
AcDbCircle
 62
7
  6
BYLAYER
 10
37.4110927771
 20
81.6186237021
 40
1.9161819716
100
AcDbArc
 50
359.239427964
 51
0.0003536349
  0
ARC
  5
299
100
AcDbEntity
  8
0
100
AcDbCircle
 62
7
  6
BYLAYER
 10
31.2795319472
 20
82.7057650444
 40
1.8867667654
100
AcDbArc
 50
171.5321323682
 51
179.9880193578
  0
ARC
  5
29A
100
AcDbEntity
  8
0
100
AcDbCircle
 62
7
  6
BYLAYER
 10
35.8509706237
 20
82.7060872046
 40
1.8831831819
100
AcDbArc
 50
0.0022017274
 51
8.5435294424
  0
ARC
  5
29B
100
AcDbEntity
  8
0
100
AcDbCircle
 62
7
  6
BYLAYER
 10
35.8579429497
 20
82.7061645342
 40
1.8762108545
100
AcDbArc
 50
358.1777065981
 51
359.9998484148
  0
ARC
  5
29C
100
AcDbEntity
  8
0
100
AcDbCircle
 62
7
  6
BYLAYER
 10
31.2689760775
 20
82.7061645342
 40
1.8762108545
100
AcDbArc
 50
180.0001515852
 51
181.8222934019
  0
ARC
  5
29D
100
AcDbEntity
  8
0
100
AcDbCircle
 62
7
  6
BYLAYER
 10
28.3723540767
 20
47.7270341968
 40
0.539443893
100
AcDbArc
 50
283.8951335081
 51
287.0540026942
  0
SPLINE
  5
29E
100
AcDbEntity
  8
0
100
AcDbSpline
 62
7
  6
BYLAYER
 70
0
 71
3
 72
11
 73
7
 74
0
 42
0.0000001
 43
0.0000001
 44
0.0000000001
 40
0.0
 40
0.0
 40
0.0
 40
0.0
 40
0.2381695596
 40
0.4852571886
 40
0.7397481228
 40
1.0
 40
1.0
 40
1.0
 40
1.0
 10
27.1040659607
 20
57.9235941582
 30
0.0
 10
26.7820523997
 20
58.1095045685
 30
0.0
 10
26.1400196911
 20
58.5130283894
 30
0.0
 10
25.2036277667
 20
59.1900704251
 30
0.0
 10
24.2781882542
 20
59.9378820863
 30
0.0
 10
23.6751047956
 20
60.4693152023
 30
0.0
 10
23.3747023006
 20
60.7428832039
 30
0.0
  0
SPLINE
  5
29F
100
AcDbEntity
  8
0
100
AcDbSpline
 62
7
  6
BYLAYER
 70
0
 71
3
 72
11
 73
7
 74
0
 42
0.0000001
 43
0.0000001
 44
0.0000000001
 40
0.0
 40
0.0
 40
0.0
 40
0.0
 40
0.2727674689
 40
0.532633481
 40
0.7761203994
 40
1.0
 40
1.0
 40
1.0
 40
1.0
 10
43.7522167267
 20
63.8953030882
 30
0.0
 10
43.6433977863
 20
63.5617284331
 30
0.0
 10
43.4258617662
 20
62.9119795834
 30
0.0
 10
43.0887893064
 20
61.972128463
 30
0.0
 10
42.7480989462
 20
61.1007375497
 30
0.0
 10
42.5084371495
 20
60.5491356028
 30
0.0
 10
42.3872017803
 20
60.2879090715
 30
0.0
  0
SPLINE
  5
2A0
100
AcDbEntity
  8
0
100
AcDbSpline
 62
7
  6
BYLAYER
 70
0
 71
3
 72
11
 73
7
 74
0
 42
0.0000001
 43
0.0000001
 44
0.0000000001
 40
0.0
 40
0.0
 40
0.0
 40
0.0
 40
0.2935838475
 40
0.5559405538
 40
0.7899289619
 40
1.0
 40
1.0
 40
1.0
 40
1.0
 10
42.3872017803
 20
60.2879090715
 30
0.0
 10
42.2776465427
 20
60.0518497854
 30
0.0
 10
42.060168477
 20
59.6093444074
 30
0.0
 10
41.7163005771
 20
58.9988985583
 30
0.0
 10
41.3749659116
 20
58.4734058819
 30
0.0
 10
41.1388549979
 20
58.1580276935
 30
0.0
 10
41.0221868339
 20
58.0128923392
 30
0.0
  0
SPLINE
  5
2A1
100
AcDbEntity
  8
0
100
AcDbSpline
 62
7
  6
BYLAYER
 70
0
 71
3
 72
11
 73
7
 74
0
 42
0.0000001
 43
0.0000001
 44
0.0000000001
 40
0.0
 40
0.0
 40
0.0
 40
0.0
 40
0.25169667
 40
0.5026619758
 40
0.7523285369
 40
1.0
 40
1.0
 40
1.0
 40
1.0
 10
41.0221868339
 20
58.0128923392
 30
0.0
 10
40.6084682709
 20
57.8479345336
 30
0.0
 10
39.7757950479
 20
57.5342476364
 30
0.0
 10
38.5083575233
 20
57.1248991182
 30
0.0
 10
37.2261633131
 20
56.7909300321
 30
0.0
 10
36.3609253745
 20
56.6256023397
 30
0.0
 10
35.9278082273
 20
56.5585987259
 30
0.0
  0
SPLINE
  5
2A2
100
AcDbEntity
  8
0
100
AcDbSpline
 62
7
  6
BYLAYER
 70
0
 71
3
 72
11
 73
7
 74
0
 42
0.0000001
 43
0.0000001
 44
0.0000000001
 40
0.0
 40
0.0
 40
0.0
 40
0.0
 40
0.2359192311
 40
0.4801623131
 40
0.73445857
 40
1.0
 40
1.0
 40
1.0
 40
1.0
 10
30.8334296208
 20
56.436682397
 30
0.0
 10
30.5256923827
 20
56.5117711693
 30
0.0
 10
29.9036233248
 20
56.6829463319
 30
0.0
 10
28.9718127756
 20
57.0082781299
 30
0.0
 10
28.0301929894
 20
57.4179851425
 30
0.0
 10
27.4128396109
 20
57.7453276411
 30
0.0
 10
27.1040659607
 20
57.9235941582
 30
0.0
  0
SPLINE
  5
2A3
100
AcDbEntity
  8
0
100
AcDbSpline
 62
7
  6
BYLAYER
 70
0
 71
3
 72
11
 73
7
 74
0
 42
0.0000001
 43
0.0000001
 44
0.0000000001
 40
0.0
 40
0.0
 40
0.0
 40
0.0
 40
0.254660177
 40
0.5061777812
 40
0.754532006
 40
1.0
 40
1.0
 40
1.0
 40
1.0
 10
35.9278082273
 20
56.5585987259
 30
0.0
 10
35.4993108181
 20
56.4923097897
 30
0.0
 10
34.6426871079
 20
56.3902982566
 30
0.0
 10
33.3586666634
 20
56.326632423
 30
0.0
 10
32.0890176359
 20
56.3432645083
 30
0.0
 10
31.2497160071
 20
56.3995005091
 30
0.0
 10
30.8334296208
 20
56.436682397
 30
0.0
  0
SPLINE
  5
2A4
100
AcDbEntity
  8
0
100
AcDbSpline
 62
7
  6
BYLAYER
 70
0
 71
3
 72
11
 73
7
 74
0
 42
0.0000001
 43
0.0000001
 44
0.0000000001
 40
0.0
 40
0.0
 40
0.0
 40
0.0
 40
0.2238796305
 40
0.4673665736
 40
0.7272326383
 40
1.0
 40
1.0
 40
1.0
 40
1.0
 10
24.739717247
 20
65.8756583961
 30
0.0
 10
24.6184818615
 20
65.6144318297
 30
0.0
 10
24.3788198887
 20
65.0628298824
 30
0.0
 10
24.0381295873
 20
64.1914387921
 30
0.0
 10
23.7010573211
 20
63.2515876451
 30
0.0
 10
23.4835211983
 20
62.6018389036
 30
0.0
 10
23.3747023006
 20
62.2682643794
 30
0.0
  0
SPLINE
  5
2A5
100
AcDbEntity
  8
0
100
AcDbSpline
 62
7
  6
BYLAYER
 70
0
 71
3
 72
23
 73
19
 74
0
 42
0.0000001
 43
0.0000001
 44
0.0000000001
 40
0.0
 40
0.0
 40
0.0
 40
0.0
 40
0.0558313289
 40
0.1141823828
 40
0.1747828327
 40
0.2373533883
 40
0.3015493471
 40
0.3669928485
 40
0.4332833817
 40
0.5000011516
 40
0.5667187685
 40
0.6330090855
 40
0.698452764
 40
0.762647966
 40
0.825218227
 40
0.8858214922
 40
0.9441619361
 40
1.0
 40
1.0
 40
1.0
 40
1.0
 10
39.2203373148
 20
61.2447369276
 30
0.0
 10
39.0308324134
 20
61.1353268749
 30
0.0
 10
38.6334042751
 20
60.9283318041
 30
0.0
 10
38.0027395762
 20
60.659395533
 30
0.0
 10
37.3295922705
 20
60.4273703254
 30
0.0
 10
36.6205108613
 20
60.2344578805
 30
0.0
 10
35.8821891574
 20
60.0824678197
 30
0.0
 10
35.1216922042
 20
59.9728522073
 30
0.0
 10
34.3462879467
 20
59.906665916
 30
0.0
 10
33.5633913843
 20
59.8845411236
 30
0.0
 10
32.7804959393
 20
59.9066741496
 30
0.0
 10
32.0050929984
 20
59.9728675983
 30
0.0
 10
31.2446007237
 20
60.0824938994
 30
0.0
 10
30.5062835705
 20
60.2344878877
 30
0.0
 10
29.7971964358
 20
60.4274078956
 30
0.0
 10
29.1240886297
 20
60.6594485654
 30
0.0
 10
28.4934195643
 20
60.9283637725
 30
0.0
 10
28.096013206
 20
61.1353690424
 30
0.0
 10
27.9064871118
 20
61.2447951812
 30
0.0
  0
SPLINE
  5
2A6
100
AcDbEntity
  8
0
100
AcDbSpline
 62
7
  6
BYLAYER
 70
0
 71
3
 72
9
 73
5
 74
0
 42
0.0000001
 43
0.0000001
 44
0.0000000001
 40
0.0
 40
0.0
 40
0.0
 40
0.0
 40
0.4661813865
 40
1.0
 40
1.0
 40
1.0
 40
1.0
 10
25.5636327644
 20
67.3969760081
 30
0.0
 10
25.4181574245
 20
67.1707011138
 30
0.0
 10
25.1261676708
 20
66.672280861
 30
0.0
 10
24.8693911628
 20
66.1550675111
 30
0.0
 10
24.739717247
 20
65.8756583961
 30
0.0
  0
SPLINE
  5
2A7
100
AcDbEntity
  8
0
100
AcDbSpline
 62
7
  6
BYLAYER
 70
0
 71
3
 72
9
 73
5
 74
0
 42
0.0000001
 43
0.0000001
 44
0.0000000001
 40
0.0
 40
0.0
 40
0.0
 40
0.0
 40
0.5070055379
 40
1.0
 40
1.0
 40
1.0
 40
1.0
 10
43.7522167267
 20
65.4206842638
 30
0.0
 10
43.3973126104
 20
65.7438853406
 30
0.0
 10
42.6849165856
 20
66.3679616797
 30
0.0
 10
41.9403290141
 20
66.9538620851
 30
0.0
 10
41.5637036734
 20
67.2295614184
 30
0.0
  0
SPLINE
  5
2A8
100
AcDbEntity
  8
0
100
AcDbSpline
 62
7
  6
BYLAYER
 70
0
 71
3
 72
9
 73
5
 74
0
 42
0.0000001
 43
0.0000001
 44
0.0000000001
 40
0.0
 40
0.0
 40
0.0
 40
0.0
 40
0.5130490656
 40
1.0
 40
1.0
 40
1.0
 40
1.0
 10
41.0221868339
 20
59.5382735147
 30
0.0
 10
41.137153761
 20
59.8906942692
 30
0.0
 10
41.3668518895
 20
60.5757983563
 30
0.0
 10
41.6121709886
 20
61.2555317106
 30
0.0
 10
41.7368961234
 20
61.5845248487
 30
0.0
  0
SPLINE
  5
2A9
100
AcDbEntity
  8
0
100
AcDbSpline
 62
7
  6
BYLAYER
 70
0
 71
3
 72
9
 73
5
 74
0
 42
0.0000001
 43
0.0000001
 44
0.0000000001
 40
0.0
 40
0.0
 40
0.0
 40
0.0
 40
0.5200280151
 40
1.0
 40
1.0
 40
1.0
 40
1.0
 10
41.7368961234
 20
61.5845248487
 30
0.0
 10
41.8408329545
 20
61.8586837362
 30
0.0
 10
42.0477714938
 20
62.3832505596
 30
0.0
 10
42.2732800006
 20
62.9001996326
 30
0.0
 10
42.3872017803
 20
63.1456675314
 30
0.0
  0
SPLINE
  5
2AA
100
AcDbEntity
  8
0
100
AcDbSpline
 62
7
  6
BYLAYER
 70
0
 71
3
 72
11
 73
7
 74
0
 42
0.0000001
 43
0.0000001
 44
0.0000000001
 40
0.0
 40
0.0
 40
0.0
 40
0.0
 40
0.2935838475
 40
0.5559405538
 40
0.7899289619
 40
1.0
 40
1.0
 40
1.0
 40
1.0
 10
42.3872017803
 20
63.1456675314
 30
0.0
 10
42.4967570179
 20
63.3817268175
 30
0.0
 10
42.7142350835
 20
63.8242321955
 30
0.0
 10
43.0581029835
 20
64.4346780446
 30
0.0
 10
43.399437649
 20
64.960170721
 30
0.0
 10
43.6355485626
 20
65.2755489094
 30
0.0
 10
43.7522167267
 20
65.4206842638
 30
0.0
  0
SPLINE
  5
2AB
100
AcDbEntity
  8
0
100
AcDbSpline
 62
7
  6
BYLAYER
 70
0
 71
3
 72
9
 73
5
 74
0
 42
0.0000001
 43
0.0000001
 44
0.0000000001
 40
0.0
 40
0.0
 40
0.0
 40
0.0
 40
0.489603261
 40
1.0
 40
1.0
 40
1.0
 40
1.0
 10
23.3747023006
 20
62.2682643794
 30
0.0
 10
23.7344764386
 20
62.1804784536
 30
0.0
 10
24.4634602143
 20
61.9759712074
 30
0.0
 10
25.1739628758
 20
61.7134624694
 30
0.0
 10
25.5299651827
 20
61.5641221418
 30
0.0
  0
SPLINE
  5
2AC
100
AcDbEntity
  8
0
100
AcDbSpline
 62
7
  6
BYLAYER
 70
0
 71
3
 72
23
 73
19
 74
0
 42
0.0000001
 43
0.0000001
 44
0.0000000001
 40
0.0
 40
0.0
 40
0.0
 40
0.0
 40
0.0757924896
 40
0.1480213669
 40
0.216685602
 40
0.2819059776
 40
0.3439440458
 40
0.4032097392
 40
0.4602680952
 40
0.5158252293
 40
0.5706934127
 40
0.6257380958
 40
0.681810873
 40
0.7396863781
 40
0.8000166496
 40
0.8633052095
 40
0.929894499
 40
1.0
 40
1.0
 40
1.0
 40
1.0
 10
27.9064871118
 20
61.2447951812
 30
0.0
 10
27.7420032895
 20
61.3397627351
 30
0.0
 10
27.4275852061
 20
61.5374526294
 30
0.0
 10
26.9934042091
 20
61.8646846537
 30
0.0
 10
26.611101256
 20
62.2132389782
 30
0.0
 10
26.2838064697
 20
62.5805025498
 30
0.0
 10
26.0141905631
 20
62.9637094774
 30
0.0
 10
25.8046586422
 20
63.359997947
 30
0.0
 10
25.6571951281
 20
63.7662585834
 30
0.0
 10
25.573321443
 20
64.1791339945
 30
0.0
 10
25.5540578099
 20
64.5950162707
 30
0.0
 10
25.5995806629
 20
65.0101288874
 30
0.0
 10
25.7093700423
 20
65.4207491461
 30
0.0
 10
25.8822259021
 20
65.8233499642
 30
0.0
 10
26.1163646183
 20
66.214704801
 30
0.0
 10
26.4096774248
 20
66.5917823851
 30
0.0
 10
26.7595872531
 20
66.9517689821
 30
0.0
 10
27.0219811478
 20
67.1728945562
 30
0.0
 10
27.1611430366
 20
67.2801201884
 30
0.0
  0
SPLINE
  5
2AD
100
AcDbEntity
  8
0
100
AcDbSpline
 62
7
  6
BYLAYER
 70
0
 71
3
 72
15
 73
11
 74
0
 42
0.0000001
 43
0.0000001
 44
0.0000000001
 40
0.0
 40
0.0
 40
0.0
 40
0.0
 40
0.1236477048
 40
0.2437492346
 40
0.3622327918
 40
0.4812440119
 40
0.6028465778
 40
0.7288929835
 40
0.8609029224
 40
1.0
 40
1.0
 40
1.0
 40
1.0
 10
42.3872017803
 20
63.1456675314
 30
0.0
 10
42.4605955424
 20
63.303809483
 30
0.0
 10
42.5832489969
 20
63.6265062528
 30
0.0
 10
42.6883990365
 20
64.128483309
 30
0.0
 10
42.7098543577
 20
64.6345673547
 30
0.0
 10
42.6473355069
 20
65.1393054491
 30
0.0
 10
42.5016815029
 20
65.6375629408
 30
0.0
 10
42.2747751374
 20
66.1245139895
 30
0.0
 10
41.9692796374
 20
66.5957117212
 30
0.0
 10
41.7220411617
 20
66.8886340983
 30
0.0
 10
41.5875304143
 20
67.0313665237
 30
0.0
  0
SPLINE
  5
2AE
100
AcDbEntity
  8
0
100
AcDbSpline
 62
7
  6
BYLAYER
 70
0
 71
3
 72
12
 73
8
 74
0
 42
0.0000001
 43
0.0000001
 44
0.0000000001
 40
0.0
 40
0.0
 40
0.0
 40
0.0
 40
0.2780182906
 40
0.5366075077
 40
0.6588523002
 40
0.7766419761
 40
1.0
 40
1.0
 40
1.0
 40
1.0
 10
40.0229068529
 20
60.7813836712
 30
0.0
 10
40.2952039371
 20
60.9385935277
 30
0.0
 10
40.8048669811
 20
61.2710290173
 30
0.0
 10
41.3732042583
 20
61.7569354414
 30
0.0
 10
41.7573241628
 20
62.1706290209
 30
0.0
 10
42.0817643058
 20
62.5826071495
 30
0.0
 10
42.2808623685
 20
62.9165374034
 30
0.0
 10
42.3872017803
 20
63.1456675314
 30
0.0
  0
SPLINE
  5
2AF
100
AcDbEntity
  8
0
100
AcDbSpline
 62
7
  6
BYLAYER
 70
0
 71
3
 72
11
 73
7
 74
0
 42
0.0000001
 43
0.0000001
 44
0.0000000001
 40
0.0
 40
0.0
 40
0.0
 40
0.0
 40
0.2657245992
 40
0.5225190472
 40
0.7679342133
 40
1.0
 40
1.0
 40
1.0
 40
1.0
 10
35.9278082273
 20
59.4163571858
 30
0.0
 10
36.3076316015
 20
59.4751162048
 30
0.0
 10
37.0504015045
 20
59.6197898298
 30
0.0
 10
38.1205029075
 20
59.922492552
 30
0.0
 10
39.1136804224
 20
60.3028685085
 30
0.0
 10
39.7322182796
 20
60.613555547
 30
0.0
 10
40.0229068529
 20
60.7813836712
 30
0.0
  0
SPLINE
  5
2B0
100
AcDbEntity
  8
0
100
AcDbSpline
 62
7
  6
BYLAYER
 70
0
 71
3
 72
15
 73
11
 74
0
 42
0.0000001
 43
0.0000001
 44
0.0000000001
 40
0.0
 40
0.0
 40
0.0
 40
0.0
 40
0.1108404742
 40
0.2280569066
 40
0.3507083478
 40
0.4776249447
 40
0.6074729148
 40
0.7388125607
 40
0.8701521652
 40
1.0
 40
1.0
 40
1.0
 40
1.0
 10
27.1040659607
 20
60.7813526182
 30
0.0
 10
27.3947567695
 20
60.6135259982
 30
0.0
 10
28.0133013943
 20
60.3028410123
 30
0.0
 10
29.0064701486
 20
59.9224717911
 30
0.0
 10
30.07663258
 20
59.6197676392
 30
0.0
 10
31.2056438168
 20
59.3998593868
 30
0.0
 10
32.3745145061
 20
59.2664088139
 30
0.0
 10
33.563510689
 20
59.2216780407
 30
0.0
 10
34.7524288802
 20
59.2664069704
 30
0.0
 10
35.539211702
 20
59.3562409524
 30
0.0
 10
35.9278082273
 20
59.4163571858
 30
0.0
  0
SPLINE
  5
2B1
100
AcDbEntity
  8
0
100
AcDbSpline
 62
7
  6
BYLAYER
 70
0
 71
3
 72
20
 73
16
 74
0
 42
0.0000001
 43
0.0000001
 44
0.0000000001
 40
0.0
 40
0.0
 40
0.0
 40
0.0
 40
0.0583199834
 40
0.1153280498
 40
0.1714023951
 40
0.2269985145
 40
0.2825971411
 40
0.3386689452
 40
0.395664247
 40
0.4539975265
 40
0.5759514908
 40
0.6402614645
 40
0.7070107861
 40
0.8482012233
 40
1.0
 40
1.0
 40
1.0
 40
1.0
 10
24.739717247
 20
65.8756583961
 30
0.0
 10
24.6888641698
 20
65.7660849849
 30
0.0
 10
24.5989456392
 20
65.5442413588
 30
0.0
 10
24.5007468731
 20
65.2023771411
 30
0.0
 10
24.4416390705
 20
64.8572833258
 30
0.0
 10
24.4218947017
 20
64.510636312
 30
0.0
 10
24.4416619779
 20
64.1639925489
 30
0.0
 10
24.5007506198
 20
63.8189366831
 30
0.0
 10
24.5989597678
 20
63.4770260008
 30
0.0
 10
24.7838612105
 20
63.0208425079
 30
0.0
 10
25.0451540502
 20
62.5826086374
 30
0.0
 10
25.3696360952
 20
62.1705933116
 30
0.0
 10
25.7537411833
 20
61.756902602
 30
0.0
 10
26.3221010432
 20
61.2709934684
 30
0.0
 10
26.8317664548
 20
60.9385612547
 30
0.0
 10
27.1040659607
 20
60.7813526182
 30
0.0
  0
SPLINE
  5
2B2
100
AcDbEntity
  8
0
100
AcDbSpline
 62
7
  6
BYLAYER
 70
0
 71
3
 72
9
 73
5
 74
0
 42
0.0000001
 43
0.0000001
 44
0.0000000001
 40
0.0
 40
0.0
 40
0.0
 40
0.0
 40
0.5159068472
 40
1.0
 40
1.0
 40
1.0
 40
1.0
 10
25.5393989993
 20
67.0313810739
 30
0.0
 10
25.373101648
 20
66.8549271174
 30
0.0
 10
25.0733601072
 20
66.4904620778
 30
0.0
 10
24.8354954566
 20
66.0820322425
 30
0.0
 10
24.739717247
 20
65.8756583961
 30
0.0
  0
SPLINE
  5
2B3
100
AcDbEntity
  8
0
100
AcDbSpline
 62
7
  6
BYLAYER
 70
0
 71
3
 72
23
 73
19
 74
0
 42
0.0000001
 43
0.0000001
 44
0.0000000001
 40
0.0
 40
0.0
 40
0.0
 40
0.0
 40
0.0686162771
 40
0.1339019444
 40
0.1961126383
 40
0.2556389197
 40
0.3130125038
 40
0.3688937792
 40
0.4240414801
 40
0.47926735
 40
0.5353773782
 40
0.5931143095
 40
0.6531159334
 40
0.7158893099
 40
0.781792364
 40
0.8510601227
 40
0.9238163012
 40
1.0
 40
1.0
 40
1.0
 40
1.0
 10
40.1831932641
 20
67.1041401145
 30
0.0
 10
40.30928932
 20
66.996854073
 30
0.0
 10
40.5462223512
 20
66.7763456315
 30
0.0
 10
40.8588303765
 20
66.4199768246
 30
0.0
 10
41.1173668677
 20
66.0488537337
 30
0.0
 10
41.3196363023
 20
65.665604309
 30
0.0
 10
41.4638771276
 20
65.2730407704
 30
0.0
 10
41.5487192288
 20
64.8741875215
 30
0.0
 10
41.5732151821
 20
64.4722766471
 30
0.0
 10
41.5371648549
 20
64.0706907079
 30
0.0
 10
41.4409099593
 20
63.6727915262
 30
0.0
 10
41.2854656866
 20
63.2817835566
 30
0.0
 10
41.0723215509
 20
62.9006266245
 30
0.0
 10
40.8032808548
 20
62.5321326739
 30
0.0
 10
40.4805947019
 20
62.1788490675
 30
0.0
 10
40.1066555529
 20
61.8432542401
 30
0.0
 10
39.6843458232
 20
61.5278026386
 30
0.0
 10
39.3795305986
 20
61.3366466642
 30
0.0
 10
39.2203373148
 20
61.2447369276
 30
0.0
  0
SPLINE
  5
2B4
100
AcDbEntity
  8
0
100
AcDbSpline
 62
7
  6
BYLAYER
 70
0
 71
3
 72
11
 73
7
 74
0
 42
0.0000001
 43
0.0000001
 44
0.0000000001
 40
0.0
 40
0.0
 40
0.0
 40
0.0
 40
0.2381695596
 40
0.4852571886
 40
0.7397481228
 40
1.0
 40
1.0
 40
1.0
 40
1.0
 10
27.1040659607
 20
60.7813526182
 30
0.0
 10
27.4260795217
 20
60.5954422079
 30
0.0
 10
28.0681122303
 20
60.191918387
 30
0.0
 10
29.0045041547
 20
59.5148763513
 30
0.0
 10
29.9299436672
 20
58.7670646901
 30
0.0
 10
30.5330271258
 20
58.2356315741
 30
0.0
 10
30.8334296208
 20
57.9620635725
 30
0.0
  0
SPLINE
  5
2B5
100
AcDbEntity
  8
0
100
AcDbSpline
 62
7
  6
BYLAYER
 70
0
 71
3
 72
11
 73
7
 74
0
 42
0.0000001
 43
0.0000001
 44
0.0000000001
 40
0.0
 40
0.0
 40
0.0
 40
0.0
 40
0.25169667
 40
0.5026619758
 40
0.7523285369
 40
1.0
 40
1.0
 40
1.0
 40
1.0
 10
30.8334296208
 20
57.9620635725
 30
0.0
 10
31.2471481837
 20
58.1270213781
 30
0.0
 10
32.0798214068
 20
58.4407082753
 30
0.0
 10
33.3472589313
 20
58.8500567935
 30
0.0
 10
34.6294531416
 20
59.1840258796
 30
0.0
 10
35.4946910802
 20
59.349353572
 30
0.0
 10
35.9278082273
 20
59.4163571858
 30
0.0
  0
SPLINE
  5
2B6
100
AcDbEntity
  8
0
100
AcDbSpline
 62
7
  6
BYLAYER
 70
0
 71
3
 72
11
 73
7
 74
0
 42
0.0000001
 43
0.0000001
 44
0.0000000001
 40
0.0
 40
0.0
 40
0.0
 40
0.0
 40
0.254660177
 40
0.5061777812
 40
0.754532006
 40
1.0
 40
1.0
 40
1.0
 40
1.0
 10
35.9278082273
 20
59.4163571858
 30
0.0
 10
36.3563056366
 20
59.482646122
 30
0.0
 10
37.2129293468
 20
59.5846576551
 30
0.0
 10
38.4969497913
 20
59.6483234887
 30
0.0
 10
39.7665988188
 20
59.6316914034
 30
0.0
 10
40.6059004476
 20
59.5754554026
 30
0.0
 10
41.0221868339
 20
59.5382735147
 30
0.0
  0
SPLINE
  5
2B7
100
AcDbEntity
  8
0
100
AcDbSpline
 62
7
  6
BYLAYER
 70
0
 71
3
 72
11
 73
7
 74
0
 42
0.0000001
 43
0.0000001
 44
0.0000000001
 40
0.0
 40
0.0
 40
0.0
 40
0.0
 40
0.2381695596
 40
0.4852571886
 40
0.7397481228
 40
1.0
 40
1.0
 40
1.0
 40
1.0
 10
27.1040659607
 20
67.3133719552
 30
0.0
 10
26.7820523997
 20
67.4992823655
 30
0.0
 10
26.1400196911
 20
67.9028061864
 30
0.0
 10
25.2036277667
 20
68.5798482221
 30
0.0
 10
24.2781882542
 20
69.3276598833
 30
0.0
 10
23.6751047956
 20
69.8590929993
 30
0.0
 10
23.3747023006
 20
70.1326610009
 30
0.0
  0
SPLINE
  5
2B8
100
AcDbEntity
  8
0
100
AcDbSpline
 62
7
  6
BYLAYER
 70
0
 71
3
 72
11
 73
7
 74
0
 42
0.0000001
 43
0.0000001
 44
0.0000000001
 40
0.0
 40
0.0
 40
0.0
 40
0.0
 40
0.2727674689
 40
0.532633481
 40
0.7761203994
 40
1.0
 40
1.0
 40
1.0
 40
1.0
 10
43.7522167267
 20
73.2850808852
 30
0.0
 10
43.6433977863
 20
72.9515062301
 30
0.0
 10
43.4258617662
 20
72.3017573804
 30
0.0
 10
43.0887893064
 20
71.36190626
 30
0.0
 10
42.7480989462
 20
70.4905153467
 30
0.0
 10
42.5084371495
 20
69.9389133998
 30
0.0
 10
42.3872017803
 20
69.6776868685
 30
0.0
  0
SPLINE
  5
2B9
100
AcDbEntity
  8
0
100
AcDbSpline
 62
7
  6
BYLAYER
 70
0
 71
3
 72
11
 73
7
 74
0
 42
0.0000001
 43
0.0000001
 44
0.0000000001
 40
0.0
 40
0.0
 40
0.0
 40
0.0
 40
0.2935838475
 40
0.5559405538
 40
0.7899289619
 40
1.0
 40
1.0
 40
1.0
 40
1.0
 10
42.3872017803
 20
69.6776868685
 30
0.0
 10
42.2776465427
 20
69.4416275824
 30
0.0
 10
42.060168477
 20
68.9991222044
 30
0.0
 10
41.7163005771
 20
68.3886763553
 30
0.0
 10
41.3749659116
 20
67.8631836789
 30
0.0
 10
41.1388549979
 20
67.5478054905
 30
0.0
 10
41.0221868339
 20
67.4026701362
 30
0.0
  0
SPLINE
  5
2BA
100
AcDbEntity
  8
0
100
AcDbSpline
 62
7
  6
BYLAYER
 70
0
 71
3
 72
11
 73
7
 74
0
 42
0.0000001
 43
0.0000001
 44
0.0000000001
 40
0.0
 40
0.0
 40
0.0
 40
0.0
 40
0.25169667
 40
0.5026619758
 40
0.7523285369
 40
1.0
 40
1.0
 40
1.0
 40
1.0
 10
41.0221868339
 20
67.4026701362
 30
0.0
 10
40.6084682709
 20
67.2377123306
 30
0.0
 10
39.7757950479
 20
66.9240254334
 30
0.0
 10
38.5083575233
 20
66.5146769152
 30
0.0
 10
37.2261633131
 20
66.1807078291
 30
0.0
 10
36.3609253745
 20
66.0153801367
 30
0.0
 10
35.9278082273
 20
65.9483765229
 30
0.0
  0
SPLINE
  5
2BB
100
AcDbEntity
  8
0
100
AcDbSpline
 62
7
  6
BYLAYER
 70
0
 71
3
 72
11
 73
7
 74
0
 42
0.0000001
 43
0.0000001
 44
0.0000000001
 40
0.0
 40
0.0
 40
0.0
 40
0.0
 40
0.2359192311
 40
0.4801623131
 40
0.73445857
 40
1.0
 40
1.0
 40
1.0
 40
1.0
 10
30.8334296208
 20
65.826460194
 30
0.0
 10
30.5256923827
 20
65.9015489663
 30
0.0
 10
29.9036233248
 20
66.0727241289
 30
0.0
 10
28.9718127756
 20
66.3980559269
 30
0.0
 10
28.0301929894
 20
66.8077629395
 30
0.0
 10
27.4128396109
 20
67.135105438
 30
0.0
 10
27.1040659607
 20
67.3133719552
 30
0.0
  0
SPLINE
  5
2BC
100
AcDbEntity
  8
0
100
AcDbSpline
 62
7
  6
BYLAYER
 70
0
 71
3
 72
11
 73
7
 74
0
 42
0.0000001
 43
0.0000001
 44
0.0000000001
 40
0.0
 40
0.0
 40
0.0
 40
0.0
 40
0.254660177
 40
0.5061777812
 40
0.754532006
 40
1.0
 40
1.0
 40
1.0
 40
1.0
 10
35.9278082273
 20
65.9483765229
 30
0.0
 10
35.4993108181
 20
65.8820875867
 30
0.0
 10
34.6426871079
 20
65.7800760536
 30
0.0
 10
33.3586666634
 20
65.71641022
 30
0.0
 10
32.0890176359
 20
65.7330423053
 30
0.0
 10
31.2497160071
 20
65.7892783061
 30
0.0
 10
30.8334296208
 20
65.826460194
 30
0.0
  0
SPLINE
  5
2BD
100
AcDbEntity
  8
0
100
AcDbSpline
 62
7
  6
BYLAYER
 70
0
 71
3
 72
11
 73
7
 74
0
 42
0.0000001
 43
0.0000001
 44
0.0000000001
 40
0.0
 40
0.0
 40
0.0
 40
0.0
 40
0.2238796305
 40
0.4673665736
 40
0.7272326383
 40
1.0
 40
1.0
 40
1.0
 40
1.0
 10
24.739717247
 20
75.2654361931
 30
0.0
 10
24.6184818615
 20
75.0042096267
 30
0.0
 10
24.3788198888
 20
74.4526076794
 30
0.0
 10
24.0381295873
 20
73.5812165891
 30
0.0
 10
23.7010573212
 20
72.6413654421
 30
0.0
 10
23.4835211983
 20
71.9916167006
 30
0.0
 10
23.3747023006
 20
71.6580421764
 30
0.0
  0
SPLINE
  5
2BE
100
AcDbEntity
  8
0
100
AcDbSpline
 62
7
  6
BYLAYER
 70
0
 71
3
 72
23
 73
19
 74
0
 42
0.0000001
 43
0.0000001
 44
0.0000000001
 40
0.0
 40
0.0
 40
0.0
 40
0.0
 40
0.0558313289
 40
0.1141823828
 40
0.1747828327
 40
0.2373533883
 40
0.3015493471
 40
0.3669928485
 40
0.4332833817
 40
0.5000011516
 40
0.5667187685
 40
0.6330090855
 40
0.698452764
 40
0.762647966
 40
0.825218227
 40
0.8858214922
 40
0.9441619361
 40
1.0
 40
1.0
 40
1.0
 40
1.0
 10
39.2203373148
 20
70.6345147246
 30
0.0
 10
39.0308324134
 20
70.5251046719
 30
0.0
 10
38.6334042751
 20
70.3181096011
 30
0.0
 10
38.0027395762
 20
70.04917333
 30
0.0
 10
37.3295922705
 20
69.8171481224
 30
0.0
 10
36.6205108613
 20
69.6242356775
 30
0.0
 10
35.8821891574
 20
69.4722456167
 30
0.0
 10
35.1216922042
 20
69.3626300043
 30
0.0
 10
34.3462879467
 20
69.296443713
 30
0.0
 10
33.5633913843
 20
69.2743189205
 30
0.0
 10
32.7804959393
 20
69.2964519466
 30
0.0
 10
32.0050929984
 20
69.3626453953
 30
0.0
 10
31.2446007237
 20
69.4722716964
 30
0.0
 10
30.5062835705
 20
69.6242656847
 30
0.0
 10
29.7971964358
 20
69.8171856926
 30
0.0
 10
29.1240886297
 20
70.0492263624
 30
0.0
 10
28.4934195643
 20
70.3181415695
 30
0.0
 10
28.096013206
 20
70.5251468394
 30
0.0
 10
27.9064871118
 20
70.6345729782
 30
0.0
  0
SPLINE
  5
2BF
100
AcDbEntity
  8
0
100
AcDbSpline
 62
7
  6
BYLAYER
 70
0
 71
3
 72
11
 73
7
 74
0
 42
0.0000001
 43
0.0000001
 44
0.0000000001
 40
0.0
 40
0.0
 40
0.0
 40
0.0
 40
0.2100710209
 40
0.4440595696
 40
0.7064163532
 40
1.0
 40
1.0
 40
1.0
 40
1.0
 10
26.1047321934
 20
77.5404529254
 30
0.0
 10
25.988064039
 20
77.3953175831
 30
0.0
 10
25.7519528663
 20
77.079939449
 30
0.0
 10
25.4106184157
 20
76.5544464097
 30
0.0
 10
25.0667505748
 20
75.944000526
 30
0.0
 10
24.8492724096
 20
75.5014953175
 30
0.0
 10
24.739717247
 20
75.2654361931
 30
0.0
  0
SPLINE
  5
2C0
100
AcDbEntity
  8
0
100
AcDbSpline
 62
7
  6
BYLAYER
 70
0
 71
3
 72
11
 73
7
 74
0
 42
0.0000001
 43
0.0000001
 44
0.0000000001
 40
0.0
 40
0.0
 40
0.0
 40
0.0
 40
0.260251961
 40
0.5147428809
 40
0.7618305065
 40
1.0
 40
1.0
 40
1.0
 40
1.0
 10
43.7522167267
 20
74.8104620608
 30
0.0
 10
43.4518141358
 20
75.0840301497
 30
0.0
 10
42.8487308006
 20
75.6154635703
 30
0.0
 10
41.9232909119
 20
76.3632749427
 30
0.0
 10
40.9868989736
 20
77.0403167001
 30
0.0
 10
40.3448665374
 20
77.4438407482
 30
0.0
 10
40.0228530666
 20
77.6297511064
 30
0.0
  0
SPLINE
  5
2C1
100
AcDbEntity
  8
0
100
AcDbSpline
 62
7
  6
BYLAYER
 70
0
 71
3
 72
11
 73
7
 74
0
 42
0.0000001
 43
0.0000001
 44
0.0000000001
 40
0.0
 40
0.0
 40
0.0
 40
0.0
 40
0.2727674689
 40
0.532633481
 40
0.7761203994
 40
1.0
 40
1.0
 40
1.0
 40
1.0
 10
41.0221868339
 20
68.9280513117
 30
0.0
 10
41.1310057743
 20
69.2616259668
 30
0.0
 10
41.3485417944
 20
69.9113748165
 30
0.0
 10
41.6856142542
 20
70.851225937
 30
0.0
 10
42.0263046144
 20
71.7226168502
 30
0.0
 10
42.2659664111
 20
72.2742187972
 30
0.0
 10
42.3872017803
 20
72.5354453284
 30
0.0
  0
SPLINE
  5
2C2
100
AcDbEntity
  8
0
100
AcDbSpline
 62
7
  6
BYLAYER
 70
0
 71
3
 72
11
 73
7
 74
0
 42
0.0000001
 43
0.0000001
 44
0.0000000001
 40
0.0
 40
0.0
 40
0.0
 40
0.0
 40
0.2935838475
 40
0.5559405538
 40
0.7899289619
 40
1.0
 40
1.0
 40
1.0
 40
1.0
 10
42.3872017803
 20
72.5354453284
 30
0.0
 10
42.4967570179
 20
72.7715046145
 30
0.0
 10
42.7142350835
 20
73.2140099925
 30
0.0
 10
43.0581029835
 20
73.8244558416
 30
0.0
 10
43.399437649
 20
74.349948518
 30
0.0
 10
43.6355485626
 20
74.6653267064
 30
0.0
 10
43.7522167267
 20
74.8104620608
 30
0.0
  0
SPLINE
  5
2C3
100
AcDbEntity
  8
0
100
AcDbSpline
 62
7
  6
BYLAYER
 70
0
 71
3
 72
11
 73
7
 74
0
 42
0.0000001
 43
0.0000001
 44
0.0000000001
 40
0.0
 40
0.0
 40
0.0
 40
0.0
 40
0.2359192311
 40
0.4801623131
 40
0.73445857
 40
1.0
 40
1.0
 40
1.0
 40
1.0
 10
23.3747023006
 20
71.6580421764
 30
0.0
 10
23.6824395386
 20
71.582953404
 30
0.0
 10
24.3045085966
 20
71.4117782415
 30
0.0
 10
25.2363191458
 20
71.0864464435
 30
0.0
 10
26.177938932
 20
70.6767394309
 30
0.0
 10
26.7952923104
 20
70.3493969323
 30
0.0
 10
27.1040659607
 20
70.1711304152
 30
0.0
  0
SPLINE
  5
2C4
100
AcDbEntity
  8
0
100
AcDbSpline
 62
7
  6
BYLAYER
 70
0
 71
3
 72
23
 73
19
 74
0
 42
0.0000001
 43
0.0000001
 44
0.0000000001
 40
0.0
 40
0.0
 40
0.0
 40
0.0
 40
0.0763491263
 40
0.1492803237
 40
0.2187848049
 40
0.2849598733
 40
0.348023315
 40
0.4083205629
 40
0.4663346377
 40
0.522674848
 40
0.5780563678
 40
0.6332600999
 40
0.6890793432
 40
0.7462634629
 40
0.8054741593
 40
0.8672532837
 40
0.9320045815
 40
1.0
 40
1.0
 40
1.0
 40
1.0
 10
27.9064871118
 20
70.6345729782
 30
0.0
 10
27.7494249921
 20
70.7252554849
 30
0.0
 10
27.4485657182
 20
70.9137142736
 30
0.0
 10
27.0312118166
 20
71.2243942317
 30
0.0
 10
26.6608270381
 20
71.554669576
 30
0.0
 10
26.3401490977
 20
71.902257332
 30
0.0
 10
26.0715396684
 20
72.2647673624
 30
0.0
 10
25.857152029
 20
72.6397438538
 30
0.0
 10
25.6987220627
 20
73.024509353
 30
0.0
 10
25.5977316019
 20
73.4162527219
 30
0.0
 10
25.5551738025
 20
73.8119201558
 30
0.0
 10
25.5714613787
 20
74.208314594
 30
0.0
 10
25.6464883577
 20
74.6021924575
 30
0.0
 10
25.7794122913
 20
74.9904424302
 30
0.0
 10
25.969030669
 20
75.3701236052
 30
0.0
 10
26.2136955715
 20
75.7385146534
 30
0.0
 10
26.5113668907
 20
76.0930473892
 30
0.0
 10
26.7380522098
 20
76.3130709098
 30
0.0
 10
26.8588909107
 20
76.4202432479
 30
0.0
  0
SPLINE
  5
2C5
100
AcDbEntity
  8
0
100
AcDbSpline
 62
7
  6
BYLAYER
 70
0
 71
3
 72
20
 73
16
 74
0
 42
0.0000001
 43
0.0000001
 44
0.0000000001
 40
0.0
 40
0.0
 40
0.0
 40
0.0
 40
0.0583199834
 40
0.1153280498
 40
0.1714023951
 40
0.2269985145
 40
0.2825971411
 40
0.3386689452
 40
0.395664247
 40
0.4539975265
 40
0.5759514908
 40
0.6402614645
 40
0.7070107861
 40
0.8482012233
 40
1.0
 40
1.0
 40
1.0
 40
1.0
 10
42.3872017803
 20
72.5354453284
 30
0.0
 10
42.4380548575
 20
72.6450187396
 30
0.0
 10
42.5279733881
 20
72.8668623657
 30
0.0
 10
42.6261721541
 20
73.2087265834
 30
0.0
 10
42.6852799568
 20
73.5538203988
 30
0.0
 10
42.7050243255
 20
73.9004674126
 30
0.0
 10
42.6852570494
 20
74.2471111757
 30
0.0
 10
42.6261684075
 20
74.5921670415
 30
0.0
 10
42.5279592595
 20
74.9340777238
 30
0.0
 10
42.3430578168
 20
75.3902612167
 30
0.0
 10
42.081764977
 20
75.8284950872
 30
0.0
 10
41.7572829321
 20
76.240510413
 30
0.0
 10
41.373177844
 20
76.6542011226
 30
0.0
 10
40.8048179841
 20
77.1401102562
 30
0.0
 10
40.2951525725
 20
77.4725424699
 30
0.0
 10
40.0228530666
 20
77.6297511064
 30
0.0
  0
SPLINE
  5
2C6
100
AcDbEntity
  8
0
100
AcDbSpline
 62
7
  6
BYLAYER
 70
0
 71
3
 72
12
 73
8
 74
0
 42
0.0000001
 43
0.0000001
 44
0.0000000001
 40
0.0
 40
0.0
 40
0.0
 40
0.0
 40
0.2780182906
 40
0.5366075077
 40
0.6588523002
 40
0.7766419761
 40
1.0
 40
1.0
 40
1.0
 40
1.0
 10
40.0229068529
 20
70.1711614682
 30
0.0
 10
40.2952039371
 20
70.3283713247
 30
0.0
 10
40.8048669811
 20
70.6608068143
 30
0.0
 10
41.3732042583
 20
71.1467132384
 30
0.0
 10
41.7573241628
 20
71.5604068179
 30
0.0
 10
42.0817643058
 20
71.9723849465
 30
0.0
 10
42.2808623685
 20
72.3063152004
 30
0.0
 10
42.3872017803
 20
72.5354453284
 30
0.0
  0
SPLINE
  5
2C7
100
AcDbEntity
  8
0
100
AcDbSpline
 62
7
  6
BYLAYER
 70
0
 71
3
 72
11
 73
7
 74
0
 42
0.0000001
 43
0.0000001
 44
0.0000000001
 40
0.0
 40
0.0
 40
0.0
 40
0.0
 40
0.2657245992
 40
0.5225190472
 40
0.7679342133
 40
1.0
 40
1.0
 40
1.0
 40
1.0
 10
35.9278082273
 20
68.8061349828
 30
0.0
 10
36.3076316015
 20
68.8648940018
 30
0.0
 10
37.0504015045
 20
69.0095676268
 30
0.0
 10
38.1205029075
 20
69.312270349
 30
0.0
 10
39.1136804224
 20
69.6926463055
 30
0.0
 10
39.7322182796
 20
70.003333344
 30
0.0
 10
40.0229068529
 20
70.1711614682
 30
0.0
  0
SPLINE
  5
2C8
100
AcDbEntity
  8
0
100
AcDbSpline
 62
7
  6
BYLAYER
 70
0
 71
3
 72
15
 73
11
 74
0
 42
0.0000001
 43
0.0000001
 44
0.0000000001
 40
0.0
 40
0.0
 40
0.0
 40
0.0
 40
0.1108404742
 40
0.2280569066
 40
0.3507083478
 40
0.4776249447
 40
0.6074729148
 40
0.7388125607
 40
0.8701521652
 40
1.0
 40
1.0
 40
1.0
 40
1.0
 10
27.1040659607
 20
70.1711304152
 30
0.0
 10
27.3947567695
 20
70.0033037952
 30
0.0
 10
28.0133013943
 20
69.6926188093
 30
0.0
 10
29.0064701486
 20
69.3122495881
 30
0.0
 10
30.07663258
 20
69.0095454362
 30
0.0
 10
31.2056438168
 20
68.7896371838
 30
0.0
 10
32.3745145061
 20
68.6561866109
 30
0.0
 10
33.563510689
 20
68.6114558377
 30
0.0
 10
34.7524288802
 20
68.6561847674
 30
0.0
 10
35.539211702
 20
68.7460187494
 30
0.0
 10
35.9278082273
 20
68.8061349828
 30
0.0
  0
SPLINE
  5
2C9
100
AcDbEntity
  8
0
100
AcDbSpline
 62
7
  6
BYLAYER
 70
0
 71
3
 72
20
 73
16
 74
0
 42
0.0000001
 43
0.0000001
 44
0.0000000001
 40
0.0
 40
0.0
 40
0.0
 40
0.0
 40
0.0583199834
 40
0.1153280498
 40
0.1714023951
 40
0.2269985145
 40
0.2825971411
 40
0.3386689452
 40
0.395664247
 40
0.4539975265
 40
0.5759514908
 40
0.6402614645
 40
0.7070107861
 40
0.8482012233
 40
1.0
 40
1.0
 40
1.0
 40
1.0
 10
24.739717247
 20
75.2654361931
 30
0.0
 10
24.6888641698
 20
75.1558627819
 30
0.0
 10
24.5989456392
 20
74.9340191558
 30
0.0
 10
24.5007468731
 20
74.5921549381
 30
0.0
 10
24.4416390705
 20
74.2470611228
 30
0.0
 10
24.4218947017
 20
73.900414109
 30
0.0
 10
24.4416619779
 20
73.5537703459
 30
0.0
 10
24.5007506198
 20
73.2087144801
 30
0.0
 10
24.5989597678
 20
72.8668037978
 30
0.0
 10
24.7838612105
 20
72.4106203049
 30
0.0
 10
25.0451540502
 20
71.9723864344
 30
0.0
 10
25.3696360952
 20
71.5603711086
 30
0.0
 10
25.7537411833
 20
71.1466803989
 30
0.0
 10
26.3221010432
 20
70.6607712654
 30
0.0
 10
26.8317664548
 20
70.3283390516
 30
0.0
 10
27.1040659607
 20
70.1711304152
 30
0.0
  0
SPLINE
  5
2CA
100
AcDbEntity
  8
0
100
AcDbSpline
 62
7
  6
BYLAYER
 70
0
 71
3
 72
12
 73
8
 74
0
 42
0.0000001
 43
0.0000001
 44
0.0000000001
 40
0.0
 40
0.0
 40
0.0
 40
0.0
 40
0.2780182906
 40
0.5366075077
 40
0.6588523002
 40
0.7766419761
 40
1.0
 40
1.0
 40
1.0
 40
1.0
 10
27.1040121744
 20
77.6297200533
 30
0.0
 10
26.8317150902
 20
77.4725101969
 30
0.0
 10
26.3220520462
 20
77.1400747073
 30
0.0
 10
25.7537147689
 20
76.6541682831
 30
0.0
 10
25.3695948645
 20
76.2404747036
 30
0.0
 10
25.0451547215
 20
75.8284965751
 30
0.0
 10
24.8460566588
 20
75.4945663212
 30
0.0
 10
24.739717247
 20
75.2654361931
 30
0.0
  0
SPLINE
  5
2CB
100
AcDbEntity
  8
0
100
AcDbSpline
 62
7
  6
BYLAYER
 70
0
 71
3
 72
23
 73
19
 74
0
 42
0.0000001
 43
0.0000001
 44
0.0000000001
 40
0.0
 40
0.0
 40
0.0
 40
0.0
 40
0.068051195
 40
0.1328467202
 40
0.1946599257
 40
0.2538963806
 40
0.3110955692
 40
0.3669190019
 40
0.4221172825
 40
0.4774853267
 40
0.5338059861
 40
0.5917963877
 40
0.6520691585
 40
0.7151097974
 40
0.7812596417
 40
0.8507433704
 40
0.9236780156
 40
1.0
 40
1.0
 40
1.0
 40
1.0
 10
40.2610043979
 20
76.4264481386
 30
0.0
 10
40.3822897639
 20
76.3192563694
 30
0.0
 10
40.6098436445
 20
76.0991847258
 30
0.0
 10
40.9087646531
 20
75.7444819433
 30
0.0
 10
41.1545745871
 20
75.3758498696
 30
0.0
 10
41.3452442605
 20
74.9958647446
 30
0.0
 10
41.479105271
 20
74.6072451911
 30
0.0
 10
41.5549409247
 20
74.2129439943
 30
0.0
 10
41.5719040888
 20
73.8160822248
 30
0.0
 10
41.5298765174
 20
73.4199145169
 30
0.0
 10
41.429269981
 20
73.0276526219
 30
0.0
 10
41.2710786898
 20
72.6423611442
 30
0.0
 10
41.0567797951
 20
72.266862934
 30
0.0
 10
40.7881174989
 20
71.903857338
 30
0.0
 10
40.467271521
 20
71.5557898565
 30
0.0
 10
40.0965554537
 20
71.2250426646
 30
0.0
 10
39.6787523925
 20
70.9139829634
 30
0.0
 10
39.3775536282
 20
70.7252830637
 30
0.0
 10
39.2203373148
 20
70.6345147246
 30
0.0
  0
SPLINE
  5
2CC
100
AcDbEntity
  8
0
100
AcDbSpline
 62
7
  6
BYLAYER
 70
0
 71
3
 72
11
 73
7
 74
0
 42
0.0000001
 43
0.0000001
 44
0.0000000001
 40
0.0
 40
0.0
 40
0.0
 40
0.0
 40
0.2381695596
 40
0.4852571886
 40
0.7397481228
 40
1.0
 40
1.0
 40
1.0
 40
1.0
 10
27.1040659607
 20
70.1711304152
 30
0.0
 10
27.4260795217
 20
69.9852200049
 30
0.0
 10
28.0681122303
 20
69.581696184
 30
0.0
 10
29.0045041547
 20
68.9046541483
 30
0.0
 10
29.9299436672
 20
68.1568424871
 30
0.0
 10
30.5330271258
 20
67.6254093711
 30
0.0
 10
30.8334296208
 20
67.3518413695
 30
0.0
  0
SPLINE
  5
2CD
100
AcDbEntity
  8
0
100
AcDbSpline
 62
7
  6
BYLAYER
 70
0
 71
3
 72
11
 73
7
 74
0
 42
0.0000001
 43
0.0000001
 44
0.0000000001
 40
0.0
 40
0.0
 40
0.0
 40
0.0
 40
0.25169667
 40
0.5026619758
 40
0.7523285369
 40
1.0
 40
1.0
 40
1.0
 40
1.0
 10
30.8334296208
 20
67.3518413695
 30
0.0
 10
31.2471481837
 20
67.5167991751
 30
0.0
 10
32.0798214068
 20
67.8304860722
 30
0.0
 10
33.3472589313
 20
68.2398345905
 30
0.0
 10
34.6294531416
 20
68.5738036766
 30
0.0
 10
35.4946910802
 20
68.739131369
 30
0.0
 10
35.9278082273
 20
68.8061349828
 30
0.0
  0
SPLINE
  5
2CE
100
AcDbEntity
  8
0
100
AcDbSpline
 62
7
  6
BYLAYER
 70
0
 71
3
 72
11
 73
7
 74
0
 42
0.0000001
 43
0.0000001
 44
0.0000000001
 40
0.0
 40
0.0
 40
0.0
 40
0.0
 40
0.254660177
 40
0.5061777812
 40
0.754532006
 40
1.0
 40
1.0
 40
1.0
 40
1.0
 10
35.9278082273
 20
68.8061349828
 30
0.0
 10
36.3563056366
 20
68.872423919
 30
0.0
 10
37.2129293468
 20
68.9744354521
 30
0.0
 10
38.4969497913
 20
69.0381012857
 30
0.0
 10
39.7665988188
 20
69.0214692004
 30
0.0
 10
40.6059004476
 20
68.9652331996
 30
0.0
 10
41.0221868339
 20
68.9280513117
 30
0.0
  0
SPLINE
  5
2CF
100
AcDbEntity
  8
0
100
AcDbSpline
 62
7
  6
BYLAYER
 70
0
 71
3
 72
9
 73
5
 74
0
 42
0.0000001
 43
0.0000001
 44
0.0000000001
 40
0.0
 40
0.0
 40
0.0
 40
0.0
 40
0.2468617329
 40
1.0
 40
1.0
 40
1.0
 40
1.0
 10
24.9317749924
 20
21.7346068558
 30
0.0
 10
24.9410756417
 20
21.739976554
 30
0.0
 10
24.9797758909
 20
21.7599304196
 30
0.0
 10
25.0223285898
 20
21.7721814446
 30
0.0
 10
25.0547288019
 20
21.7770533503
 30
0.0
  0
SPLINE
  5
2D0
100
AcDbEntity
  8
0
100
AcDbSpline
 62
7
  6
BYLAYER
 70
0
 71
3
 72
10
 73
6
 74
0
 42
0.0000001
 43
0.0000001
 44
0.0000000001
 40
0.0
 40
0.0
 40
0.0
 40
0.0
 40
0.4597850381
 40
0.7197583247
 40
1.0
 40
1.0
 40
1.0
 40
1.0
 10
25.0547288019
 20
21.7770533503
 30
0.0
 10
25.1144423797
 20
21.7860322706
 30
0.0
 10
25.2117008053
 20
21.7776217121
 30
0.0
 10
25.3361524029
 20
21.7354160875
 30
0.0
 10
25.3998705921
 20
21.7035331872
 30
0.0
 10
25.4317447779
 20
21.6851310337
 30
0.0
  0
SPLINE
  5
2D1
100
AcDbEntity
  8
0
100
AcDbSpline
 62
7
  6
BYLAYER
 70
0
 71
3
 72
21
 73
17
 74
0
 42
0.0000001
 43
0.0000001
 44
0.0000000001
 40
0.0
 40
0.0
 40
0.0
 40
0.0
 40
0.0672810295
 40
0.1393445319
 40
0.2928590119
 40
0.45065008
 40
0.6021951823
 40
0.6725524801
 40
0.7378251898
 40
0.7971366793
 40
0.8498789565
 40
0.8957896101
 40
0.9351695124
 40
0.9691231734
 40
0.9847745037
 40
1.0
 40
1.0
 40
1.0
 40
1.0
 10
49.7391879946
 20
8.3117535382
 30
0.0
 10
49.6186667568
 20
8.2421709845
 30
0.0
 10
49.3629799423
 20
8.1084387409
 30
0.0
 10
48.8080390387
 20
7.8647395663
 30
0.0
 10
48.0538196369
 20
7.613684882
 30
0.0
 10
47.1171651555
 20
7.4082660281
 30
0.0
 10
46.3344702399
 20
7.3225677867
 30
0.0
 10
45.7401187555
 20
7.3148239647
 30
0.0
 10
45.337187272
 20
7.3386881931
 30
0.0
 10
44.9736907663
 20
7.3915323105
 30
0.0
 10
44.6563013434
 20
7.4722216962
 30
0.0
 10
44.3905746298
 20
7.5797736702
 30
0.0
 10
44.1807879305
 20
7.7126848975
 30
0.0
 10
44.0528479005
 20
7.8491345026
 30
0.0
 10
43.9884261584
 20
7.9674530664
 30
0.0
 10
43.9683235346
 20
8.0285211124
 30
0.0
 10
43.961280547
 20
8.0592162608
 30
0.0
  0
SPLINE
  5
2D2
100
AcDbEntity
  8
0
100
AcDbSpline
 62
7
  6
BYLAYER
 70
0
 71
3
 72
22
 73
18
 74
0
 42
0.0000001
 43
0.0000001
 44
0.0000000001
 40
0.0
 40
0.0
 40
0.0
 40
0.0
 40
0.0428180982
 40
0.0874059655
 40
0.1351958392
 40
0.1871108764
 40
0.2435655474
 40
0.3045311821
 40
0.3696362064
 40
0.4382536407
 40
0.5095603828
 40
0.5826044473
 40
0.7296225727
 40
0.8016206812
 40
0.8712279866
 40
0.9376183324
 40
1.0
 40
1.0
 40
1.0
 40
1.0
 10
32.9777486979
 20
48.7871002347
 30
0.0
 10
33.0763599737
 20
48.8440321428
 30
0.0
 10
33.2937289369
 20
48.9343953646
 30
0.0
 10
33.6525648771
 20
48.9869887158
 30
0.0
 10
34.0378921435
 20
48.9585961199
 30
0.0
 10
34.4411762878
 20
48.8514880838
 30
0.0
 10
34.8544726514
 20
48.6688182725
 30
0.0
 10
35.2695551899
 20
48.4148552873
 30
0.0
 10
35.6780354676
 20
48.0951056258
 30
0.0
 10
36.0713601562
 20
47.7162856546
 30
0.0
 10
36.441334739
 20
47.2864068144
 30
0.0
 10
36.893658156
 20
46.6564378284
 30
0.0
 10
37.2654432502
 20
45.969358837
 30
0.0
 10
37.5407488559
 20
45.2520826282
 30
0.0
 10
37.6912005991
 20
44.7188821666
 30
0.0
 10
37.7836202481
 20
44.1986127493
 30
0.0
 10
37.806164968
 20
43.855945188
 30
0.0
 10
37.806164968
 20
43.6900541212
 30
0.0
  0
SPLINE
  5
2D3
100
AcDbEntity
  8
0
100
AcDbSpline
 62
7
  6
BYLAYER
 70
0
 71
3
 72
22
 73
18
 74
0
 42
0.0000001
 43
0.0000001
 44
0.0000000001
 40
0.0
 40
0.0
 40
0.0
 40
0.0
 40
0.0428180982
 40
0.0874059655
 40
0.1351958392
 40
0.1871108764
 40
0.2435655474
 40
0.3045311821
 40
0.3696362064
 40
0.4382536407
 40
0.5095603828
 40
0.5826044473
 40
0.7296225727
 40
0.8016206812
 40
0.8712279866
 40
0.9376183324
 40
1.0
 40
1.0
 40
1.0
 40
1.0
 10
18.8355541949
 20
56.9519153251
 30
0.0
 10
18.9341654708
 20
57.0088472332
 30
0.0
 10
19.151534434
 20
57.099210455
 30
0.0
 10
19.5103703742
 20
57.1518038062
 30
0.0
 10
19.8956976406
 20
57.1234112103
 30
0.0
 10
20.2989817849
 20
57.0163031742
 30
0.0
 10
20.7122781484
 20
56.8336333629
 30
0.0
 10
21.1273606869
 20
56.5796703777
 30
0.0
 10
21.5358409646
 20
56.2599207162
 30
0.0
 10
21.9291656533
 20
55.881100745
 30
0.0
 10
22.2991402361
 20
55.4512219048
 30
0.0
 10
22.751463653
 20
54.8212529188
 30
0.0
 10
23.1232487473
 20
54.1341739274
 30
0.0
 10
23.3985543529
 20
53.4168977186
 30
0.0
 10
23.5490060962
 20
52.883697257
 30
0.0
 10
23.6414257452
 20
52.3634278397
 30
0.0
 10
23.6639704651
 20
52.0207602784
 30
0.0
 10
23.6639704651
 20
51.8548692116
 30
0.0
  0
SPLINE
  5
2D4
100
AcDbEntity
  8
0
100
AcDbSpline
 62
7
  6
BYLAYER
 70
0
 71
3
 72
9
 73
5
 74
0
 42
0.0000001
 43
0.0000001
 44
0.0000000001
 40
0.0
 40
0.0
 40
0.0
 40
0.0
 40
0.2752734625
 40
1.0
 40
1.0
 40
1.0
 40
1.0
 10
39.3971544897
 20
15.2144306988
 30
0.0
 10
39.3971544897
 20
15.0654603912
 30
0.0
 10
39.3719469022
 20
14.5258817963
 30
0.0
 10
39.2335188096
 20
13.9821767697
 30
0.0
 10
39.0435996271
 20
13.6390253144
 30
0.0
  0
SPLINE
  5
2D5
100
AcDbEntity
  8
0
100
AcDbSpline
 62
7
  6
BYLAYER
 70
0
 71
3
 72
14
 73
10
 74
0
 42
0.0000001
 43
0.0000001
 44
0.0000000001
 40
0.0
 40
0.0
 40
0.0
 40
0.0
 40
0.2892720607
 40
0.422554976
 40
0.5484985194
 40
0.6678874407
 40
0.781868291
 40
0.8919528621
 40
1.0
 40
1.0
 40
1.0
 40
1.0
 10
34.9777260674
 20
12.6628171934
 30
0.0
 10
35.1971972032
 20
12.5361083406
 30
0.0
 10
35.5341607352
 20
12.3757306524
 30
0.0
 10
35.9962623944
 20
12.2410052179
 30
0.0
 10
36.3242560164
 20
12.1859689588
 30
0.0
 10
36.6398424678
 20
12.175054221
 30
0.0
 10
36.9400643755
 20
12.2084734483
 30
0.0
 10
37.2216743606
 20
12.2864031797
 30
0.0
 10
37.3957354225
 20
12.3678750883
 30
0.0
 10
37.4777106072
 20
12.4152031908
 30
0.0
  0
SPLINE
  5
2D6
100
AcDbEntity
  8
0
100
AcDbSpline
 62
7
  6
BYLAYER
 70
0
 71
3
 72
14
 73
10
 74
0
 42
0.0000001
 43
0.0000001
 44
0.0000000001
 40
0.0
 40
0.0
 40
0.0
 40
0.0
 40
0.2892458891
 40
0.4225681075
 40
0.5485159926
 40
0.6678919772
 40
0.7818658504
 40
0.8919554555
 40
1.0
 40
1.0
 40
1.0
 40
1.0
 10
23.6639704651
 20
51.8548692116
 30
0.0
 10
23.6639704651
 20
51.6521449801
 30
0.0
 10
23.6402649413
 20
51.354529313
 30
0.0
 10
23.5488158415
 20
50.9804492221
 30
0.0
 10
23.4557182168
 20
50.7311770387
 30
0.0
 10
23.3370730847
 20
50.5081520002
 30
0.0
 10
23.1937632211
 20
50.3135819701
 30
0.0
 10
23.0272082913
 20
50.149561823
 30
0.0
 10
22.9010893995
 20
50.0616111433
 30
0.0
 10
22.835508934
 20
50.0237491341
 30
0.0
  0
SPLINE
  5
2D7
100
AcDbEntity
  8
0
100
AcDbSpline
 62
7
  6
BYLAYER
 70
0
 71
3
 72
14
 73
10
 74
0
 42
0.0000001
 43
0.0000001
 44
0.0000000001
 40
0.0
 40
0.0
 40
0.0
 40
0.0
 40
0.2892458891
 40
0.4225681075
 40
0.5485159926
 40
0.6678919772
 40
0.7818658504
 40
0.8919554555
 40
1.0
 40
1.0
 40
1.0
 40
1.0
 10
37.806164968
 20
43.6900541212
 30
0.0
 10
37.806164968
 20
43.4873298897
 30
0.0
 10
37.7824594443
 20
43.1897142226
 30
0.0
 10
37.6910103444
 20
42.8156341317
 30
0.0
 10
37.5979127197
 20
42.5663619483
 30
0.0
 10
37.4792675877
 20
42.3433369098
 30
0.0
 10
37.3359577241
 20
42.1487668797
 30
0.0
 10
37.1694027942
 20
41.9847467326
 30
0.0
 10
37.0432839024
 20
41.8967960529
 30
0.0
 10
36.9777034369
 20
41.8589340437
 30
0.0
  0
SPLINE
  5
2D8
100
AcDbEntity
  8
0
100
AcDbSpline
 62
7
  6
BYLAYER
 70
0
 71
3
 72
9
 73
5
 74
0
 42
0.0000001
 43
0.0000001
 44
0.0000000001
 40
0.0
 40
0.0
 40
0.0
 40
0.0
 40
0.2568941738
 40
1.0
 40
1.0
 40
1.0
 40
1.0
 10
28.7055521343
 20
47.3973505562
 30
0.0
 10
28.6992448517
 20
47.385752832
 30
0.0
 10
28.6733891923
 20
47.3413364297
 30
0.0
 10
28.6421300681
 20
47.3000006227
 30
0.0
 10
28.6160765984
 20
47.2720798355
 30
0.0
  0
SPLINE
  5
2D9
100
AcDbEntity
  8
0
100
AcDbSpline
 62
7
  6
BYLAYER
 70
0
 71
3
 72
9
 73
5
 74
0
 42
0.0000001
 43
0.0000001
 44
0.0000000001
 40
0.0
 40
0.0
 40
0.0
 40
0.0
 40
0.2536673192
 40
1.0
 40
1.0
 40
1.0
 40
1.0
 10
28.6160765984
 20
47.2720798355
 30
0.0
 10
28.6071726922
 20
47.262537764
 30
0.0
 10
28.5707712229
 20
47.2261599453
 30
0.0
 10
28.5289795324
 20
47.1951479519
 30
0.0
 10
28.4957230853
 20
47.1759527885
 30
0.0
  0
SPLINE
  5
2DA
100
AcDbEntity
  8
0
100
AcDbSpline
 62
7
  6
BYLAYER
 70
0
 71
3
 72
13
 73
9
 74
0
 42
0.0000001
 43
0.0000001
 44
0.0000000001
 40
0.0
 40
0.0
 40
0.0
 40
0.0
 40
0.1141759018
 40
0.2375697245
 40
0.4999990825
 40
0.762428944
 40
0.8858232992
 40
1.0
 40
1.0
 40
1.0
 40
1.0
 10
30.3815128539
 20
18.8274457521
 30
0.0
 10
30.429885442
 20
18.7995184572
 30
0.0
 10
30.5254837112
 20
18.732438526
 30
0.0
 10
30.7045775446
 20
18.5649777298
 30
0.0
 10
30.89357717
 20
18.3065915084
 30
0.0
 10
31.0228476984
 20
18.0137202735
 30
0.0
 10
31.0783278321
 20
17.7748895592
 30
0.0
 10
31.0886225791
 20
17.6585585089
 30
0.0
 10
31.0886225791
 20
17.6027025804
 30
0.0
  0
SPLINE
  5
2DB
100
AcDbEntity
  8
0
100
AcDbSpline
 62
7
  6
BYLAYER
 70
0
 71
3
 72
10
 73
6
 74
0
 42
0.0000001
 43
0.0000001
 44
0.0000000001
 40
0.0
 40
0.0
 40
0.0
 40
0.0
 40
0.2802429296
 40
0.5402167752
 40
1.0
 40
1.0
 40
1.0
 40
1.0
 10
31.0886225791
 20
17.6027025804
 30
0.0
 10
31.0886225791
 20
17.5658957051
 30
0.0
 10
31.0843752201
 20
17.4947689532
 30
0.0
 10
31.0586998259
 20
17.3658815753
 30
0.0
 10
31.0173518301
 20
17.2774438705
 30
0.0
 10
30.9797165239
 20
17.2302184548
 30
0.0
  0
SPLINE
  5
2DC
100
AcDbEntity
  8
0
100
AcDbSpline
 62
7
  6
BYLAYER
 70
0
 71
3
 72
9
 73
5
 74
0
 42
0.0000001
 43
0.0000001
 44
0.0000000001
 40
0.0
 40
0.0
 40
0.0
 40
0.0
 40
0.2556875733
 40
1.0
 40
1.0
 40
1.0
 40
1.0
 10
30.9797165239
 20
17.2302184548
 30
0.0
 10
30.9727847754
 20
17.2215203801
 30
0.0
 10
30.9442280705
 20
17.188686295
 30
0.0
 10
30.9095222336
 20
17.1611536598
 30
0.0
 10
30.8814826395
 20
17.1449650957
 30
0.0
  0
SPLINE
  5
2DD
100
AcDbEntity
  8
0
100
AcDbSpline
 62
7
  6
BYLAYER
 70
0
 71
3
 72
15
 73
11
 74
0
 42
0.0000001
 43
0.0000001
 44
0.0000000001
 40
0.0
 40
0.0
 40
0.0
 40
0.0
 40
0.1142805802
 40
0.2374827103
 40
0.3670771987
 40
0.5000043876
 40
0.6329319245
 40
0.7625287067
 40
0.8857236642
 40
1.0
 40
1.0
 40
1.0
 40
1.0
 10
37.9025150444
 20
74.6442419884
 30
0.0
 10
37.604593459
 20
74.4738702545
 30
0.0
 10
36.9540842545
 20
74.1734179997
 30
0.0
 10
35.8960278467
 20
73.8540418157
 30
0.0
 10
34.7516396262
 20
73.6575541119
 30
0.0
 10
33.5634302755
 20
73.5912537561
 30
0.0
 10
32.3752140344
 20
73.6575712064
 30
0.0
 10
31.2308461378
 20
73.8540975725
 30
0.0
 10
30.1728203143
 20
74.1734722936
 30
0.0
 10
29.522339717
 20
74.4739084802
 30
0.0
 10
29.2244358018
 20
74.6442854362
 30
0.0
  0
SPLINE
  5
2DE
100
AcDbEntity
  8
0
100
AcDbSpline
 62
7
  6
BYLAYER
 70
0
 71
3
 72
15
 73
11
 74
0
 42
0.0000001
 43
0.0000001
 44
0.0000000001
 40
0.0
 40
0.0
 40
0.0
 40
0.0
 40
0.1501463957
 40
0.2917633249
 40
0.4247435803
 40
0.5497258278
 40
0.6678585509
 40
0.780787466
 40
0.8906715221
 40
1.0
 40
1.0
 40
1.0
 40
1.0
 10
38.1197235319
 20
74.7685479916
 30
0.0
 10
38.2803261225
 20
74.861271387
 30
0.0
 10
38.5844100583
 20
75.0559214606
 30
0.0
 10
38.9950690092
 20
75.3840581888
 30
0.0
 10
39.3421694673
 20
75.7367690079
 30
0.0
 10
39.6213814999
 20
76.110001592
 30
0.0
 10
39.8291007227
 20
76.4997637959
 30
0.0
 10
39.9621100407
 20
76.9016684611
 30
0.0
 10
40.0180989386
 20
77.3103954781
 30
0.0
 10
40.0032774535
 20
77.5826498786
 30
0.0
 10
39.9834751016
 20
77.7162229155
 30
0.0
  0
SPLINE
  5
2DF
100
AcDbEntity
  8
0
100
AcDbSpline
 62
7
  6
BYLAYER
 70
0
 71
3
 72
14
 73
10
 74
0
 42
0.0000001
 43
0.0000001
 44
0.0000000001
 40
0.0
 40
0.0
 40
0.0
 40
0.0
 40
0.2878153429
 40
0.4206756664
 40
0.5465128129
 40
0.6660708964
 40
0.7804778555
 40
0.8911997036
 40
1.0
 40
1.0
 40
1.0
 40
1.0
 10
28.8681523776
 20
75.546291992
 30
0.0
 10
28.5999993805
 20
75.70923981
 30
0.0
 10
28.2250733049
 20
75.9796594475
 30
0.0
 10
27.8023994029
 20
76.4009916367
 30
0.0
 10
27.545201681
 20
76.7246981042
 30
0.0
 10
27.3422025488
 20
77.0617334275
 30
0.0
 10
27.1952997804
 20
77.4091395022
 30
0.0
 10
27.1064817569
 20
77.7636972294
 30
0.0
 10
27.0865282741
 20
78.0034681176
 30
0.0
 10
27.0865270807
 20
78.1220836844
 30
0.0
  0
SPLINE
  5
2E0
100
AcDbEntity
  8
0
100
AcDbSpline
 62
7
  6
BYLAYER
 70
0
 71
3
 72
13
 73
9
 74
0
 42
0.0000001
 43
0.0000001
 44
0.0000000001
 40
0.0
 40
0.0
 40
0.0
 40
0.0
 40
0.2887853828
 40
0.5474573085
 40
0.6669476883
 40
0.7811578739
 40
0.8915737974
 40
1.0
 40
1.0
 40
1.0
 40
1.0
 10
31.0607411476
 20
87.0140452137
 30
0.0
 10
30.9109910939
 20
86.925594177
 30
0.0
 10
30.6395436499
 20
86.7349219973
 30
0.0
 10
30.3626070935
 20
86.4383909113
 30
0.0
 10
30.2068650218
 20
86.18500762
 30
0.0
 10
30.1245325281
 20
85.9939468602
 30
0.0
 10
30.0746167876
 20
85.7988161906
 30
0.0
 10
30.0634754538
 20
85.6667567313
 30
0.0
 10
30.0634725808
 20
85.6014568875
 30
0.0
  0
SPLINE
  5
2E1
100
AcDbEntity
  8
0
100
AcDbSpline
 62
7
  6
BYLAYER
 70
0
 71
3
 72
13
 73
9
 74
0
 42
0.0000001
 43
0.0000001
 44
0.0000000001
 40
0.0
 40
0.0
 40
0.0
 40
0.0
 40
0.125040138
 40
0.2501817517
 40
0.500072285
 40
0.7499018214
 40
0.8749658669
 40
1.0
 40
1.0
 40
1.0
 40
1.0
 10
36.0251103751
 20
87.0380325844
 30
0.0
 10
35.8377885745
 20
87.1461804297
 30
0.0
 10
35.4475442572
 20
87.3370260621
 30
0.0
 10
34.6246706703
 20
87.6104061654
 30
0.0
 10
33.5391792793
 20
87.7455379474
 30
0.0
 10
32.455166961
 20
87.6000435929
 30
0.0
 10
31.6351920224
 20
87.3188200599
 30
0.0
 10
31.2470350187
 20
87.1240742766
 30
0.0
 10
31.0608170258
 20
87.0140571005
 30
0.0
  0
SPLINE
  5
2E2
100
AcDbEntity
  8
0
100
AcDbSpline
 62
7
  6
BYLAYER
 70
0
 71
3
 72
13
 73
9
 74
0
 42
0.0000001
 43
0.0000001
 44
0.0000000001
 40
0.0
 40
0.0
 40
0.0
 40
0.0
 40
0.1084092875
 40
0.2188195922
 40
0.3330233474
 40
0.4525165679
 40
0.7112223906
 40
1.0
 40
1.0
 40
1.0
 40
1.0
 10
37.0634464465
 20
85.6014568879
 30
0.0
 10
37.0634493195
 20
85.6667595214
 30
0.0
 10
37.0523060623
 20
85.7988337693
 30
0.0
 10
37.002353517
 20
85.9939762255
 30
0.0
 10
36.9200371919
 20
86.1850827711
 30
0.0
 10
36.7642102114
 20
86.4385080006
 30
0.0
 10
36.4871871435
 20
86.735088028
 30
0.0
 10
36.2156512659
 20
86.9257794652
 30
0.0
 10
36.065865862
 20
87.0142294154
 30
0.0
  0
SPLINE
  5
2E3
100
AcDbEntity
  8
0
100
AcDbSpline
 62
7
  6
BYLAYER
 70
0
 71
3
 72
11
 73
7
 74
0
 42
0.0000001
 43
0.0000001
 44
0.0000000001
 40
0.0
 40
0.0
 40
0.0
 40
0.0
 40
0.2557321811
 40
0.5069310152
 40
0.7544705489
 40
1.0
 40
1.0
 40
1.0
 40
1.0
 10
30.0021116046
 20
84.1476183064
 30
0.0
 10
29.9250614781
 20
84.0652173315
 30
0.0
 10
29.7823020334
 20
83.8920931542
 30
0.0
 10
29.6078327292
 20
83.607320141
 30
0.0
 10
29.4798508735
 20
83.3035456331
 30
0.0
 10
29.429271703
 20
83.0907329502
 30
0.0
 10
29.4133335779
 20
82.9836003794
 30
0.0
  0
SPLINE
  5
2E4
100
AcDbEntity
  8
0
100
AcDbSpline
 62
7
  6
BYLAYER
 70
0
 71
3
 72
15
 73
11
 74
0
 42
0.0000001
 43
0.0000001
 44
0.0000000001
 40
0.0
 40
0.0
 40
0.0
 40
0.0
 40
0.10918639
 40
0.2189458135
 40
0.3317849298
 40
0.4498816414
 40
0.5749052857
 40
0.7079623252
 40
0.8496304412
 40
1.0
 40
1.0
 40
1.0
 40
1.0
 10
27.143438377
 20
77.7162189434
 30
0.0
 10
27.1235300975
 20
77.5819232333
 30
0.0
 10
27.1087732776
 20
77.3081440873
 30
0.0
 10
27.1657248883
 20
76.8971784619
 30
0.0
 10
27.3005143479
 20
76.493178749
 30
0.0
 10
27.5107966967
 20
76.1015253181
 30
0.0
 10
27.7933274959
 20
75.7267302502
 30
0.0
 10
28.1442575134
 20
75.3728331672
 30
0.0
 10
28.5592862148
 20
75.0438085593
 30
0.0
 10
28.8665166531
 20
74.8489417709
 30
0.0
 10
29.0288206057
 20
74.7561219619
 30
0.0
  0
SPLINE
  5
2E5
100
AcDbEntity
  8
0
100
AcDbSpline
 62
7
  6
BYLAYER
 70
0
 71
3
 72
9
 73
5
 74
0
 42
0.0000001
 43
0.0000001
 44
0.0000000001
 40
0.0
 40
0.0
 40
0.0
 40
0.0
 40
0.4963931902
 40
1.0
 40
1.0
 40
1.0
 40
1.0
 10
37.7132566537
 20
82.9858543208
 30
0.0
 10
37.6917972801
 20
83.1289254193
 30
0.0
 10
37.6149191801
 20
83.4129383405
 30
0.0
 10
37.4795800531
 20
83.6735301752
 30
0.0
 10
37.3999540455
 20
83.7968276636
 30
0.0
  0
SPLINE
  5
2E6
100
AcDbEntity
  8
0
100
AcDbSpline
 62
7
  6
BYLAYER
 70
0
 71
3
 72
9
 73
5
 74
0
 42
0.0000001
 43
0.0000001
 44
0.0000000001
 40
0.0
 40
0.0
 40
0.0
 40
0.0
 40
0.247714291
 40
1.0
 40
1.0
 40
1.0
 40
1.0
 10
37.3999540455
 20
83.7968276636
 30
0.0
 10
37.3802728791
 20
83.8273031133
 30
0.0
 10
37.2979331417
 20
83.9484518233
 30
0.0
 10
37.2044947317
 20
84.0619609271
 30
0.0
 10
37.1294343531
 20
84.1426089204
 30
0.0
  0
SPLINE
  5
2E7
100
AcDbEntity
  8
0
100
AcDbSpline
 62
7
  6
BYLAYER
 70
0
 71
3
 72
14
 73
10
 74
0
 42
0.0000001
 43
0.0000001
 44
0.0000000001
 40
0.0
 40
0.0
 40
0.0
 40
0.0
 40
0.2892730352
 40
0.4225562199
 40
0.5484998506
 40
0.6678886669
 40
0.7818692291
 40
0.8919533702
 40
1.0
 40
1.0
 40
1.0
 40
1.0
 10
49.8269360886
 20
21.2360319684
 30
0.0
 10
49.8269360886
 20
20.9826023202
 30
0.0
 10
49.7973481364
 20
20.6105831189
 30
0.0
 10
49.6829735298
 20
20.1430139925
 30
0.0
 10
49.566638586
 20
19.8314356357
 30
0.0
 10
49.4182955247
 20
19.5526642844
 30
0.0
 10
49.2392390991
 20
19.3093675268
 30
0.0
 10
49.0309402021
 20
19.1044461542
 30
0.0
 10
48.8733489935
 20
18.994438808
 30
0.0
 10
48.7913720026
 20
18.9471096527
 30
0.0
  0
SPLINE
  5
2E8
100
AcDbEntity
  8
0
100
AcDbSpline
 62
7
  6
BYLAYER
 70
0
 71
3
 72
9
 73
5
 74
0
 42
0.0000001
 43
0.0000001
 44
0.0000000001
 40
0.0
 40
0.0
 40
0.0
 40
0.0
 40
0.491440385
 40
1.0
 40
1.0
 40
1.0
 40
1.0
 10
42.9860789276
 20
61.7255230673
 30
0.0
 10
44.1627192612
 20
60.9192692473
 30
0.0
 10
46.5006626318
 20
59.1953291321
 30
0.0
 10
48.7247931293
 20
57.3274822125
 30
0.0
 10
49.8269360886
 20
56.345635905
 30
0.0
  0
SPLINE
  5
2E9
100
AcDbEntity
  8
0
100
AcDbSpline
 62
7
  6
BYLAYER
 70
0
 71
3
 72
23
 73
19
 74
0
 42
0.0000001
 43
0.0000001
 44
0.0000000001
 40
0.0
 40
0.0
 40
0.0
 40
0.0
 40
0.0619606571
 40
0.1270733856
 40
0.1947823624
 40
0.264473472
 40
0.3353128099
 40
0.4063985564
 40
0.476817634
 40
0.5456972332
 40
0.6122770699
 40
0.6759766878
 40
0.7364563253
 40
0.7936822343
 40
0.8479672259
 40
0.8999135331
 40
0.9503194666
 40
1.0
 40
1.0
 40
1.0
 40
1.0
 10
39.0337983635
 20
86.4129642987
 30
0.0
 10
38.746889588
 20
86.5786074101
 30
0.0
 10
38.1358594935
 20
86.8800995306
 30
0.0
 10
37.1548911617
 20
87.235136136
 30
0.0
 10
36.103273077
 20
87.5001720018
 30
0.0
 10
35.0016376354
 20
87.6716694581
 30
0.0
 10
33.8712336676
 20
87.7467993399
 30
0.0
 10
32.7346895721
 20
87.7243724941
 30
0.0
 10
31.614719079
 20
87.6047974798
 30
0.0
 10
30.5335020815
 20
87.3899366654
 30
0.0
 10
29.5119664615
 20
87.0830774584
 30
0.0
 10
28.5692492117
 20
86.6883167533
 30
0.0
 10
27.7226197519
 20
86.209809478
 30
0.0
 10
26.9879311938
 20
85.651315722
 30
0.0
 10
26.3813970491
 20
85.0161590938
 30
0.0
 10
25.922062655
 20
84.3090784339
 30
0.0
 10
25.6318151467
 20
83.5426089952
 30
0.0
 10
25.5651867284
 20
83.0053295526
 30
0.0
 10
25.5649144119
 20
82.739697333
 30
0.0
  0
SPLINE
  5
2EA
100
AcDbEntity
  8
0
100
AcDbSpline
 62
7
  6
BYLAYER
 70
0
 71
3
 72
9
 73
5
 74
0
 42
0.0000001
 43
0.0000001
 44
0.0000000001
 40
0.0
 40
0.0
 40
0.0
 40
0.0
 40
0.4801397914
 40
1.0
 40
1.0
 40
1.0
 40
1.0
 10
28.9887084977
 20
80.613463579
 30
0.0
 10
29.2134789631
 20
80.4836952261
 30
0.0
 10
29.6998552217
 20
80.2444524693
 30
0.0
 10
30.2091346618
 20
80.0601786965
 30
0.0
 10
30.4776349186
 20
79.9772605597
 30
0.0
  0
SPLINE
  5
2EB
100
AcDbEntity
  8
0
100
AcDbSpline
 62
7
  6
BYLAYER
 70
0
 71
3
 72
14
 73
10
 74
0
 42
0.0000001
 43
0.0000001
 44
0.0000000001
 40
0.0
 40
0.0
 40
0.0
 40
0.0
 40
0.1164697174
 40
0.2337546809
 40
0.3526124855
 40
0.4740099969
 40
0.7273075015
 40
0.8611790504
 40
1.0
 40
1.0
 40
1.0
 40
1.0
 10
41.5620046154
 20
82.7354918208
 30
0.0
 10
41.5621905602
 20
82.916872468
 30
0.0
 10
41.5316032421
 20
83.2816203473
 30
0.0
 10
41.3965525436
 20
83.8162039282
 30
0.0
 10
41.1762882305
 20
84.3300049014
 30
0.0
 10
40.7734654663
 20
84.9871829929
 30
0.0
 10
40.2266718691
 20
85.5726698399
 30
0.0
 10
39.5800496556
 20
86.0765421474
 30
0.0
 10
39.2210244037
 20
86.3048717393
 30
0.0
 10
39.0337983635
 20
86.4129642987
 30
0.0
  0
SPLINE
  5
2EC
100
AcDbEntity
  8
0
100
AcDbSpline
 62
7
  6
BYLAYER
 70
0
 71
3
 72
9
 73
5
 74
0
 42
0.0000001
 43
0.0000001
 44
0.0000000001
 40
0.0
 40
0.0
 40
0.0
 40
0.0
 40
0.2532770231
 40
1.0
 40
1.0
 40
1.0
 40
1.0
 10
40.8200690779
 20
80.6002873364
 30
0.0
 10
40.855753754
 20
80.6486961486
 30
0.0
 10
40.9927510982
 20
80.8426503238
 30
0.0
 10
41.1135323962
 20
81.0481853202
 30
0.0
 10
41.1924710916
 20
81.2069510196
 30
0.0
  0
SPLINE
  5
2ED
100
AcDbEntity
  8
0
100
AcDbSpline
 62
7
  6
BYLAYER
 70
0
 71
3
 72
9
 73
5
 74
0
 42
0.0000001
 43
0.0000001
 44
0.0000000001
 40
0.0
 40
0.0
 40
0.0
 40
0.0
 40
0.5031178857
 40
1.0
 40
1.0
 40
1.0
 40
1.0
 10
41.2367969853
 20
81.2992080769
 30
0.0
 10
41.3414842804
 20
81.5249091168
 30
0.0
 10
41.5054476306
 20
81.99579777
 30
0.0
 10
41.5620432775
 20
82.4918803532
 30
0.0
 10
41.5620432775
 20
82.7375945769
 30
0.0
  0
SPLINE
  5
2EE
100
AcDbEntity
  8
0
100
AcDbSpline
 62
7
  6
BYLAYER
 70
0
 71
3
 72
9
 73
5
 74
0
 42
0.0000001
 43
0.0000001
 44
0.0000000001
 40
0.0
 40
0.0
 40
0.0
 40
0.0
 40
0.4968831993
 40
1.0
 40
1.0
 40
1.0
 40
1.0
 10
25.5648757497
 20
82.7375945769
 30
0.0
 10
25.5648757497
 20
82.4919554916
 30
0.0
 10
25.6214362493
 20
81.9960265982
 30
0.0
 10
25.7853016776
 20
81.5252687858
 30
0.0
 10
25.889928658
 20
81.2996248291
 30
0.0
  0
SPLINE
  5
2EF
100
AcDbEntity
  8
0
100
AcDbSpline
 62
7
  6
BYLAYER
 70
0
 71
3
 72
9
 73
5
 74
0
 42
0.0000001
 43
0.0000001
 44
0.0000000001
 40
0.0
 40
0.0
 40
0.0
 40
0.0
 40
0.2472076358
 40
1.0
 40
1.0
 40
1.0
 40
1.0
 10
25.9342775507
 20
81.2072934135
 30
0.0
 10
25.9604200973
 20
81.1547008523
 30
0.0
 10
26.0710752665
 20
80.9444113027
 30
0.0
 10
26.2007281253
 20
80.7442491717
 30
0.0
 10
26.3068499494
 20
80.6002873364
 30
0.0
  0
SPLINE
  5
2F0
100
AcDbEntity
  8
0
100
AcDbSpline
 62
7
  6
BYLAYER
 70
0
 71
3
 72
14
 73
10
 74
0
 42
0.0000001
 43
0.0000001
 44
0.0000000001
 40
0.0
 40
0.0
 40
0.0
 40
0.0
 40
0.108794866
 40
0.2195124574
 40
0.3339184872
 40
0.453467652
 40
0.5792784411
 40
0.7121389163
 40
1.0
 40
1.0
 40
1.0
 40
1.0
 10
40.0403919466
 20
78.1220836844
 30
0.0
 10
40.04039314
 20
78.0034738943
 30
0.0
 10
40.0204461303
 20
77.7637127197
 30
0.0
 10
39.9316302079
 20
77.4091652267
 30
0.0
 10
39.7847226592
 20
77.0617775193
 30
0.0
 10
39.5817557513
 20
76.7247708693
 30
0.0
 10
39.324621329
 20
76.4010619738
 30
0.0
 10
38.901922614
 20
75.9797195076
 30
0.0
 10
38.5269505881
 20
75.7092814122
 30
0.0
 10
38.2587627882
 20
75.5462941097
 30
0.0
  0
SPLINE
  5
2F1
100
AcDbEntity
  8
0
100
AcDbSpline
 62
7
  6
BYLAYER
 70
0
 71
3
 72
11
 73
7
 74
0
 42
0.0000001
 43
0.0000001
 44
0.0000000001
 40
0.0
 40
0.0
 40
0.0
 40
0.0
 40
0.2431181894
 40
0.4917834913
 40
0.7445482972
 40
1.0
 40
1.0
 40
1.0
 40
1.0
 10
50.7836386287
 20
9.6260602818
 30
0.0
 10
50.5742807662
 20
10.5376470739
 30
0.0
 10
50.0843785863
 20
12.3669369985
 30
0.0
 10
49.1596583952
 20
15.080021908
 30
0.0
 10
48.0453564862
 20
17.7722508252
 30
0.0
 10
47.1864703532
 20
19.5303137397
 30
0.0
 10
46.7283725645
 20
20.3997844493
 30
0.0
  0
SPLINE
  5
2F2
100
AcDbEntity
  8
0
100
AcDbSpline
 62
7
  6
BYLAYER
 70
0
 71
3
 72
15
 73
11
 74
0
 42
0.0000001
 43
0.0000001
 44
0.0000000001
 40
0.0
 40
0.0
 40
0.0
 40
0.0
 40
0.0852408271
 40
0.1763165466
 40
0.2778041454
 40
0.3925761787
 40
0.5221400876
 40
0.6669611774
 40
0.8266871693
 40
1.0
 40
1.0
 40
1.0
 40
1.0
 10
50.7836086902
 20
9.6260534163
 30
0.0
 10
50.7948988617
 20
9.5768479502
 30
0.0
 10
50.8029342202
 20
9.4709995392
 30
0.0
 10
50.7693902602
 20
9.3082108774
 30
0.0
 10
50.6930138415
 20
9.1416393495
 30
0.0
 10
50.575776802
 20
8.9727086867
 30
0.0
 10
50.4192001597
 20
8.8028058682
 30
0.0
 10
50.2251270919
 20
8.6335463058
 30
0.0
 10
49.9959104742
 20
8.4670406735
 30
0.0
 10
49.8280813067
 20
8.3630758095
 30
0.0
 10
49.7391879946
 20
8.3117535382
 30
0.0
  0
SPLINE
  5
2F3
100
AcDbEntity
  8
0
100
AcDbSpline
 62
7
  6
BYLAYER
 70
0
 71
3
 72
9
 73
5
 74
0
 42
0.0000001
 43
0.0000001
 44
0.0000000001
 40
0.0
 40
0.0
 40
0.0
 40
0.0
 40
0.4894576412
 40
1.0
 40
1.0
 40
1.0
 40
1.0
 10
43.9612506084
 20
8.0592093953
 30
0.0
 10
43.6953466624
 20
9.2170093566
 30
0.0
 10
43.0208112883
 20
11.5535723013
 30
0.0
 10
42.1210062792
 20
13.8120125066
 30
0.0
 10
41.610026445
 20
14.9408646065
 30
0.0
  0
SPLINE
  5
2F4
100
AcDbEntity
  8
0
100
AcDbSpline
 62
7
  6
BYLAYER
 70
0
 71
3
 72
9
 73
5
 74
0
 42
0.0000001
 43
0.0000001
 44
0.0000000001
 40
0.0
 40
0.0
 40
0.0
 40
0.0
 40
0.2550245531
 40
1.0
 40
1.0
 40
1.0
 40
1.0
 10
37.9472911019
 20
75.1207817681
 30
0.0
 10
37.9851466845
 20
75.1428731777
 30
0.0
 10
38.1325842446
 20
75.2311965016
 30
0.0
 10
38.2759286774
 20
75.326399344
 30
0.0
 10
38.3797364443
 20
75.4013471338
 30
0.0
  0
SPLINE
  5
2F5
100
AcDbEntity
  8
0
100
AcDbSpline
 62
7
  6
BYLAYER
 70
0
 71
3
 72
9
 73
5
 74
0
 42
0.0000001
 43
0.0000001
 44
0.0000000001
 40
0.0
 40
0.0
 40
0.0
 40
0.0
 40
0.5135034527
 40
1.0
 40
1.0
 40
1.0
 40
1.0
 10
38.5132746931
 20
49.8137294431
 30
0.0
 10
36.890401811
 20
51.2594690665
 30
0.0
 10
33.6073211788
 20
53.9410513671
 30
0.0
 10
30.0786514536
 20
56.2940582689
 30
0.0
 10
28.304160833
 20
57.3386821536
 30
0.0
  0
SPLINE
  5
2F6
100
AcDbEntity
  8
0
100
AcDbSpline
 62
7
  6
BYLAYER
 70
0
 71
3
 72
11
 73
7
 74
0
 42
0.0000001
 43
0.0000001
 44
0.0000000001
 40
0.0
 40
0.0
 40
0.0
 40
0.0
 40
0.2781926966
 40
0.5369814943
 40
0.7767526702
 40
1.0
 40
1.0
 40
1.0
 40
1.0
 10
38.143361426
 20
76.5509813179
 30
0.0
 10
38.3376828414
 20
76.6631721696
 30
0.0
 10
38.7013553593
 20
76.9006455914
 30
0.0
 10
39.1785701473
 20
77.3097105166
 30
0.0
 10
39.5598246585
 20
77.752922328
 30
0.0
 10
39.7509256714
 20
78.0769078781
 30
0.0
 10
39.8258219631
 20
78.2406578203
 30
0.0
  0
SPLINE
  5
2F7
100
AcDbEntity
  8
0
100
AcDbSpline
 62
7
  6
BYLAYER
 70
0
 71
3
 72
15
 73
11
 74
0
 42
0.0000001
 43
0.0000001
 44
0.0000000001
 40
0.0
 40
0.0
 40
0.0
 40
0.0
 40
0.1141543258
 40
0.2373258924
 40
0.3669759246
 40
0.5000005214
 40
0.6330250456
 40
0.762674866
 40
0.8858460989
 40
1.0
 40
1.0
 40
1.0
 40
1.0
 10
27.9869161878
 20
79.1637126994
 30
0.0
 10
28.368676681
 20
78.9433081621
 30
0.0
 10
29.2034636887
 20
78.5545833256
 30
0.0
 10
30.5628680223
 20
78.1414100592
 30
0.0
 10
32.034639041
 20
77.8870867264
 30
0.0
 10
33.5634921358
 20
77.8012837029
 30
0.0
 10
35.0923440086
 20
77.8870939826
 30
0.0
 10
36.5641114163
 20
78.1414243037
 30
0.0
 10
37.9235098978
 20
78.5546040321
 30
0.0
 10
38.758291791
 20
78.9433330381
 30
0.0
 10
39.1400492744
 20
79.1637395082
 30
0.0
  0
SPLINE
  5
2F8
100
AcDbEntity
  8
0
100
AcDbSpline
 62
7
  6
BYLAYER
 70
0
 71
3
 72
21
 73
17
 74
0
 42
0.0000001
 43
0.0000001
 44
0.0000000001
 40
0.0
 40
0.0
 40
0.0
 40
0.0
 40
0.0450161233
 40
0.0933491253
 40
0.1454670671
 40
0.2015146221
 40
0.2613666597
 40
0.3246792201
 40
0.390945548
 40
0.459533515
 40
0.6006190198
 40
0.7417396187
 40
0.8103680234
 40
0.8766840728
 40
0.940086488
 40
1.0
 40
1.0
 40
1.0
 40
1.0
 10
27.3010890521
 20
78.2406565986
 30
0.0
 10
27.3755767115
 20
78.0777882272
 30
0.0
 10
27.5654309443
 20
77.7555169488
 30
0.0
 10
27.943835614
 20
77.3144868685
 30
0.0
 10
28.4172932025
 20
76.9069590804
 30
0.0
 10
28.9775280763
 20
76.5393766154
 30
0.0
 10
29.6151867924
 20
76.2174282214
 30
0.0
 10
30.3195435338
 20
75.9462455903
 30
0.0
 10
31.0788318701
 20
75.7302607746
 30
0.0
 10
32.1571878731
 20
75.5189730026
 30
0.0
 10
33.5546086645
 20
75.4139092001
 30
0.0
 10
34.9523529931
 20
75.516784307
 30
0.0
 10
36.0315434935
 20
75.7263303268
 30
0.0
 10
36.791947067
 20
75.9410908107
 30
0.0
 10
37.4974851943
 20
76.2111881697
 30
0.0
 10
37.9369336975
 20
76.4318009246
 30
0.0
 10
38.143361426
 20
76.5509813179
 30
0.0
  0
SPLINE
  5
2F9
100
AcDbEntity
  8
0
100
AcDbSpline
 62
7
  6
BYLAYER
 70
0
 71
3
 72
15
 73
11
 74
0
 42
0.0000001
 43
0.0000001
 44
0.0000000001
 40
0.0
 40
0.0
 40
0.0
 40
0.0
 40
0.1516725194
 40
0.2932939908
 40
0.4249695247
 40
0.547835021
 40
0.6638065561
 40
0.7755959813
 40
0.8865136279
 40
1.0
 40
1.0
 40
1.0
 40
1.0
 10
38.0330342133
 20
85.6745069318
 30
0.0
 10
38.2140950361
 20
85.5699737819
 30
0.0
 10
38.5540094899
 20
85.3491813197
 30
0.0
 10
39.0035936239
 20
84.9710777503
 30
0.0
 10
39.3686758717
 20
84.5620756984
 30
0.0
 10
39.6428611617
 20
84.1280404037
 30
0.0
 10
39.8208967799
 20
83.6752609735
 30
0.0
 10
39.8981709798
 20
83.2111175195
 30
0.0
 10
39.8724518867
 20
82.7448112183
 30
0.0
 10
39.788825653
 20
82.4442713165
 30
0.0
 10
39.7323588539
 20
82.2983851759
 30
0.0
  0
SPLINE
  5
2FA
100
AcDbEntity
  8
0
100
AcDbSpline
 62
7
  6
BYLAYER
 70
0
 71
3
 72
14
 73
10
 74
0
 42
0.0000001
 43
0.0000001
 44
0.0000000001
 40
0.0
 40
0.0
 40
0.0
 40
0.0
 40
0.2892458891
 40
0.4225681075
 40
0.5485159926
 40
0.6678919772
 40
0.7818658504
 40
0.8919554555
 40
1.0
 40
1.0
 40
1.0
 40
1.0
 10
18.0070926639
 20
55.1207952477
 30
0.0
 10
18.0070926639
 20
55.3235194792
 30
0.0
 10
18.0307981876
 20
55.6211351462
 30
0.0
 10
18.1222472874
 20
55.9952152372
 30
0.0
 10
18.2153449122
 20
56.2444874206
 30
0.0
 10
18.3339900442
 20
56.4675124591
 30
0.0
 10
18.4772999078
 20
56.6620824892
 30
0.0
 10
18.6438548377
 20
56.8261026363
 30
0.0
 10
18.7699737295
 20
56.9140533159
 30
0.0
 10
18.8355541949
 20
56.9519153251
 30
0.0
  0
SPLINE
  5
2FB
100
AcDbEntity
  8
0
100
AcDbSpline
 62
7
  6
BYLAYER
 70
0
 71
3
 72
12
 73
8
 74
0
 42
0.0000001
 43
0.0000001
 44
0.0000000001
 40
0.0
 40
0.0
 40
0.0
 40
0.0
 40
0.2866878311
 40
0.5462153439
 40
0.7813563678
 40
0.8921746303
 40
1.0
 40
1.0
 40
1.0
 40
1.0
 10
29.487809707
 20
83.971645955
 30
0.0
 10
29.258943913
 20
83.8395110159
 30
0.0
 10
28.839928385
 20
83.5554435006
 30
0.0
 10
28.3237477689
 20
83.0466607955
 30
0.0
 10
28.0208202924
 20
82.570062672
 30
0.0
 10
27.8737385774
 20
82.1771670304
 30
0.0
 10
27.8310639086
 20
81.9792703578
 30
0.0
 10
27.8175795197
 20
81.8807950299
 30
0.0
  0
SPLINE
  5
2FC
100
AcDbEntity
  8
0
100
AcDbSpline
 62
7
  6
BYLAYER
 70
0
 71
3
 72
9
 73
5
 74
0
 42
0.0000001
 43
0.0000001
 44
0.0000000001
 40
0.0
 40
0.0
 40
0.0
 40
0.0
 40
0.2445189211
 40
1.0
 40
1.0
 40
1.0
 40
1.0
 10
37.6390753834
 20
83.9716655482
 30
0.0
 10
37.5980344002
 20
83.9953600349
 30
0.0
 10
37.4289185005
 20
84.0900496863
 30
0.0
 10
37.2549865682
 20
84.1760758652
 30
0.0
 10
37.1216191905
 20
84.2365035372
 30
0.0
  0
SPLINE
  5
2FD
100
AcDbEntity
  8
0
100
AcDbSpline
 62
7
  6
BYLAYER
 70
0
 71
3
 72
9
 73
5
 74
0
 42
0.0000001
 43
0.0000001
 44
0.0000000001
 40
0.0
 40
0.0
 40
0.0
 40
0.0
 40
0.255437283
 40
1.0
 40
1.0
 40
1.0
 40
1.0
 10
30.0052976966
 20
84.2365025693
 30
0.0
 10
29.960202034
 20
84.2160700712
 30
0.0
 10
29.7845899303
 20
84.1340507909
 30
0.0
 10
29.6127864796
 20
84.0438008976
 30
0.0
 10
29.487809707
 20
83.971645955
 30
0.0
  0
SPLINE
  5
2FE
100
AcDbEntity
  8
0
100
AcDbSpline
 62
7
  6
BYLAYER
 70
0
 71
3
 72
15
 73
11
 74
0
 42
0.0000001
 43
0.0000001
 44
0.0000000001
 40
0.0
 40
0.0
 40
0.0
 40
0.0
 40
0.1134866267
 40
0.2244045161
 40
0.3361941216
 40
0.4521657355
 40
0.5750311898
 40
0.706706568
 40
0.8483277909
 40
1.0
 40
1.0
 40
1.0
 40
1.0
 10
27.3945601697
 20
82.2983851754
 30
0.0
 10
27.3380938318
 20
82.4442701321
 30
0.0
 10
27.2544680511
 20
82.7448074737
 30
0.0
 10
27.2287479086
 20
83.2111097482
 30
0.0
 10
27.3060192984
 20
83.6752493768
 30
0.0
 10
27.484050507
 20
84.1280254092
 30
0.0
 10
27.758229944
 20
84.562057891
 30
0.0
 10
28.1233050947
 20
84.971057825
 30
0.0
 10
28.5728810869
 20
85.3491600781
 30
0.0
 10
28.9127897749
 20
85.5699522865
 30
0.0
 10
29.0938475966
 20
85.6744854446
 30
0.0
  0
SPLINE
  5
2FF
100
AcDbEntity
  8
0
100
AcDbSpline
 62
7
  6
BYLAYER
 70
0
 71
3
 72
13
 73
9
 74
0
 42
0.0000001
 43
0.0000001
 44
0.0000000001
 40
0.0
 40
0.0
 40
0.0
 40
0.0
 40
0.1080836612
 40
0.2182190137
 40
0.3322386486
 40
0.4516662145
 40
0.7106214495
 40
1.0
 40
1.0
 40
1.0
 40
1.0
 10
30.0634725808
 20
85.6014568875
 30
0.0
 10
30.063469666
 20
85.5352045047
 30
0.0
 10
30.0749465835
 20
85.4011671761
 30
0.0
 10
30.126374912
 20
85.2032194112
 30
0.0
 10
30.2110923017
 20
85.0094942555
 30
0.0
 10
30.371491988
 20
84.7527211458
 30
0.0
 10
30.6563950071
 20
84.4530123562
 30
0.0
 10
30.9349785172
 20
84.261291486
 30
0.0
 10
31.0885960834
 20
84.1726023492
 30
0.0
  0
SPLINE
  5
300
100
AcDbEntity
  8
0
100
AcDbSpline
 62
7
  6
BYLAYER
 70
0
 71
3
 72
14
 73
10
 74
0
 42
0.0000001
 43
0.0000001
 44
0.0000000001
 40
0.0
 40
0.0
 40
0.0
 40
0.0
 40
0.1150704766
 40
0.2411090773
 40
0.372493947
 40
0.5046360394
 40
0.6346461357
 40
0.7609757149
 40
1.0
 40
1.0
 40
1.0
 40
1.0
 10
44.0286834458
 20
22.1699777402
 30
0.0
 10
43.8474132361
 20
22.0653219605
 30
0.0
 10
43.4953922888
 20
21.7970913926
 30
0.0
 10
43.0369855869
 20
21.2948650218
 30
0.0
 10
42.6358655611
 20
20.708306482
 30
0.0
 10
42.3016230109
 20
20.0738368094
 30
0.0
 10
42.0347829598
 20
19.4183553128
 30
0.0
 10
41.7689389173
 20
18.556619253
 30
0.0
 10
41.6483041824
 20
17.8996679476
 30
0.0
 10
41.60209112
 20
17.4673471922
 30
0.0
  0
SPLINE
  5
301
100
AcDbEntity
  8
0
100
AcDbSpline
 62
7
  6
BYLAYER
 70
0
 71
3
 72
9
 73
5
 74
0
 42
0.0000001
 43
0.0000001
 44
0.0000000001
 40
0.0
 40
0.0
 40
0.0
 40
0.0
 40
0.2603230958
 40
1.0
 40
1.0
 40
1.0
 40
1.0
 10
30.4551984208
 20
79.8512273193
 30
0.0
 10
30.4024548173
 20
79.8816781641
 30
0.0
 10
30.2025067327
 20
80.0031238136
 30
0.0
 10
30.0133885534
 20
80.142971708
 30
0.0
 10
29.8836830847
 20
80.2575231398
 30
0.0
  0
SPLINE
  5
302
100
AcDbEntity
  8
0
100
AcDbSpline
 62
7
  6
BYLAYER
 70
0
 71
3
 72
11
 73
7
 74
0
 42
0.0000001
 43
0.0000001
 44
0.0000000001
 40
0.0
 40
0.0
 40
0.0
 40
0.0
 40
0.2733632918
 40
0.529124813
 40
0.7700089074
 40
1.0
 40
1.0
 40
1.0
 40
1.0
 10
29.8836830847
 20
80.2575231398
 30
0.0
 10
29.7936326444
 20
80.3370526075
 30
0.0
 10
29.6284426214
 20
80.5018750737
 30
0.0
 10
29.4247223737
 20
80.7737413168
 30
0.0
 10
29.2767839607
 20
81.0584739262
 30
0.0
 10
29.2159276932
 20
81.2578280443
 30
0.0
 10
29.196250734
 20
81.3569741309
 30
0.0
  0
SPLINE
  5
303
100
AcDbEntity
  8
0
100
AcDbSpline
 62
7
  6
BYLAYER
 70
0
 71
3
 72
14
 73
10
 74
0
 42
0.0000001
 43
0.0000001
 44
0.0000000001
 40
0.0
 40
0.0
 40
0.0
 40
0.0
 40
0.2892458891
 40
0.4225681075
 40
0.5485159926
 40
0.6678919772
 40
0.7818658504
 40
0.8919554555
 40
1.0
 40
1.0
 40
1.0
 40
1.0
 10
32.1492871668
 20
46.9559801573
 30
0.0
 10
32.1492871668
 20
47.1587043888
 30
0.0
 10
32.1729926905
 20
47.4563200558
 30
0.0
 10
32.2644417904
 20
47.8304001468
 30
0.0
 10
32.3575394151
 20
48.0796723302
 30
0.0
 10
32.4761845471
 20
48.3026973687
 30
0.0
 10
32.6194944107
 20
48.4972673988
 30
0.0
 10
32.7860493406
 20
48.6612875459
 30
0.0
 10
32.9121682324
 20
48.7492382255
 30
0.0
 10
32.9777486979
 20
48.7871002347
 30
0.0
  0
SPLINE
  5
304
100
AcDbEntity
  8
0
100
AcDbSpline
 62
7
  6
BYLAYER
 70
0
 71
3
 72
13
 73
9
 74
0
 42
0.0000001
 43
0.0000001
 44
0.0000000001
 40
0.0
 40
0.0
 40
0.0
 40
0.0
 40
0.28877063
 40
0.5478836017
 40
0.6675526067
 40
0.781808447
 40
0.8920561257
 40
1.0
 40
1.0
 40
1.0
 40
1.0
 10
36.5124244035
 20
80.988173557
 30
0.0
 10
36.6914151948
 20
81.0915133217
 30
0.0
 10
37.0167079012
 20
81.3145804123
 30
0.0
 10
37.3516815683
 20
81.6616828087
 30
0.0
 10
37.5434633784
 20
81.9590969261
 30
0.0
 10
37.6469072404
 20
82.1836579386
 30
0.0
 10
37.712675658
 20
82.4133135645
 30
0.0
 10
37.7307342058
 20
82.5692826345
 30
0.0
 10
37.7331866922
 20
82.6465018639
 30
0.0
  0
SPLINE
  5
305
100
AcDbEntity
  8
0
100
AcDbSpline
 62
7
  6
BYLAYER
 70
0
 71
3
 72
15
 73
11
 74
0
 42
0.0000001
 43
0.0000001
 44
0.0000000001
 40
0.0
 40
0.0
 40
0.0
 40
0.0
 40
0.1141447985
 40
0.2373324971
 40
0.3669747555
 40
0.5000005214
 40
0.6330262147
 40
0.7626682613
 40
0.8858556261
 40
1.0
 40
1.0
 40
1.0
 40
1.0
 10
30.6145191792
 20
80.9881593801
 30
0.0
 10
30.8163813579
 20
80.8716168334
 30
0.0
 10
31.2578463676
 20
80.6660712504
 30
0.0
 10
31.9766995944
 20
80.4475382713
 30
0.0
 10
32.7550166289
 20
80.3131005319
 30
0.0
 10
33.5634767645
 20
80.2676895993
 30
0.0
 10
34.3719362539
 20
80.313104369
 30
0.0
 10
35.1502513791
 20
80.4475458039
 30
0.0
 10
35.8691015109
 20
80.6660822002
 30
0.0
 10
36.3105638161
 20
80.8716299882
 30
0.0
 10
36.5124244035
 20
80.988173557
 30
0.0
  0
SPLINE
  5
306
100
AcDbEntity
  8
0
100
AcDbSpline
 62
7
  6
BYLAYER
 70
0
 71
3
 72
15
 73
11
 74
0
 42
0.0000001
 43
0.0000001
 44
0.0000000001
 40
0.0
 40
0.0
 40
0.0
 40
0.0
 40
0.1141443739
 40
0.2373317387
 40
0.3669737853
 40
0.4999994786
 40
0.6330252445
 40
0.7626675029
 40
0.8858552015
 40
1.0
 40
1.0
 40
1.0
 40
1.0
 10
36.0383435517
 20
81.8700823555
 30
0.0
 10
35.8689344321
 20
81.7722745385
 30
0.0
 10
35.498442394
 20
81.5997709793
 30
0.0
 10
34.8951558906
 20
81.4163668836
 30
0.0
 10
34.2419640922
 20
81.3035384934
 30
0.0
 10
33.5634739913
 20
81.265424683
 30
0.0
 10
32.884983348
 20
81.3035352731
 30
0.0
 10
32.2317899472
 20
81.4163605619
 30
0.0
 10
31.6285008464
 20
81.5997617898
 30
0.0
 10
31.2580065385
 20
81.7722634985
 30
0.0
 10
31.0885960834
 20
81.8700704577
 30
0.0
  0
SPLINE
  5
307
100
AcDbEntity
  8
0
100
AcDbSpline
 62
7
  6
BYLAYER
 70
0
 71
3
 72
13
 73
9
 74
0
 42
0.0000001
 43
0.0000001
 44
0.0000000001
 40
0.0
 40
0.0
 40
0.0
 40
0.0
 40
0.2893752604
 40
0.5483111542
 40
0.6677405599
 40
0.7817653757
 40
0.891905003
 40
1.0
 40
1.0
 40
1.0
 40
1.0
 10
31.0885960834
 20
81.8700704577
 30
0.0
 10
30.9349801256
 20
81.9587586659
 30
0.0
 10
30.6564034718
 20
82.150464453
 30
0.0
 10
30.3715064531
 20
82.4501645347
 30
0.0
 10
30.2111182227
 20
82.7069344326
 30
0.0
 10
30.1263729703
 20
82.9006552054
 30
0.0
 10
30.0749481939
 20
83.0986190508
 30
0.0
 10
30.0634758654
 20
83.2326656053
 30
0.0
 10
30.0634758646
 20
83.2989249963
 30
0.0
  0
SPLINE
  5
308
100
AcDbEntity
  8
0
100
AcDbSpline
 62
7
  6
BYLAYER
 70
0
 71
3
 72
13
 73
9
 74
0
 42
0.0000001
 43
0.0000001
 44
0.0000000001
 40
0.0
 40
0.0
 40
0.0
 40
0.0
 40
0.1080952414
 40
0.2182350759
 40
0.3322600288
 40
0.4516894853
 40
0.7106252119
 40
1.0
 40
1.0
 40
1.0
 40
1.0
 10
37.0634431627
 20
83.2989249963
 30
0.0
 10
37.0634431636
 20
83.2326663106
 30
0.0
 10
37.0519710841
 20
83.0986212136
 30
0.0
 10
37.0005474062
 20
82.9006594535
 30
0.0
 10
36.9158039605
 20
82.7069406184
 30
0.0
 10
36.7554191366
 20
82.4501731989
 30
0.0
 10
36.4705280085
 20
82.1504754401
 30
0.0
 10
36.1919566368
 20
81.9587703821
 30
0.0
 10
36.0383435517
 20
81.8700823555
 30
0.0
  0
SPLINE
  5
309
100
AcDbEntity
  8
0
100
AcDbSpline
 62
7
  6
BYLAYER
 70
0
 71
3
 72
13
 73
9
 74
0
 42
0.0000001
 43
0.0000001
 44
0.0000000001
 40
0.0
 40
0.0
 40
0.0
 40
0.0
 40
0.2893956678
 40
0.5483187796
 40
0.6677418298
 40
0.7817655687
 40
0.8919032881
 40
1.0
 40
1.0
 40
1.0
 40
1.0
 10
36.0383435517
 20
84.1726142469
 30
0.0
 10
36.1919677778
 20
84.2613087043
 30
0.0
 10
36.4705390133
 20
84.4530213149
 30
0.0
 10
36.7554383443
 20
84.7527160896
 30
0.0
 10
36.9157994856
 20
85.0094824982
 30
0.0
 10
37.0005571695
 20
85.2031888764
 30
0.0
 10
37.0519661926
 20
85.4011539788
 30
0.0
 10
37.0634435313
 20
85.5351972765
 30
0.0
 10
37.0634464465
 20
85.6014568879
 30
0.0
  0
SPLINE
  5
30A
100
AcDbEntity
  8
0
100
AcDbSpline
 62
7
  6
BYLAYER
 70
0
 71
3
 72
15
 73
11
 74
0
 42
0.0000001
 43
0.0000001
 44
0.0000000001
 40
0.0
 40
0.0
 40
0.0
 40
0.0
 40
0.1141427337
 40
0.2373144022
 40
0.3669416181
 40
0.4999562975
 40
0.6329842903
 40
0.7626361129
 40
0.8858431949
 40
1.0
 40
1.0
 40
1.0
 40
1.0
 10
31.0885960834
 20
84.1726023492
 30
0.0
 10
31.2580034592
 20
84.0747971678
 30
0.0
 10
31.6284690901
 20
83.9023078941
 30
0.0
 10
32.2317008312
 20
83.7189156328
 30
0.0
 10
32.8848193006
 20
83.6060846869
 30
0.0
 10
33.5632681182
 20
83.5679534887
 30
0.0
 10
34.2417599849
 20
83.6060547055
 30
0.0
 10
34.8950120357
 20
83.7188573063
 30
0.0
 10
35.4983681874
 20
83.9022808716
 30
0.0
 10
35.8689159961
 20
84.0747957877
 30
0.0
 10
36.0383435517
 20
84.1726142469
 30
0.0
  0
SPLINE
  5
30B
100
AcDbEntity
  8
0
100
AcDbSpline
 62
7
  6
BYLAYER
 70
0
 71
3
 72
15
 73
11
 74
0
 42
0.0000001
 43
0.0000001
 44
0.0000000001
 40
0.0
 40
0.0
 40
0.0
 40
0.0
 40
0.116890783
 40
0.2418687837
 40
0.372393391
 40
0.5054037857
 40
0.6376694952
 40
0.7660110705
 40
0.8875537734
 40
1.0
 40
1.0
 40
1.0
 40
1.0
 10
37.8490358614
 20
75.3183186352
 30
0.0
 10
37.5256607687
 20
75.1536009263
 30
0.0
 10
36.8285009091
 20
74.8663363319
 30
0.0
 10
35.7082121763
 20
74.5697449533
 30
0.0
 10
34.5112880272
 20
74.4000712736
 30
0.0
 10
33.2805244509
 20
74.3636311798
 30
0.0
 10
32.0598911659
 20
74.4615889967
 30
0.0
 10
30.8928581983
 20
74.6905670571
 30
0.0
 10
29.8212594838
 20
75.0422896176
 30
0.0
 10
29.1664983457
 20
75.3649968916
 30
0.0
 10
28.8681523776
 20
75.546291992
 30
0.0
  0
SPLINE
  5
30C
100
AcDbEntity
  8
0
100
AcDbSpline
 62
7
  6
BYLAYER
 70
0
 71
3
 72
9
 73
5
 74
0
 42
0.0000001
 43
0.0000001
 44
0.0000000001
 40
0.0
 40
0.0
 40
0.0
 40
0.0
 40
0.4748307306
 40
1.0
 40
1.0
 40
1.0
 40
1.0
 10
27.6993633067
 20
76.522986401
 30
0.0
 10
27.8167828019
 20
76.3147509943
 30
0.0
 10
28.1234469495
 20
75.9086890905
 30
0.0
 10
28.5066731674
 20
75.5773274529
 30
0.0
 10
28.7199612927
 20
75.4210680218
 30
0.0
  0
SPLINE
  5
30D
100
AcDbEntity
  8
0
100
AcDbSpline
 62
7
  6
BYLAYER
 70
0
 71
3
 72
9
 73
5
 74
0
 42
0.0000001
 43
0.0000001
 44
0.0000000001
 40
0.0
 40
0.0
 40
0.0
 40
0.0
 40
0.2450876267
 40
1.0
 40
1.0
 40
1.0
 40
1.0
 10
28.7731666043
 20
75.3826393825
 30
0.0
 10
28.8057920991
 20
75.359406977
 30
0.0
 10
28.9400648494
 20
75.2662429419
 30
0.0
 10
29.078762412
 20
75.179492675
 30
0.0
 10
29.1853873217
 20
75.1174393364
 30
0.0
  0
SPLINE
  5
30E
100
AcDbEntity
  8
0
100
AcDbSpline
 62
7
  6
BYLAYER
 70
0
 71
3
 72
15
 73
11
 74
0
 42
0.0000001
 43
0.0000001
 44
0.0000000001
 40
0.0
 40
0.0
 40
0.0
 40
0.0
 40
0.1139963862
 40
0.2370740103
 40
0.3666940254
 40
0.4997400926
 40
0.6328226516
 40
0.7625462766
 40
0.8857978244
 40
1.0
 40
1.0
 40
1.0
 40
1.0
 10
29.1853873217
 20
75.1174393364
 30
0.0
 10
29.4835562889
 20
74.943911594
 30
0.0
 10
30.1362364032
 20
74.6376906436
 30
0.0
 10
31.2001009132
 20
74.3118352715
 30
0.0
 10
32.3529031339
 20
74.1106669669
 30
0.0
 10
33.5511335928
 20
74.0418488557
 30
0.0
 10
34.7498291284
 20
74.1079241862
 30
0.0
 10
35.9040516088
 20
74.3064285223
 30
0.0
 10
36.9701675341
 20
74.629881226
 30
0.0
 10
37.6248259212
 20
74.9345356387
 30
0.0
 10
37.9241339468
 20
75.1073401763
 30
0.0
  0
SPLINE
  5
30F
100
AcDbEntity
  8
0
100
AcDbSpline
 62
7
  6
BYLAYER
 70
0
 71
3
 72
15
 73
11
 74
0
 42
0.0000001
 43
0.0000001
 44
0.0000000001
 40
0.0
 40
0.0
 40
0.0
 40
0.0
 40
0.1144743915
 40
0.2381031004
 40
0.3682265504
 40
0.5016225955
 40
0.6347934594
 40
0.7642581664
 40
0.8868418697
 40
1.0
 40
1.0
 40
1.0
 40
1.0
 10
37.7239104271
 20
75.2229356096
 30
0.0
 10
37.4342830281
 20
75.055720151
 30
0.0
 10
36.8001419199
 20
74.7615506974
 30
0.0
 10
35.7670904005
 20
74.4512902614
 30
0.0
 10
34.6488711098
 20
74.2636888295
 30
0.0
 10
33.4888635522
 20
74.2060424736
 30
0.0
 10
32.3317317328
 20
74.2805359229
 30
0.0
 10
31.2220422897
 20
74.4843673716
 30
0.0
 10
30.202777868
 20
74.8095522844
 30
0.0
 10
29.5807299688
 20
75.1133730645
 30
0.0
 10
29.2981983751
 20
75.2850229099
 30
0.0
  0
SPLINE
  5
310
100
AcDbEntity
  8
0
100
AcDbSpline
 62
7
  6
BYLAYER
 70
0
 71
3
 72
15
 73
11
 74
0
 42
0.0000001
 43
0.0000001
 44
0.0000000001
 40
0.0
 40
0.0
 40
0.0
 40
0.0
 40
0.1141543258
 40
0.2373258924
 40
0.3669759246
 40
0.5000005214
 40
0.6330250456
 40
0.762674866
 40
0.8858460989
 40
1.0
 40
1.0
 40
1.0
 40
1.0
 10
28.8612189962
 20
73.8229199449
 30
0.0
 10
29.183126234
 20
73.6370709189
 30
0.0
 10
29.8870334866
 20
73.3092912228
 30
0.0
 10
31.0333073992
 20
72.9608961759
 30
0.0
 10
32.2743308993
 20
72.7464462182
 30
0.0
 10
33.5634870212
 20
72.6740955827
 30
0.0
 10
34.8526421128
 20
72.7464523368
 30
0.0
 10
36.0936625679
 20
72.9609081871
 30
0.0
 10
37.239931546
 20
73.3093086829
 30
0.0
 10
37.9438344859
 20
73.6370918947
 30
0.0
 10
38.2657391859
 20
73.8229425505
 30
0.0
  0
SPLINE
  5
311
100
AcDbEntity
  8
0
100
AcDbSpline
 62
7
  6
BYLAYER
 70
0
 71
3
 72
15
 73
11
 74
0
 42
0.0000001
 43
0.0000001
 44
0.0000000001
 40
0.0
 40
0.0
 40
0.0
 40
0.0
 40
0.1141539126
 40
0.2373251617
 40
0.3669749992
 40
0.4999995369
 40
0.633024139
 40
0.7626741642
 40
0.8858457094
 40
1.0
 40
1.0
 40
1.0
 40
1.0
 10
38.1433798988
 20
74.0323683143
 30
0.0
 10
37.8298513715
 20
73.8513536152
 30
0.0
 10
37.144264419
 20
73.5320995687
 30
0.0
 10
36.0278220476
 20
73.1927648133
 30
0.0
 10
34.8190936982
 20
72.9838894592
 30
0.0
 10
33.5634832659
 20
72.9134157751
 30
0.0
 10
32.3078719439
 20
72.9838841758
 30
0.0
 10
31.0991409654
 20
73.1927544428
 30
0.0
 10
29.9826943251
 20
73.5320844901
 30
0.0
 10
29.2971036513
 20
73.8513355168
 30
0.0
 10
28.9835729239
 20
74.0323488028
 30
0.0
  0
SPLINE
  5
312
100
AcDbEntity
  8
0
100
AcDbSpline
 62
7
  6
BYLAYER
 70
0
 71
3
 72
23
 73
19
 74
0
 42
0.0000001
 43
0.0000001
 44
0.0000000001
 40
0.0
 40
0.0
 40
0.0
 40
0.0
 40
0.0623830828
 40
0.1287482978
 40
0.1983450859
 40
0.2703346253
 40
0.3437242294
 40
0.4174674406
 40
0.49050382
 40
0.5618024853
 40
0.6304109126
 40
0.6955087831
 40
0.7564666506
 40
0.8129138684
 40
0.8648225749
 40
0.9126046199
 40
0.9571860973
 40
1.0
 40
1.0
 40
1.0
 40
1.0
 10
38.2657391859
 20
72.958155804
 30
0.0
 10
38.0268563217
 20
72.8202375413
 30
0.0
 10
37.5148062722
 20
72.567817265
 30
0.0
 10
36.6888964049
 20
72.2684856897
 30
0.0
 10
35.7962905546
 20
72.0419359313
 30
0.0
 10
34.8562517357
 20
71.8928372591
 30
0.0
 10
33.8885948066
 20
71.8244472286
 30
0.0
 10
32.9140144572
 20
71.8381706997
 30
0.0
 10
31.9532858395
 20
71.9336978128
 30
0.0
 10
31.026878859
 20
72.1090164203
 30
0.0
 10
30.154487343
 20
72.3604515604
 30
0.0
 10
29.3545473651
 20
72.6827284886
 30
0.0
 10
28.643853121
 20
73.0692574283
 30
0.0
 10
28.0372891283
 20
73.5124548228
 30
0.0
 10
27.5478063602
 20
74.0040182334
 30
0.0
 10
27.1866691847
 20
74.5352265186
 30
0.0
 10
26.9640907569
 20
75.0955690546
 30
0.0
 10
26.9134614182
 20
75.4836476292
 30
0.0
 10
26.9134595135
 20
75.6729568216
 30
0.0
  0
SPLINE
  5
313
100
AcDbEntity
  8
0
100
AcDbSpline
 62
7
  6
BYLAYER
 70
0
 71
3
 72
14
 73
10
 74
0
 42
0.0000001
 43
0.0000001
 44
0.0000000001
 40
0.0
 40
0.0
 40
0.0
 40
0.0
 40
0.1108493821
 40
0.2278656076
 40
0.3503000267
 40
0.4771741335
 40
0.738580452
 40
0.8701890643
 40
1.0
 40
1.0
 40
1.0
 40
1.0
 10
39.2203373148
 20
57.1118122065
 30
0.0
 10
38.9494128978
 20
56.9553948551
 30
0.0
 10
38.369132589
 20
56.6732221659
 30
0.0
 10
37.4322901879
 20
56.3513177544
 30
0.0
 10
36.4219700514
 20
56.1231073047
 30
0.0
 10
34.9900619528
 20
55.9441557267
 30
0.0
 10
33.5146946999
 20
55.9582093259
 30
0.0
 10
32.0499997
 20
56.1432075799
 30
0.0
 10
31.3262847125
 20
56.2913175678
 30
0.0
 10
30.970509364
 20
56.3786983739
 30
0.0
  0
SPLINE
  5
314
100
AcDbEntity
  8
0
100
AcDbSpline
 62
7
  6
BYLAYER
 70
0
 71
3
 72
13
 73
9
 74
0
 42
0.0000001
 43
0.0000001
 44
0.0000000001
 40
0.0
 40
0.0
 40
0.0
 40
0.0
 40
0.1079436307
 40
0.2181911052
 40
0.3324468112
 40
0.4521157669
 40
0.7112289035
 40
1.0
 40
1.0
 40
1.0
 40
1.0
 10
29.3937323362
 20
82.6465018639
 30
0.0
 10
29.3961848512
 20
82.5692817918
 30
0.0
 10
29.4142437404
 20
82.413310986
 30
0.0
 10
29.4800135208
 20
82.1836528921
 30
0.0
 10
29.5834595554
 20
81.9590895852
 30
0.0
 10
29.7752454235
 20
81.6616725373
 30
0.0
 10
30.1102260479
 20
81.3145673751
 30
0.0
 10
30.4355249961
 20
81.0914993821
 30
0.0
 10
30.6145191792
 20
80.9881593801
 30
0.0
  0
SPLINE
  5
315
100
AcDbEntity
  8
0
100
AcDbSpline
 62
7
  6
BYLAYER
 70
0
 71
3
 72
11
 73
7
 74
0
 42
0.0000001
 43
0.0000001
 44
0.0000000001
 40
0.0
 40
0.0
 40
0.0
 40
0.0
 40
0.2367710988
 40
0.488594346
 40
0.7462932521
 40
1.0
 40
1.0
 40
1.0
 40
1.0
 10
27.9064242331
 20
47.1683444147
 30
0.0
 10
27.8174816589
 20
47.2362336575
 30
0.0
 10
27.6467561981
 20
47.3935382019
 30
0.0
 10
27.4255558447
 20
47.6696587206
 30
0.0
 10
27.2404478403
 20
47.9804917939
 30
0.0
 10
27.1462478864
 20
48.204114058
 30
0.0
 10
27.1081432573
 20
48.3177926922
 30
0.0
  0
SPLINE
  5
316
100
AcDbEntity
  8
0
100
AcDbSpline
 62
7
  6
BYLAYER
 70
0
 71
3
 72
22
 73
18
 74
0
 42
0.0000001
 43
0.0000001
 44
0.0000000001
 40
0.0
 40
0.0
 40
0.0
 40
0.0
 40
0.0428180982
 40
0.0874059655
 40
0.1351958392
 40
0.1871108764
 40
0.2435655474
 40
0.3045311821
 40
0.3696362064
 40
0.4382536407
 40
0.5095603828
 40
0.5826044473
 40
0.7296225727
 40
0.8016206812
 40
0.8712279866
 40
0.9376183324
 40
1.0
 40
1.0
 40
1.0
 40
1.0
 10
22.835508934
 20
50.0237491341
 30
0.0
 10
22.7368976582
 20
49.9668172261
 30
0.0
 10
22.519528695
 20
49.8764540043
 30
0.0
 10
22.1606927548
 20
49.8238606531
 30
0.0
 10
21.7753654884
 20
49.852253249
 30
0.0
 10
21.3720813441
 20
49.9593612851
 30
0.0
 10
20.9587849805
 20
50.1420310964
 30
0.0
 10
20.543702442
 20
50.3959940816
 30
0.0
 10
20.1352221643
 20
50.7157437431
 30
0.0
 10
19.7418974756
 20
51.0945637143
 30
0.0
 10
19.3719228929
 20
51.5244425545
 30
0.0
 10
18.9195994759
 20
52.1544115404
 30
0.0
 10
18.5478143816
 20
52.8414905318
 30
0.0
 10
18.272508776
 20
53.5587667406
 30
0.0
 10
18.1220570327
 20
54.0919672023
 30
0.0
 10
18.0296373837
 20
54.6122366195
 30
0.0
 10
18.0070926639
 20
54.9549041809
 30
0.0
 10
18.0070926639
 20
55.1207952477
 30
0.0
  0
SPLINE
  5
317
100
AcDbEntity
  8
0
100
AcDbSpline
 62
7
  6
BYLAYER
 70
0
 71
3
 72
10
 73
6
 74
0
 42
0.0000001
 43
0.0000001
 44
0.0000000001
 40
0.0
 40
0.0
 40
0.0
 40
0.0
 40
0.4597838715
 40
0.7197574992
 40
1.0
 40
1.0
 40
1.0
 40
1.0
 10
24.9749580539
 20
21.7309975439
 30
0.0
 10
24.9373240204
 20
21.6837721861
 30
0.0
 10
24.8959775315
 20
21.5953355349
 30
0.0
 10
24.8703030086
 20
21.4664500311
 30
0.0
 10
24.8660558202
 20
21.3953244582
 30
0.0
 10
24.8660558202
 20
21.3585182019
 30
0.0
  0
SPLINE
  5
318
100
AcDbEntity
  8
0
100
AcDbSpline
 62
7
  6
BYLAYER
 70
0
 71
3
 72
11
 73
7
 74
0
 42
0.0000001
 43
0.0000001
 44
0.0000000001
 40
0.0
 40
0.0
 40
0.0
 40
0.0
 40
0.2177460211
 40
0.4508843679
 40
0.7104607696
 40
1.0
 40
1.0
 40
1.0
 40
1.0
 10
30.8814826395
 20
17.1449650957
 30
0.0
 10
30.8485032227
 20
17.125924542
 30
0.0
 10
30.7727527183
 20
17.0983370954
 30
0.0
 10
30.646821308
 20
17.0951737032
 30
0.0
 10
30.5126771313
 20
17.1276426941
 30
0.0
 10
30.4253661179
 20
17.1691227969
 30
0.0
 10
30.3815128539
 20
17.1944409178
 30
0.0
  0
SPLINE
  5
319
100
AcDbEntity
  8
0
100
AcDbSpline
 62
7
  6
BYLAYER
 70
0
 71
3
 72
10
 73
6
 74
0
 42
0.0000001
 43
0.0000001
 44
0.0000000001
 40
0.0
 40
0.0
 40
0.0
 40
0.0
 40
0.2267382346
 40
0.5949820553
 40
1.0
 40
1.0
 40
1.0
 40
1.0
 10
48.5895014295
 20
19.1503213916
 30
0.0
 10
48.6491423655
 20
19.2580832401
 30
0.0
 10
48.7823193651
 20
19.5541278737
 30
0.0
 10
48.9139141124
 20
20.0847162429
 30
0.0
 10
48.943056292
 20
20.5057193254
 30
0.0
 10
48.943056292
 20
20.7257267761
 30
0.0
  0
SPLINE
  5
31A
100
AcDbEntity
  8
0
100
AcDbSpline
 62
7
  6
BYLAYER
 70
0
 71
3
 72
11
 73
7
 74
0
 42
0.0000001
 43
0.0000001
 44
0.0000000001
 40
0.0
 40
0.0
 40
0.0
 40
0.0
 40
0.2895401978
 40
0.5491171512
 40
0.782255066
 40
1.0
 40
1.0
 40
1.0
 40
1.0
 10
24.7246350528
 20
21.2768693711
 30
0.0
 10
24.7246350528
 20
21.3275079943
 30
0.0
 10
24.7323671026
 20
21.4238645128
 30
0.0
 10
24.7713201718
 20
21.5562753549
 30
0.0
 10
24.8370266372
 20
21.6637565421
 30
0.0
 10
24.8987948592
 20
21.7155658884
 30
0.0
 10
24.9317749924
 20
21.7346068558
 30
0.0
  0
SPLINE
  5
31B
100
AcDbEntity
  8
0
100
AcDbSpline
 62
7
  6
BYLAYER
 70
0
 71
3
 72
13
 73
9
 74
0
 42
0.0000001
 43
0.0000001
 44
0.0000000001
 40
0.0
 40
0.0
 40
0.0
 40
0.0
 40
0.1141759018
 40
0.2375697245
 40
0.4999990825
 40
0.762428944
 40
0.8858232992
 40
1.0
 40
1.0
 40
1.0
 40
1.0
 10
25.4317447779
 20
20.0521261995
 30
0.0
 10
25.3833721899
 20
20.0800534944
 30
0.0
 10
25.2877739207
 20
20.1471334256
 30
0.0
 10
25.1086800873
 20
20.3145942218
 30
0.0
 10
24.9196804619
 20
20.5729804432
 30
0.0
 10
24.7904099335
 20
20.865851678
 30
0.0
 10
24.7349297998
 20
21.1046823924
 30
0.0
 10
24.7246350528
 20
21.2210134427
 30
0.0
 10
24.7246350528
 20
21.2768693711
 30
0.0
  0
SPLINE
  5
31C
100
AcDbEntity
  8
0
100
AcDbSpline
 62
7
  6
BYLAYER
 70
0
 71
3
 72
11
 73
7
 74
0
 42
0.0000001
 43
0.0000001
 44
0.0000000001
 40
0.0
 40
0.0
 40
0.0
 40
0.0
 40
0.2294369847
 40
0.4700690507
 40
0.7260014645
 40
1.0
 40
1.0
 40
1.0
 40
1.0
 10
37.9306682917
 20
81.356974131
 30
0.0
 10
37.9105590123
 20
81.2556497483
 30
0.0
 10
37.8478522605
 20
81.0518497314
 30
0.0
 10
37.694703136
 20
80.7612550938
 30
0.0
 10
37.4834813531
 20
80.4842888832
 30
0.0
 10
37.3122487397
 20
80.3169247528
 30
0.0
 10
37.2189043429
 20
80.2362684156
 30
0.0
  0
SPLINE
  5
31D
100
AcDbEntity
  8
0
100
AcDbSpline
 62
7
  6
BYLAYER
 70
0
 71
3
 72
11
 73
7
 74
0
 42
0.0000001
 43
0.0000001
 44
0.0000000001
 40
0.0
 40
0.0
 40
0.0
 40
0.0
 40
0.2457922432
 40
0.4999878415
 40
0.7541782653
 40
1.0
 40
1.0
 40
1.0
 40
1.0
 10
21.7015009895
 20
55.9910442253
 30
0.0
 10
21.7732992762
 20
55.7128089684
 30
0.0
 10
21.962225178
 20
55.1572835026
 30
0.0
 10
22.3544608091
 20
54.3650548762
 30
0.0
 10
22.8443882987
 20
53.6291802526
 30
0.0
 10
23.2310357172
 20
53.1877743577
 30
0.0
 10
23.4361081164
 20
52.9864413529
 30
0.0
  0
SPLINE
  5
31E
100
AcDbEntity
  8
0
100
AcDbSpline
 62
7
  6
BYLAYER
 70
0
 71
3
 72
9
 73
5
 74
0
 42
0.0000001
 43
0.0000001
 44
0.0000000001
 40
0.0
 40
0.0
 40
0.0
 40
0.0
 40
0.4778914788
 40
1.0
 40
1.0
 40
1.0
 40
1.0
 10
41.5893435765
 20
15.1088036728
 30
0.0
 10
41.4913952698
 20
15.4507452901
 30
0.0
 10
41.3541802038
 20
16.1863857125
 30
0.0
 10
41.3325105006
 20
16.933393265
 30
0.0
 10
41.3488460149
 20
17.321654025
 30
0.0
  0
SPLINE
  5
31F
100
AcDbEntity
  8
0
100
AcDbSpline
 62
7
  6
BYLAYER
 70
0
 71
3
 72
25
 73
21
 74
0
 42
0.0000001
 43
0.0000001
 44
0.0000000001
 40
0.0
 40
0.0
 40
0.0
 40
0.0
 40
0.0213317797
 40
0.042892043
 40
0.0648969414
 40
0.0875419536
 40
0.1353163243
 40
0.1872166937
 40
0.2436548455
 40
0.3046029226
 40
0.3696903377
 40
0.4382877458
 40
0.5095749599
 40
0.5825996089
 40
0.6563309761
 40
0.7297087932
 40
0.8016867703
 40
0.8712723804
 40
0.9376269365
 40
1.0
 40
1.0
 40
1.0
 40
1.0
 10
25.5634595135
 20
75.0365561696
 30
0.0
 10
25.5634606553
 20
74.9230676124
 30
0.0
 10
25.5781519459
 20
74.6946145302
 30
0.0
 10
25.6437574409
 20
74.3547791835
 30
0.0
 10
25.7526266624
 20
74.0188575851
 30
0.0
 10
25.9580725526
 20
73.5710708959
 30
0.0
 10
26.3266238073
 20
73.02867395
 30
0.0
 10
26.9154227686
 20
72.4374974639
 30
0.0
 10
27.6451397173
 20
71.9042737317
 30
0.0
 10
28.500105459
 20
71.439292712
 30
0.0
 10
29.4624406799
 20
71.0515863529
 30
0.0
 10
30.511933823
 20
70.7491093792
 30
0.0
 10
31.6264085026
 20
70.538199381
 30
0.0
 10
32.7821722208
 20
70.4232796556
 30
0.0
 10
33.9545997176
 20
70.4067701868
 30
0.0
 10
35.1186982766
 20
70.4890439157
 30
0.0
 10
36.2495720442
 20
70.6684107374
 30
0.0
 10
37.3233835933
 20
70.9409518006
 30
0.0
 10
38.3169593735
 20
71.3010499361
 30
0.0
 10
38.9329594331
 20
71.6047134265
 30
0.0
 10
39.2203373148
 20
71.7706301335
 30
0.0
  0
SPLINE
  5
320
100
AcDbEntity
  8
0
100
AcDbSpline
 62
7
  6
BYLAYER
 70
0
 71
3
 72
11
 73
7
 74
0
 42
0.0000001
 43
0.0000001
 44
0.0000000001
 40
0.0
 40
0.0
 40
0.0
 40
0.0
 40
0.2457922432
 40
0.4999878415
 40
0.7541782653
 40
1.0
 40
1.0
 40
1.0
 40
1.0
 10
35.8436954924
 20
47.8262291349
 30
0.0
 10
35.9154937792
 20
47.547993878
 30
0.0
 10
36.1044196809
 20
46.9924684122
 30
0.0
 10
36.4966553121
 20
46.2002397857
 30
0.0
 10
36.9865828016
 20
45.4643651622
 30
0.0
 10
37.3732302202
 20
45.0229592673
 30
0.0
 10
37.5783026193
 20
44.8216262625
 30
0.0
  0
SPLINE
  5
321
100
AcDbEntity
  8
0
100
AcDbSpline
 62
7
  6
BYLAYER
 70
0
 71
3
 72
12
 73
8
 74
0
 42
0.0000001
 43
0.0000001
 44
0.0000000001
 40
0.0
 40
0.0
 40
0.0
 40
0.0
 40
0.1078251299
 40
0.2186431968
 40
0.4537840447
 40
0.7133117191
 40
1.0
 40
1.0
 40
1.0
 40
1.0
 10
39.3093395088
 20
81.8807950299
 30
0.0
 10
39.2958549574
 20
81.9792715296
 30
0.0
 10
39.2531795816
 20
82.1771705832
 30
0.0
 10
39.1060949847
 20
82.5700709001
 30
0.0
 10
38.8031610315
 20
83.0466742638
 30
0.0
 10
38.2869696443
 20
83.555461262
 30
0.0
 10
37.8679457221
 20
83.8395301858
 30
0.0
 10
37.6390753834
 20
83.9716655482
 30
0.0
  0
SPLINE
  5
322
100
AcDbEntity
  8
0
100
AcDbSpline
 62
7
  6
BYLAYER
 70
0
 71
3
 72
9
 73
5
 74
0
 42
0.0000001
 43
0.0000001
 44
0.0000000001
 40
0.0
 40
0.0
 40
0.0
 40
0.0
 40
0.5309402153
 40
1.0
 40
1.0
 40
1.0
 40
1.0
 10
28.0478450006
 20
47.2499932454
 30
0.0
 10
28.1239660187
 20
47.2202015502
 30
0.0
 10
28.2743674263
 20
47.1791713988
 30
0.0
 10
28.4317985076
 20
47.1860246776
 30
0.0
 10
28.50189915
 20
47.203376114
 30
0.0
  0
SPLINE
  5
323
100
AcDbEntity
  8
0
100
AcDbSpline
 62
7
  6
BYLAYER
 70
0
 71
3
 72
11
 73
7
 74
0
 42
0.0000001
 43
0.0000001
 44
0.0000000001
 40
0.0
 40
0.0
 40
0.0
 40
0.0
 40
0.2537067411
 40
0.5114056432
 40
0.7632288941
 40
1.0
 40
1.0
 40
1.0
 40
1.0
 10
27.2495640247
 20
48.399441523
 30
0.0
 10
27.2876686528
 20
48.2857628919
 30
0.0
 10
27.3818686049
 20
48.0621406329
 30
0.0
 10
27.5669766026
 20
47.7513075591
 30
0.0
 10
27.7881769624
 20
47.4751870415
 30
0.0
 10
27.9589024237
 20
47.3178824903
 30
0.0
 10
28.0478450006
 20
47.2499932454
 30
0.0
  0
SPLINE
  5
324
100
AcDbEntity
  8
0
100
AcDbSpline
 62
7
  6
BYLAYER
 70
0
 71
3
 72
11
 73
7
 74
0
 42
0.0000001
 43
0.0000001
 44
0.0000000001
 40
0.0
 40
0.0
 40
0.0
 40
0.0
 40
0.2267366541
 40
0.4639847986
 40
0.7202329744
 40
1.0
 40
1.0
 40
1.0
 40
1.0
 10
28.4957230853
 20
47.1759527885
 30
0.0
 10
28.4558841708
 20
47.1529583155
 30
0.0
 10
28.3674183243
 20
47.117039639
 30
0.0
 10
28.2209914149
 20
47.0989745327
 30
0.0
 10
28.0638729924
 20
47.115675123
 30
0.0
 10
27.9592777198
 20
47.1476589981
 30
0.0
 10
27.9064242331
 20
47.1683444147
 30
0.0
  0
SPLINE
  5
325
100
AcDbEntity
  8
0
100
AcDbSpline
 62
7
  6
BYLAYER
 70
0
 71
3
 72
15
 73
11
 74
0
 42
0.0000001
 43
0.0000001
 44
0.0000000001
 40
0.0
 40
0.0
 40
0.0
 40
0.0
 40
0.108011545
 40
0.2180600598
 40
0.3320039736
 40
0.451354762
 40
0.5772584226
 40
0.7104989023
 40
0.8514736324
 40
1.0
 40
1.0
 40
1.0
 40
1.0
 10
26.9134595136
 20
76.5377435681
 30
0.0
 10
26.9134595109
 20
76.4118506678
 30
0.0
 10
26.9353704681
 20
76.1571866121
 30
0.0
 10
27.0328847038
 20
75.7810017253
 30
0.0
 10
27.1940456062
 20
75.4129824874
 30
0.0
 10
27.4164974875
 20
75.0567379602
 30
0.0
 10
27.6979934056
 20
74.7155902616
 30
0.0
 10
28.0355693833
 20
74.3924324792
 30
0.0
 10
28.425886342
 20
74.090443929
 30
0.0
 10
28.7112961881
 20
73.9094759603
 30
0.0
 10
28.8612189962
 20
73.8229199449
 30
0.0
  0
SPLINE
  5
326
100
AcDbEntity
  8
0
100
AcDbSpline
 62
7
  6
BYLAYER
 70
0
 71
3
 72
22
 73
18
 74
0
 42
0.0000001
 43
0.0000001
 44
0.0000000001
 40
0.0
 40
0.0
 40
0.0
 40
0.0
 40
0.0428180982
 40
0.0874059655
 40
0.1351958392
 40
0.1871108764
 40
0.2435655474
 40
0.3045311821
 40
0.3696362064
 40
0.4382536407
 40
0.5095603828
 40
0.5826044473
 40
0.7296225727
 40
0.8016206812
 40
0.8712279866
 40
0.9376183324
 40
1.0
 40
1.0
 40
1.0
 40
1.0
 10
36.9777034369
 20
41.8589340437
 30
0.0
 10
36.8790921611
 20
41.8020021357
 30
0.0
 10
36.6617231979
 20
41.7116389139
 30
0.0
 10
36.3028872577
 20
41.6590455627
 30
0.0
 10
35.9175599913
 20
41.6874381586
 30
0.0
 10
35.514275847
 20
41.7945461946
 30
0.0
 10
35.1009794834
 20
41.977216006
 30
0.0
 10
34.6858969449
 20
42.2311789912
 30
0.0
 10
34.2774166672
 20
42.5509286527
 30
0.0
 10
33.8840919786
 20
42.9297486239
 30
0.0
 10
33.5141173958
 20
43.359627464
 30
0.0
 10
33.0617939788
 20
43.98959645
 30
0.0
 10
32.6900088846
 20
44.6766754414
 30
0.0
 10
32.4147032789
 20
45.3939516502
 30
0.0
 10
32.2642515357
 20
45.9271521119
 30
0.0
 10
32.1718318867
 20
46.4474215291
 30
0.0
 10
32.1492871668
 20
46.7900890905
 30
0.0
 10
32.1492871668
 20
46.9559801573
 30
0.0
  0
SPLINE
  5
327
100
AcDbEntity
  8
0
100
AcDbSpline
 62
7
  6
BYLAYER
 70
0
 71
3
 72
15
 73
11
 74
0
 42
0.0000001
 43
0.0000001
 44
0.0000000001
 40
0.0
 40
0.0
 40
0.0
 40
0.0
 40
0.1485260938
 40
0.2895006119
 40
0.4227409634
 40
0.5486445713
 40
0.6679954014
 40
0.7819394365
 40
0.8919880463
 40
1.0
 40
1.0
 40
1.0
 40
1.0
 10
39.2203373148
 20
71.7706301335
 30
0.0
 10
39.4006921772
 20
71.8747574403
 30
0.0
 10
39.7440358092
 20
72.0924625696
 30
0.0
 10
40.2135808113
 20
72.4557550959
 30
0.0
 10
40.6196792049
 20
72.8445134683
 30
0.0
 10
40.9583139589
 20
73.2549133403
 30
0.0
 10
41.2259190337
 20
73.6834745816
 30
0.0
 10
41.4197927285
 20
74.1261997162
 30
0.0
 10
41.5371031068
 20
74.5787475864
 30
0.0
 10
41.5634610377
 20
74.885107439
 30
0.0
 10
41.5634595138
 20
75.0365561696
 30
0.0
  0
SPLINE
  5
328
100
AcDbEntity
  8
0
100
AcDbSpline
 62
7
  6
BYLAYER
 70
0
 71
3
 72
13
 73
9
 74
0
 42
0.0000001
 43
0.0000001
 44
0.0000000001
 40
0.0
 40
0.0
 40
0.0
 40
0.0
 40
0.1141767831
 40
0.2375713001
 40
0.500001251
 40
0.7624305195
 40
0.8858241805
 40
1.0
 40
1.0
 40
1.0
 40
1.0
 10
24.8660558202
 20
21.3585182019
 30
0.0
 10
24.8660558202
 20
21.3026622332
 30
0.0
 10
24.8763506319
 20
21.1863310682
 30
0.0
 10
24.9318307717
 20
20.9475001902
 30
0.0
 10
25.0611014381
 20
20.6546289123
 30
0.0
 10
25.2501010952
 20
20.3962428319
 30
0.0
 10
25.4291947899
 20
20.2287821228
 30
0.0
 10
25.5247929922
 20
20.1617023051
 30
0.0
 10
25.5731655454
 20
20.1337750302
 30
0.0
  0
SPLINE
  5
329
100
AcDbEntity
  8
0
100
AcDbSpline
 62
7
  6
BYLAYER
 70
0
 71
3
 72
10
 73
6
 74
0
 42
0.0000001
 43
0.0000001
 44
0.0000000001
 40
0.0
 40
0.0
 40
0.0
 40
0.0
 40
0.2802421039
 40
0.5402156085
 40
1.0
 40
1.0
 40
1.0
 40
1.0
 10
30.5229336214
 20
17.2760897486
 30
0.0
 10
30.5548083434
 20
17.2576872856
 30
0.0
 10
30.6185276388
 20
17.2258039437
 30
0.0
 10
30.7429812949
 20
17.1835981367
 30
0.0
 10
30.8402413861
 20
17.1751883562
 30
0.0
 10
30.8999556503
 20
17.1841683496
 30
0.0
  0
SPLINE
  5
32A
100
AcDbEntity
  8
0
100
AcDbSpline
 62
7
  6
BYLAYER
 70
0
 71
3
 72
15
 73
11
 74
0
 42
0.0000001
 43
0.0000001
 44
0.0000000001
 40
0.0
 40
0.0
 40
0.0
 40
0.0
 40
0.1505469004
 40
0.2922645364
 40
0.425078285
 40
0.5497114248
 40
0.6674430065
 40
0.7800997608
 40
0.8900566575
 40
1.0
 40
1.0
 40
1.0
 40
1.0
 10
28.9835729239
 20
74.0323488028
 30
0.0
 10
28.8174195807
 20
74.1282754855
 30
0.0
 10
28.503348831
 20
74.329895555
 30
0.0
 10
28.0808808927
 20
74.6708361903
 30
0.0
 10
27.7264343928
 20
75.0377827186
 30
0.0
 10
27.4447564834
 20
75.426332826
 30
0.0
 10
27.2397171768
 20
75.8320445367
 30
0.0
 10
27.1149256989
 20
76.250055476
 30
0.0
 10
27.0726490475
 20
76.6743356117
 30
0.0
 10
27.1001056725
 20
76.9553109809
 30
0.0
 10
27.1267907328
 20
77.0928576912
 30
0.0
  0
SPLINE
  5
32B
100
AcDbEntity
  8
0
100
AcDbSpline
 62
7
  6
BYLAYER
 70
0
 71
3
 72
9
 73
5
 74
0
 42
0.0000001
 43
0.0000001
 44
0.0000000001
 40
0.0
 40
0.0
 40
0.0
 40
0.0
 40
0.245585744
 40
1.0
 40
1.0
 40
1.0
 40
1.0
 10
39.8162930587
 20
57.5025351737
 30
0.0
 10
39.7694744886
 20
57.4677022389
 30
0.0
 10
39.5766756569
 20
57.3287822345
 30
0.0
 10
39.3755818989
 20
57.201442174
 30
0.0
 10
39.2203373148
 20
57.1118122065
 30
0.0
  0
SPLINE
  5
32C
100
AcDbEntity
  8
0
100
AcDbSpline
 62
7
  6
BYLAYER
 70
0
 71
3
 72
15
 73
11
 74
0
 42
0.0000001
 43
0.0000001
 44
0.0000000001
 40
0.0
 40
0.0
 40
0.0
 40
0.0
 40
0.1526911331
 40
0.2908003976
 40
0.4165505787
 40
0.5339281983
 40
0.6475174611
 40
0.7613418897
 40
0.8782684416
 40
1.0
 40
1.0
 40
1.0
 40
1.0
 10
44.0286834458
 20
22.1699777402
 30
0.0
 10
44.1331654829
 20
22.2303001123
 30
0.0
 10
44.341309259
 20
22.3306550485
 30
0.0
 10
44.6612729178
 20
22.4166264064
 30
0.0
 10
44.964859335
 20
22.4303428778
 30
0.0
 10
45.2441587222
 20
22.3757233718
 30
0.0
 10
45.4937571048
 20
22.2606493579
 30
0.0
 10
45.7117186864
 20
22.0946781429
 30
0.0
 10
45.8988181805
 20
21.88660784
 30
0.0
 10
46.0020239219
 20
21.7279263351
 30
0.0
 10
46.0493243198
 20
21.6441772972
 30
0.0
  0
SPLINE
  5
32D
100
AcDbEntity
  8
0
100
AcDbSpline
 62
7
  6
BYLAYER
 70
0
 71
3
 72
15
 73
11
 74
0
 42
0.0000001
 43
0.0000001
 44
0.0000000001
 40
0.0
 40
0.0
 40
0.0
 40
0.0
 40
0.1152583687
 40
0.2386433993
 40
0.3678141906
 40
0.4999850164
 40
0.6321559519
 40
0.7613287385
 40
0.8847080491
 40
1.0
 40
1.0
 40
1.0
 40
1.0
 10
29.2074571419
 20
74.6578090648
 30
0.0
 10
29.5133206491
 20
74.4958214726
 30
0.0
 10
30.1738173404
 20
74.2104755445
 30
0.0
 10
31.2384321093
 20
73.9069791232
 30
0.0
 10
32.3811066374
 20
73.7206499577
 30
0.0
 10
33.5633592798
 20
73.6578573213
 30
0.0
 10
34.7456211227
 20
73.720624339
 30
0.0
 10
35.8882824282
 20
73.9069499356
 30
0.0
 10
36.953006619
 20
74.2104020262
 30
0.0
 10
37.6135598441
 20
74.4958287437
 30
0.0
 10
37.9195198568
 20
74.6578495832
 30
0.0
  0
SPLINE
  5
32E
100
AcDbEntity
  8
0
100
AcDbSpline
 62
7
  6
BYLAYER
 70
0
 71
3
 72
15
 73
11
 74
0
 42
0.0000001
 43
0.0000001
 44
0.0000000001
 40
0.0
 40
0.0
 40
0.0
 40
0.0
 40
0.10994366
 40
0.2199007714
 40
0.3325576291
 40
0.4502892088
 40
0.5749222595
 40
0.7077358552
 40
0.8494532992
 40
1.0
 40
1.0
 40
1.0
 40
1.0
 10
40.0001255877
 20
77.0928716384
 30
0.0
 10
40.0268114254
 20
76.9553255923
 30
0.0
 10
40.0542698815
 20
76.6743515758
 30
0.0
 10
40.0119967078
 20
76.2500730685
 30
0.0
 10
39.8872093119
 20
75.8320634445
 30
0.0
 10
39.6821746059
 20
75.4263526884
 30
0.0
 10
39.4005017259
 20
75.0378031531
 30
0.0
 10
39.0460606091
 20
74.6708567821
 30
0.0
 10
38.6235983058
 20
74.3299158633
 30
0.0
 10
38.3095313284
 20
74.1282953143
 30
0.0
 10
38.1433798988
 20
74.0323683143
 30
0.0
  0
SPLINE
  5
32F
100
AcDbEntity
  8
0
100
AcDbSpline
 62
7
  6
BYLAYER
 70
0
 71
3
 72
14
 73
10
 74
0
 42
0.0000001
 43
0.0000001
 44
0.0000000001
 40
0.0
 40
0.0
 40
0.0
 40
0.0
 40
0.1080466357
 40
0.2181307812
 40
0.3321113461
 40
0.4515001674
 40
0.5774437985
 40
0.7107269735
 40
1.0
 40
1.0
 40
1.0
 40
1.0
 10
37.4777106072
 20
12.4152031908
 30
0.0
 10
37.559687607
 20
12.4625323412
 30
0.0
 10
37.7172788168
 20
12.5725397038
 30
0.0
 10
37.9255777239
 20
12.7774610808
 30
0.0
 10
38.104634155
 20
13.0207578493
 30
0.0
 10
38.2529772071
 20
13.2995292137
 30
0.0
 10
38.3693121464
 20
13.6111075679
 30
0.0
 10
38.4836867492
 20
14.0786766797
 30
0.0
 10
38.5132746931
 20
14.4506958657
 30
0.0
 10
38.5132746931
 20
14.7041255065
 30
0.0
  0
SPLINE
  5
330
100
AcDbEntity
  8
0
100
AcDbSpline
 62
7
  6
BYLAYER
 70
0
 71
3
 72
15
 73
11
 74
0
 42
0.0000001
 43
0.0000001
 44
0.0000000001
 40
0.0
 40
0.0
 40
0.0
 40
0.0
 40
0.1080119537
 40
0.2180605635
 40
0.3320045986
 40
0.4513554287
 40
0.5772590366
 40
0.7104993881
 40
0.8514739062
 40
1.0
 40
1.0
 40
1.0
 40
1.0
 10
40.2134595138
 20
75.6729568216
 30
0.0
 10
40.2134607805
 20
75.5470650642
 30
0.0
 10
40.1915507504
 20
75.2924034367
 30
0.0
 10
40.0940364985
 20
74.9162230196
 30
0.0
 10
39.9328789897
 20
74.5482077515
 30
0.0
 10
39.7104322713
 20
74.1919662197
 30
0.0
 10
39.428942132
 20
73.8508213261
 30
0.0
 10
39.0913728423
 20
73.5276659291
 30
0.0
 10
38.7010635594
 20
73.2256790165
 30
0.0
 10
38.4156591652
 20
73.0447116278
 30
0.0
 10
38.2657391859
 20
72.958155804
 30
0.0
  0
SPLINE
  5
331
100
AcDbEntity
  8
0
100
AcDbSpline
 62
7
  6
BYLAYER
 70
0
 71
3
 72
9
 73
5
 74
0
 42
0.0000001
 43
0.0000001
 44
0.0000000001
 40
0.0
 40
0.0
 40
0.0
 40
0.0
 40
0.5161968609
 40
1.0
 40
1.0
 40
1.0
 40
1.0
 10
26.5536030824
 20
58.325466588
 30
0.0
 10
25.0393091866
 20
59.1412288442
 30
0.0
 10
22.0239916013
 20
60.5761588629
 30
0.0
 10
18.8587525295
 20
61.6497137868
 30
0.0
 10
17.2999829387
 20
62.0609520787
 30
0.0
  0
ENDSEC
  0
SECTION
  2
OBJECTS
  0
DICTIONARY
  5
C
100
AcDbDictionary
280
0
281
1
  3
ACAD_GROUP
350
D
  3
ACAD_MLINESTYLE
350
17
  3
ACAD_LAYOUT
350
1A
  3
ACAD_PLOTSETTINGS
350
19
  3
ACAD_PLOTSTYLENAME
350
E
  0
DICTIONARY
  5
D
102
{ACAD_REACTORS
330
C
102
}
100
AcDbDictionary
280
0
281
1
  0
ACDBDICTIONARYWDFLT
  5
E
102
{ACAD_REACTORS
330
C
102
}
100
AcDbDictionary
281
1
  3
Normal
350
F
100
AcDbDictionaryWithDefault
340
F
  0
DICTIONARY
  5
17
102
{ACAD_REACTORS
330
C
102
}
100
AcDbDictionary
280
0
281
1
  3
Standard
350
18
  0
DICTIONARY
  5
19
102
{ACAD_REACTORS
330
C
102
}
100
AcDbDictionary
281
1
  0
DICTIONARY
  5
1A
102
{ACAD_REACTORS
330
C
102
}
100
AcDbDictionary
281
1
  3
Model
350
332
  3
Layout1
350
333
  0
ACDBPLACEHOLDER
  5
F
102
{ACAD_REACTORS
330
E
102
}
  0
MLINESTYLE
  5
18
102
{ACAD_REACTORS
330
17
102
}
100
AcDbMlineStyle
  2
STANDARD
 70
0
  3

 62
256
 51
90.0
 52
90.0
 71
2
 49
0.5
 62
256
  6
BYLAYER
 49
-0.5
 62
256
  6
BYLAYER
  0
LAYOUT
  5
332
102
{ACAD_REACTORS
330
1A
102
}
100
AcDbPlotSettings
  1

  2
none_device
  4

  6

 40
0.0
 41
0.0
 42
0.0
 43
0.0
 44
210.0
 45
297.0
 46
0.0
 47
0.0
 48
0.0
 49
0.0
140
0.0
141
0.0
142
1.0
143
1.0
 70
1024
 72
1
 73
0
 74
0
  7

 75
0
147
1.0
148
0.0
149
0.0
100
AcDbLayout
  1
Model
 70
0
 71
0
 10
0.0
 20
0.0
 11
210.0
 21
297.0
 12
0.0
 22
0.0
 32
0.0
 14
0.0
 24
0.0
 34
0.0
 15
0.0
 25
0.0
 35
0.0
146
0.0
 13
0.0
 23
0.0
 33
0.0
 16
1.0
 26
0.0
 36
0.0
 17
0.0
 27
1.0
 37
0.0
 76
0
330
210
345
0
346
0
  0
LAYOUT
  5
333
102
{ACAD_REACTORS
330
1A
102
}
100
AcDbPlotSettings
  1

  2
none_device
  4

  6

 40
0.0
 41
0.0
 42
0.0
 43
0.0
 44
210.0
 45
297.0
 46
0.0
 47
0.0
 48
0.0
 49
0.0
140
0.0
141
0.0
142
1.0
143
1.0
 70
0
 72
1
 73
0
 74
0
  7

 75
0
147
1.0
148
0.0
149
0.0
100
AcDbLayout
  1
Layout1
 70
0
 71
1
 10
0.0
 20
0.0
 11
210.0
 21
297.0
 12
0.0
 22
0.0
 32
0.0
 14
0.0
 24
0.0
 34
0.0
 15
0.0
 25
0.0
 35
0.0
146
0.0
 13
0.0
 23
0.0
 33
0.0
 16
1.0
 26
0.0
 36
0.0
 17
0.0
 27
1.0
 37
0.0
 76
0
330
211
345
0
346
0
  0
ENDSEC
  0
EOF
