999
DXF file: C:\Users\sesa63760\Dev\_Creo\CAD\MCADID0002961_3D-CAD\drw0001_1.dxf
999
Pro/ENGINEER 2019471 by Parametric Technology Corporation
  0
SECTION
  2
HEADER
  9
$ACADVER
  1
AC1024
  9
$DWGCODEPAGE
  3
ANSI_1252
  9
$EXTMAX
 10
151.583720054
 20
214.3826897907
 30
0.0
  9
$EXTMIN
 10
0.0
 20
0.0
 30
0.0
  9
$LIMMIN
 10
0.0
 20
0.0
  9
$LIMMAX
 10
151.583720054
 20
214.3826897907
  9
$VIEWCTR
 10
75.791860027
 20
107.1913448954
  9
$VIEWSIZE
 40
214.3826897907
  9
$CLAYER
  8
0
  9
$LTSCALE
 40
13.9745753345
  9
$CELTYPE
  6
BYLAYER
  9
$DIMSCALE
 40
1.0
  9
$DIMASZ
 40
1.8045680959
  9
$DIMEXO
 40
1.0
  9
$DIMDLI
 40
9.6551611402
  9
$DIMEXE
 40
1.0
  9
$DIMCEN
 40
2.2867486911
  9
$DIMLFAC
 40
1.0
  9
$DIMBLK
  1
_FILLED
  9
$DIMALT
 70
0
  9
$DIMALTF
 40
0.0393700787
  9
$DIMTXT
 40
2.5263953342
  9
$DIMTOL
 70
1
  9
$DIMLIM
 70
0
  9
$DIMTFAC
 40
1.0
  9
$DIMTP
 40
0.01
  9
$DIMTM
 40
0.01
  9
$DIMGAP
 40
0.625
  9
$DIMDSEP
 70
46
  9
$AUNITS
 70
0
  9
$PDMODE
 70
3
  9
$PDSIZE
 40
0.3125
  9
$HANDSEED
  5
2A8
  9
$TILEMODE
 70
1
  9
$MEASUREMENT
 70
1
  9
$INSUNITS
 70
4
  0
ENDSEC
  0
SECTION
  2
CLASSES
  0
CLASS
  1
ACDBDICTIONARYWDFLT
  2
AcDbDictionaryWithDefault
  3
AutoCAD 2000
 90
0
 91
1
280
0
281
0
  0
CLASS
  1
ACDBPLACEHOLDER
  2
AcDbPlaceHolder
  3
AutoCAD 2000
 90
0
 91
1
280
0
281
0
  0
CLASS
  1
LAYOUT
  2
AcDbLayout
  3
AutoCAD 2000
 90
0
 91
0
280
0
281
0
  0
ENDSEC
  0
SECTION
  2
TABLES
  0
TABLE
  2
VPORT
  5
8
100
AcDbSymbolTable
 70
2
  0
VPORT
  5
1F4
100
AcDbSymbolTableRecord
100
AcDbViewportTableRecord
  2
*ACTIVE
 70
0
 10
0.0
 20
0.0
 11
1.0
 21
1.0
 12
75.791860027
 22
107.1913448954
 13
0.0
 23
0.0
 14
1.0
 24
1.0
 15
0.0
 25
0.0
 16
0.0
 26
0.0
 36
1.0
 17
0.0
 27
0.0
 37
0.0
 40
214.3826897907
 41
0.7070707071
 42
50.0
 43
0.0
 44
0.0
 50
0.0
 51
0.0
 71
0
 72
100
 73
1
 74
1
 75
0
 76
0
 77
0
 78
0
  0
ENDTAB
  0
TABLE
  2
LTYPE
  5
5
100
AcDbSymbolTable
 70
6
  0
LTYPE
  5
14
100
AcDbSymbolTableRecord
100
AcDbLinetypeTableRecord
  2
BYBLOCK
 70
0
  3

 72
65
 73
0
 40
0.0
  0
LTYPE
  5
15
100
AcDbSymbolTableRecord
100
AcDbLinetypeTableRecord
  2
BYLAYER
 70
0
  3

 72
65
 73
0
 40
0.0
  0
LTYPE
  5
16
100
AcDbSymbolTableRecord
100
AcDbLinetypeTableRecord
  2
CONTINUOUS
 70
64
  3
Solid line
 72
65
 73
0
 40
0.0
  0
LTYPE
  5
1F5
100
AcDbSymbolTableRecord
100
AcDbLinetypeTableRecord
  2
CENTER
 70
64
  3
____ _ ____ _ ____ _ ____ _ ____ _ ____ _ ____
 72
65
 73
4
 40
0.6
 49
0.375
 74
0
 49
-0.075
 74
0
 49
0.075
 74
0
 49
-0.075
 74
0
  0
LTYPE
  5
1F6
100
AcDbSymbolTableRecord
100
AcDbLinetypeTableRecord
  2
HIDDEN
 70
64
  3
- - - - - - - - - - - - - - - - - - - -
 72
65
 73
2
 40
0.2
 49
0.1
 74
0
 49
-0.1
 74
0
  0
LTYPE
  5
1F7
100
AcDbSymbolTableRecord
100
AcDbLinetypeTableRecord
  2
PHANTOM
 70
64
  3
_____ _ _ _____ _ _ _____ _ _ _____
 72
65
 73
6
 40
0.8
 49
0.45
 74
0
 49
-0.05
 74
0
 49
0.1
 74
0
 49
-0.05
 74
0
 49
0.1
 74
0
 49
-0.05
 74
0
  0
LTYPE
  5
1F8
100
AcDbSymbolTableRecord
100
AcDbLinetypeTableRecord
  2
DOT
 70
64
  3
. . . . . . . . . . . . . . . . . . . .
 72
65
 73
2
 40
0.2
 49
0.1
 74
0
 49
-0.1
 74
0
  0
LTYPE
  5
1F9
100
AcDbSymbolTableRecord
100
AcDbLinetypeTableRecord
  2
DASHED
 70
64
  3
- - - - - - - - - - - - - - - - - - - -
 72
65
 73
2
 40
0.2
 49
0.1
 74
0
 49
-0.1
 74
0
  0
ENDTAB
  0
TABLE
  2
LAYER
  5
2
100
AcDbSymbolTable
 70
36
  0
LAYER
  5
10
100
AcDbSymbolTableRecord
100
AcDbLayerTableRecord
  2
0
 70
0
 62
7
  6
CONTINUOUS
370
-3
390
F
  0
LAYER
  5
1FA
100
AcDbSymbolTableRecord
100
AcDbLayerTableRecord
  2
DEFAULT_1
 70
0
 62
7
  6
CENTER
370
-3
390
F
  0
LAYER
  5
1FB
100
AcDbSymbolTableRecord
100
AcDbLayerTableRecord
  2
DEFAULT_2
 70
0
 62
7
  6
HIDDEN
370
-3
390
F
  0
LAYER
  5
1FC
100
AcDbSymbolTableRecord
100
AcDbLayerTableRecord
  2
DEFAULT_3
 70
0
 62
7
  6
PHANTOM
370
-3
390
F
  0
LAYER
  5
1FD
100
AcDbSymbolTableRecord
100
AcDbLayerTableRecord
  2
00_COMPONENTS
 70
0
 62
7
  6
CONTINUOUS
370
-3
390
F
  0
LAYER
  5
1FE
100
AcDbSymbolTableRecord
100
AcDbLayerTableRecord
  2
01_1_DEFAULT_DATUMS
 70
0
 62
7
  6
CONTINUOUS
370
-3
390
F
  0
LAYER
  5
1FF
100
AcDbSymbolTableRecord
100
AcDbLayerTableRecord
  2
01_PLANES
 70
0
 62
7
  6
CONTINUOUS
370
-3
390
F
  0
LAYER
  5
200
100
AcDbSymbolTableRecord
100
AcDbLayerTableRecord
  2
02_COORD_SYS
 70
0
 62
7
  6
CONTINUOUS
370
-3
390
F
  0
LAYER
  5
201
100
AcDbSymbolTableRecord
100
AcDbLayerTableRecord
  2
03_AXES
 70
0
 62
7
  6
CONTINUOUS
370
-3
390
F
  0
LAYER
  5
202
100
AcDbSymbolTableRecord
100
AcDbLayerTableRecord
  2
04_POINTS
 70
0
 62
7
  6
CONTINUOUS
370
-3
390
F
  0
LAYER
  5
203
100
AcDbSymbolTableRecord
100
AcDbLayerTableRecord
  2
05_CURVES
 70
0
 62
7
  6
CONTINUOUS
370
-3
390
F
  0
LAYER
  5
204
100
AcDbSymbolTableRecord
100
AcDbLayerTableRecord
  2
06_SURFS
 70
0
 62
7
  6
CONTINUOUS
370
-3
390
F
  0
LAYER
  5
205
100
AcDbSymbolTableRecord
100
AcDbLayerTableRecord
  2
07_COSMETICS
 70
0
 62
7
  6
CONTINUOUS
370
-3
390
F
  0
LAYER
  5
206
100
AcDbSymbolTableRecord
100
AcDbLayerTableRecord
  2
10_NOTES
 70
0
 62
7
  6
CONTINUOUS
370
-3
390
F
  0
LAYER
  5
207
100
AcDbSymbolTableRecord
100
AcDbLayerTableRecord
  2
11_NOTES_PUB
 70
0
 62
7
  6
CONTINUOUS
370
-3
390
F
  0
LAYER
  5
208
100
AcDbSymbolTableRecord
100
AcDbLayerTableRecord
  2
13_REF_GTOL
 70
0
 62
7
  6
CONTINUOUS
370
-3
390
F
  0
LAYER
  5
209
100
AcDbSymbolTableRecord
100
AcDbLayerTableRecord
  2
16_MISC
 70
0
 62
7
  6
CONTINUOUS
370
-3
390
F
  0
LAYER
  5
20A
100
AcDbSymbolTableRecord
100
AcDbLayerTableRecord
  2
17_NO_PRINT
 70
0
 62
7
  6
CONTINUOUS
370
-3
390
F
  0
LAYER
  5
20B
100
AcDbSymbolTableRecord
100
AcDbLayerTableRecord
  2
18_DATUM_CAMS_JOINTS
 70
0
 62
7
  6
CONTINUOUS
370
-3
390
F
  0
LAYER
  5
20C
100
AcDbSymbolTableRecord
100
AcDbLayerTableRecord
  2
19_DATUM_FUNCTIONAL
 70
0
 62
7
  6
CONTINUOUS
370
-3
390
F
  0
LAYER
  5
20D
100
AcDbSymbolTableRecord
100
AcDbLayerTableRecord
  2
20_DATUM_KINEMATIC_SCHEME
 70
0
 62
7
  6
CONTINUOUS
370
-3
390
F
  0
ENDTAB
  0
TABLE
  2
STYLE
  5
3
100
AcDbSymbolTable
 70
1
  0
STYLE
  5
11
100
AcDbSymbolTableRecord
100
AcDbTextStyleTableRecord
  2
STANDARD
 70
0
 40
0.0
 41
1.0
 50
0.0
 71
0
 42
0.2
  3
ARIAL.TTF
  4

  0
STYLE
  5
20E
100
AcDbSymbolTableRecord
100
AcDbTextStyleTableRecord
  2
TEXTSTYLE_1
 70
0
 40
0.0
 41
0.8
 50
0.0
 71
0
 42
0.2
  3
gdt
  4

  0
ENDTAB
  0
TABLE
  2
VIEW
  5
6
100
AcDbSymbolTable
 70
0
  0
ENDTAB
  0
TABLE
  2
UCS
  5
7
100
AcDbSymbolTable
 70
0
  0
ENDTAB
  0
TABLE
  2
APPID
  5
9
100
AcDbSymbolTable
 70
1
  0
APPID
  5
20F
100
AcDbSymbolTableRecord
100
AcDbRegAppTableRecord
  2
ACAD
 70
0
  0
ENDTAB
  0
TABLE
  2
BLOCK_RECORD
  5
1
100
AcDbSymbolTable
 70
0
  0
BLOCK_RECORD
  5
210
100
AcDbSymbolTableRecord
100
AcDbBlockTableRecord
  2
*Model_Space
  0
BLOCK_RECORD
  5
211
100
AcDbSymbolTableRecord
100
AcDbBlockTableRecord
  2
*Paper_Space
  0
BLOCK_RECORD
  5
212
100
AcDbSymbolTableRecord
100
AcDbBlockTableRecord
  2
_FILLED
  0
ENDTAB
  0
TABLE
  2
DIMSTYLE
  5
A
100
AcDbSymbolTable
 70
1
100
AcDbDimStyleTable
 71
0
  0
DIMSTYLE
105
213
100
AcDbSymbolTableRecord
100
AcDbDimStyleTableRecord
  2
STANDARD
 70
0
  3

  4

 40
1.0
 41
1.8045680959
 42
1.0
 43
0.38
 44
1.0
 45
0.0
 46
0.0
 47
0.01
 48
0.01
140
2.5263953342
141
0.09
142
0.0
143
25.4
144
1.0
145
0.0
146
1.0
147
0.625
 71
1
 72
0
 73
0
 74
0
 75
0
 76
0
 77
1
 78
8
 79
2
170
0
171
1
172
0
173
0
174
0
175
0
176
0
177
0
178
0
270
2
179
2
271
2
272
2
273
2
274
2
275
0
280
0
281
0
282
0
283
1
284
8
285
0
286
0
287
3
288
0
340
11
278
46
341
212
342
212
343
212
344
212
  0
ENDTAB
  0
ENDSEC
  0
SECTION
  2
BLOCKS
  0
BLOCK
  5
20
100
AcDbEntity
  8
0
100
AcDbBlockBegin
  2
*Model_Space
 70
0
 10
0.0
 20
0.0
 30
0.0
  3
*Model_Space
  1

  0
ENDBLK
  5
21
100
AcDbEntity
  8
0
100
AcDbBlockEnd
  0
BLOCK
  5
1C
100
AcDbEntity
  8
0
100
AcDbBlockBegin
  2
*Paper_Space
 70
0
 10
0.0
 20
0.0
 30
0.0
  3
*Paper_Space
  1

  0
ENDBLK
  5
1D
100
AcDbEntity
  8
0
100
AcDbBlockEnd
  0
BLOCK
  5
214
100
AcDbEntity
  8
0
100
AcDbBlockBegin
  2
_FILLED
 70
64
 10
0.0
 20
0.0
  3
_FILLED
  1

  0
SOLID
  5
215
100
AcDbEntity
  8
0
  6
BYBLOCK
 62
0
100
AcDbTrace
 10
0.0
 20
0.0
 11
-1.0
 21
0.25
 12
-1.0
 22
-0.25
 13
-1.0
 23
-0.25
  0
ENDBLK
  5
216
100
AcDbEntity
  8
0
  6
BYBLOCK
 62
0
100
AcDbBlockEnd
  0
ENDSEC
  0
SECTION
  2
ENTITIES
  0
LINE
  5
217
100
AcDbEntity
  8
0
100
AcDbLine
 62
7
  6
BYLAYER
 10
55.8506193959
 20
47.7848222366
 11
53.0366090664
 21
48.7228032515
  0
LINE
  5
218
100
AcDbEntity
  8
0
100
AcDbLine
 62
7
  6
BYLAYER
 10
17.5458446422
 20
120.6656032681
 11
17.5458446422
 21
122.7395194076
  0
LINE
  5
219
100
AcDbEntity
  8
0
100
AcDbLine
 62
7
  6
BYLAYER
 10
19.4057352723
 20
118.073252891
 11
19.4057352723
 21
120.1471690306
  0
LINE
  5
21A
100
AcDbEntity
  8
0
100
AcDbLine
 62
7
  6
BYLAYER
 10
31.4014676492
 20
87.5557196451
 11
31.4014676492
 21
111.1476702517
  0
LINE
  5
21B
100
AcDbEntity
  8
0
100
AcDbLine
 62
7
  6
BYLAYER
 10
37.1615770126
 20
66.1735994491
 11
37.1615770126
 21
63.0627252398
  0
LINE
  5
21C
100
AcDbEntity
  8
0
100
AcDbLine
 62
7
  6
BYLAYER
 10
94.1211177234
 20
168.4685584644
 11
19.4056978998
 21
125.331848208
  0
LINE
  5
21D
100
AcDbEntity
  8
0
100
AcDbLine
 62
7
  6
BYLAYER
 10
38.4315770126
 20
66.1735994491
 11
38.4315770159
 21
81.0669676693
  0
LINE
  5
21E
100
AcDbEntity
  8
0
100
AcDbLine
 62
7
  6
BYLAYER
 10
39.7015770126
 20
59.0937325221
 11
39.7015770126
 21
50.6192284027
  0
LINE
  5
21F
100
AcDbEntity
  8
0
100
AcDbLine
 62
7
  6
BYLAYER
 10
77.7822192855
 20
66.1611689555
 11
64.7618614511
 21
71.424722164
  0
LINE
  5
220
100
AcDbEntity
  8
0
100
AcDbLine
 62
7
  6
BYLAYER
 10
77.7679275993
 20
70.2971487196
 11
70.0876668718
 21
73.4019375056
  0
LINE
  5
221
100
AcDbEntity
  8
0
100
AcDbLine
 62
7
  6
BYLAYER
 10
48.2613529043
 20
80.6279677756
 11
48.2613529043
 21
101.4138311701
  0
LINE
  5
222
100
AcDbEntity
  8
0
100
AcDbLine
 62
7
  6
BYLAYER
 10
50.8367625551
 20
102.0008674921
 11
50.8367625551
 21
99.9269513526
  0
LINE
  5
223
100
AcDbEntity
  8
0
100
AcDbLine
 62
7
  6
BYLAYER
 10
53.0366090664
 20
46.1743026324
 11
53.0366090664
 21
56.9938486279
  0
LINE
  5
224
100
AcDbEntity
  8
0
100
AcDbLine
 62
7
  6
BYLAYER
 10
54.0867576162
 20
67.4615696624
 11
54.0867576162
 21
81.793921887
  0
LINE
  5
225
100
AcDbEntity
  8
0
100
AcDbLine
 62
7
  6
BYLAYER
 10
56.2905613585
 20
58.2487230073
 11
56.2905613585
 21
48.0529616501
  0
LINE
  5
226
100
AcDbEntity
  8
0
100
AcDbLine
 62
7
  6
BYLAYER
 10
57.4815770126
 20
59.0961956842
 11
57.4815770126
 21
50.6192284027
  0
LINE
  5
227
100
AcDbEntity
  8
0
100
AcDbLine
 62
7
  6
BYLAYER
 10
58.7515770126
 20
69.1933926916
 11
58.7515770126
 21
66.1735994491
  0
LINE
  5
228
100
AcDbEntity
  8
0
100
AcDbLine
 62
7
  6
BYLAYER
 10
59.8170186761
 20
99.9269729385
 11
59.8170186761
 21
102.000889078
  0
LINE
  5
229
100
AcDbEntity
  8
0
100
AcDbLine
 62
7
  6
BYLAYER
 10
60.0215770126
 20
66.1735994491
 11
60.0215770126
 21
63.0627252398
  0
LINE
  5
22A
100
AcDbEntity
  8
0
100
AcDbLine
 62
7
  6
BYLAYER
 10
82.1580529741
 20
87.4123885608
 11
48.2613529299
 21
80.6279677808
  0
LINE
  5
22B
100
AcDbEntity
  8
0
100
AcDbLine
 62
7
  6
BYLAYER
 10
50.8367625392
 20
99.9269513618
 11
19.4057352882
 21
118.0732528819
  0
LINE
  5
22C
100
AcDbEntity
  8
0
100
AcDbLine
 62
7
  6
BYLAYER
 10
19.4057352882
 20
120.1471690214
 11
50.8367625392
 21
102.0008675013
  0
LINE
  5
22D
100
AcDbEntity
  8
0
100
AcDbLine
 62
7
  6
BYLAYER
 10
76.6743342366
 20
89.6996411327
 11
72.449935427
 21
92.1385437472
  0
LINE
  5
22E
100
AcDbEntity
  8
0
100
AcDbLine
 62
7
  6
BYLAYER
 10
75.6222036455
 20
92.0251947605
 11
70.8873649415
 21
94.7587933185
  0
LINE
  5
22F
100
AcDbEntity
  8
0
100
AcDbLine
 62
7
  6
BYLAYER
 10
70.0876668718
 20
73.4019375056
 11
70.0876668718
 21
84.996502112
  0
LINE
  5
230
100
AcDbEntity
  8
0
100
AcDbLine
 62
7
  6
BYLAYER
 10
70.8873649415
 20
106.3184021832
 11
70.8873649415
 21
94.7587933185
  0
LINE
  5
231
100
AcDbEntity
  8
0
100
AcDbLine
 62
7
  6
BYLAYER
 10
75.6222036455
 20
109.0313071044
 11
75.6222036455
 21
92.0251947788
  0
LINE
  5
232
100
AcDbEntity
  8
0
100
AcDbLine
 62
7
  6
BYLAYER
 10
59.8170186919
 20
102.0008890872
 11
134.5324385156
 21
145.1375993435
  0
LINE
  5
233
100
AcDbEntity
  8
0
100
AcDbLine
 62
7
  6
BYLAYER
 10
134.5324385156
 20
143.063683204
 11
59.8170186919
 21
99.9269729477
  0
LINE
  5
234
100
AcDbEntity
  8
0
100
AcDbLine
 62
7
  6
BYLAYER
 10
129.3239116665
 20
140.0358176144
 11
122.858154179
 21
136.3028330714
  0
LINE
  5
235
100
AcDbEntity
  8
0
100
AcDbLine
 62
7
  6
BYLAYER
 10
85.5004442514
 20
114.734477934
 11
75.6222036455
 21
109.0313071044
  0
LINE
  5
236
100
AcDbEntity
  8
0
100
AcDbLine
 62
7
  6
BYLAYER
 10
75.6222036455
 20
109.0313071044
 11
75.6042427481
 21
109.0416765988
  0
LINE
  5
237
100
AcDbEntity
  8
0
100
AcDbLine
 62
7
  6
BYLAYER
 10
77.7679275993
 20
86.5337054506
 11
77.7679275993
 21
70.2971487196
  0
LINE
  5
238
100
AcDbEntity
  8
0
100
AcDbLine
 62
7
  6
BYLAYER
 10
77.7822192855
 20
70.3090012345
 11
77.7822192855
 21
66.1611689555
  0
LINE
  5
239
100
AcDbEntity
  8
0
100
AcDbLine
 62
7
  6
BYLAYER
 10
82.1580529741
 20
91.6508143263
 11
82.1580529741
 21
87.4123885608
  0
LINE
  5
23A
100
AcDbEntity
  8
0
100
AcDbLine
 62
7
  6
BYLAYER
 10
85.5004442514
 20
93.580533311
 11
85.5004442514
 21
114.734477934
  0
LINE
  5
23B
100
AcDbEntity
  8
0
100
AcDbLine
 62
7
  6
BYLAYER
 10
85.8820254127
 20
66.5703169202
 11
85.8820254127
 21
70.7181491992
  0
LINE
  5
23C
100
AcDbEntity
  8
0
100
AcDbLine
 62
7
  6
BYLAYER
 10
85.9002630684
 20
70.7079398488
 11
85.9002630684
 21
114.9860512192
  0
LINE
  5
23D
100
AcDbEntity
  8
0
100
AcDbLine
 62
7
  6
BYLAYER
 10
85.5004442514
 20
114.734477934
 11
85.482483354
 21
114.7448474284
  0
LINE
  5
23E
100
AcDbEntity
  8
0
100
AcDbLine
 62
7
  6
BYLAYER
 10
79.2142911544
 20
89.9512427923
 11
85.5004442514
 21
93.580533311
  0
LINE
  5
23F
100
AcDbEntity
  8
0
100
AcDbLine
 62
7
  6
BYLAYER
 10
122.858154179
 20
103.1201748392
 11
122.768351244
 21
103.172021415
  0
LINE
  5
240
100
AcDbEntity
  8
0
100
AcDbLine
 62
7
  6
BYLAYER
 10
122.858154179
 20
103.1201748392
 11
125.7318241576
 21
104.7792790714
  0
LINE
  5
241
100
AcDbEntity
  8
0
100
AcDbLine
 62
7
  6
BYLAYER
 10
70.0876668718
 20
73.4019375056
 11
54.0867576162
 21
67.4615696624
  0
LINE
  5
242
100
AcDbEntity
  8
0
100
AcDbLine
 62
7
  6
BYLAYER
 10
53.0366090664
 20
46.1743026324
 11
52.7826072348
 21
46.0135151628
  0
LINE
  5
243
100
AcDbEntity
  8
0
100
AcDbLine
 62
7
  6
BYLAYER
 10
55.8506193959
 20
47.7848222366
 11
56.2905613585
 21
48.0529616501
  0
LINE
  5
244
100
AcDbEntity
  8
0
100
AcDbLine
 62
7
  6
BYLAYER
 10
124.7439993651
 20
93.134247589
 11
85.9002630684
 21
70.7079398488
  0
LINE
  5
245
100
AcDbEntity
  8
0
100
AcDbLine
 62
7
  6
BYLAYER
 10
124.7260387781
 20
88.9967846251
 11
85.8820254127
 21
66.5703169202
  0
LINE
  5
246
100
AcDbEntity
  8
0
100
AcDbLine
 62
7
  6
BYLAYER
 10
122.768351244
 20
136.2717247935
 11
122.768351244
 21
103.172021415
  0
LINE
  5
247
100
AcDbEntity
  8
0
100
AcDbLine
 62
7
  6
BYLAYER
 10
122.858154179
 20
136.3028330714
 11
122.858154179
 21
103.1201748392
  0
LINE
  5
248
100
AcDbEntity
  8
0
100
AcDbLine
 62
7
  6
BYLAYER
 10
124.7260387781
 20
93.1446169042
 11
124.7260387781
 21
88.9967846251
  0
LINE
  5
249
100
AcDbEntity
  8
0
100
AcDbLine
 62
7
  6
BYLAYER
 10
124.7439993651
 20
104.2089615659
 11
124.7439993651
 21
93.134247589
  0
LINE
  5
24A
100
AcDbEntity
  8
0
100
AcDbLine
 62
7
  6
BYLAYER
 10
126.5784526104
 20
91.5787441012
 11
126.5784526104
 21
95.4657525854
  0
LINE
  5
24B
100
AcDbEntity
  8
0
100
AcDbLine
 62
7
  6
BYLAYER
 10
126.6038526104
 20
95.7265763802
 11
126.6038526104
 21
105.4261232899
  0
LINE
  5
24C
100
AcDbEntity
  8
0
100
AcDbLine
 62
7
  6
BYLAYER
 10
122.858154179
 20
136.3028330714
 11
122.8401932817
 21
136.3132025657
  0
LINE
  5
24D
100
AcDbEntity
  8
0
100
AcDbLine
 62
7
  6
BYLAYER
 10
129.3239116665
 20
111.0009916796
 11
129.3239116665
 21
140.0358176144
  0
LINE
  5
24E
100
AcDbEntity
  8
0
100
AcDbLine
 62
7
  6
BYLAYER
 10
134.5324385314
 20
145.1375993527
 11
134.5324385314
 21
143.0636832132
  0
LINE
  5
24F
100
AcDbEntity
  8
0
100
AcDbLine
 62
7
  6
BYLAYER
 10
129.3239116665
 20
140.0358176144
 11
129.3059507691
 21
140.0461871087
  0
LINE
  5
250
100
AcDbEntity
  8
0
100
AcDbLine
 62
7
  6
BYLAYER
 10
136.3922917732
 20
145.6560120044
 11
136.3922917732
 21
147.7299281439
  0
LINE
  5
251
100
AcDbEntity
  8
0
100
AcDbLine
 62
7
  6
BYLAYER
 10
134.5324011272
 20
150.3222785301
 11
103.1013738761
 21
168.4685800502
  0
ARC
  5
252
100
AcDbEntity
  8
0
100
AcDbCircle
 62
7
  6
BYLAYER
 10
41.1260531342
 20
119.3805497002
 40
12.0100940579
100
AcDbArc
 50
240.001337552
 51
240.5277610607
  0
ARC
  5
253
100
AcDbEntity
  8
0
100
AcDbCircle
 62
7
  6
BYLAYER
 10
49.2880076814
 20
57.4227697951
 40
11.8566447975
100
AcDbArc
 50
287.1675053838
 51
288.4308793962
  0
ARC
  5
254
100
AcDbEntity
  8
0
100
AcDbCircle
 62
7
  6
BYLAYER
 10
41.0307631075
 20
119.2154349418
 40
11.8194554686
100
AcDbArc
 50
239.4691437434
 51
240.0011952996
  0
ARC
  5
255
100
AcDbEntity
  8
0
100
AcDbCircle
 62
7
  6
BYLAYER
 10
46.7616530528
 20
54.7223139921
 40
8.9245258357
100
AcDbArc
 50
240.0437156707
 51
243.5948039449
  0
ARC
  5
256
100
AcDbEntity
  8
0
100
AcDbCircle
 62
7
  6
BYLAYER
 10
54.0289564633
 20
64.9798346034
 40
6.331265732
100
AcDbArc
 50
40.2990876407
 51
41.6438764515
  0
ARC
  5
257
100
AcDbEntity
  8
0
100
AcDbCircle
 62
7
  6
BYLAYER
 10
126.5409499841
 20
122.1616954045
 40
1.80092848
100
AcDbArc
 50
110.123149775
 51
112.3692621884
  0
ARC
  5
258
100
AcDbEntity
  8
0
100
AcDbCircle
 62
7
  6
BYLAYER
 10
79.3049994505
 20
94.8901694376
 40
1.8009284799
100
AcDbArc
 50
110.123149775
 51
112.3692621885
  0
SPLINE
  5
259
100
AcDbEntity
  8
0
100
AcDbSpline
 62
7
  6
BYLAYER
 70
0
 71
3
 72
11
 73
7
 74
0
 42
0.0000001
 43
0.0000001
 44
0.0000000001
 40
0.0
 40
0.0
 40
0.0
 40
0.0
 40
0.2324799321
 40
0.4726114989
 40
0.7270386813
 40
1.0
 40
1.0
 40
1.0
 40
1.0
 10
57.4815186853
 20
50.6192284037
 30
0.0
 10
57.4815077629
 20
50.3944951744
 30
0.0
 10
57.4287221754
 20
49.9360573119
 30
0.0
 10
57.1946625349
 20
49.2679816498
 30
0.0
 10
56.8122506822
 20
48.6271696275
 30
0.0
 10
56.477143017
 20
48.2395424352
 30
0.0
 10
56.2905613585
 20
48.0529616501
 30
0.0
  0
SPLINE
  5
25A
100
AcDbEntity
  8
0
100
AcDbSpline
 62
7
  6
BYLAYER
 70
0
 71
3
 72
12
 73
8
 74
0
 42
0.0000001
 43
0.0000001
 44
0.0000000001
 40
0.0
 40
0.0
 40
0.0
 40
0.0
 40
0.1081603296
 40
0.2183666174
 40
0.4513448629
 40
0.7104422948
 40
1.0
 40
1.0
 40
1.0
 40
1.0
 10
126.5784061197
 20
91.5787441012
 30
0.0
 10
126.5784061212
 20
91.4590149492
 30
0.0
 10
126.5576442976
 20
91.21678205
 30
0.0
 10
126.4316952654
 20
90.7312368007
 30
0.0
 10
126.108833804
 20
90.1357231335
 30
0.0
 10
125.5071523349
 20
89.5039079599
 30
0.0
 10
125.0036252584
 20
89.1570482976
 30
0.0
 10
124.7260387781
 20
88.9967846251
 30
0.0
  0
SPLINE
  5
25B
100
AcDbEntity
  8
0
100
AcDbSpline
 62
7
  6
BYLAYER
 70
0
 71
3
 72
12
 73
8
 74
0
 42
0.0000001
 43
0.0000001
 44
0.0000000001
 40
0.0
 40
0.0
 40
0.0
 40
0.0
 40
0.2513785217
 40
0.5137285092
 40
0.7686976517
 40
0.8882023264
 40
1.0
 40
1.0
 40
1.0
 40
1.0
 10
52.7826072348
 20
46.0135151628
 30
0.0
 10
51.9554853931
 20
45.7378091728
 30
0.0
 10
50.1965707003
 20
45.3699838913
 30
0.0
 10
47.5179929489
 20
45.3213863881
 30
0.0
 10
45.3234953391
 20
45.6911506081
 30
0.0
 10
43.7249727987
 20
46.2380979065
 30
0.0
 10
43.0003109988
 20
46.5887597323
 30
0.0
 10
42.6645188185
 20
46.7826520849
 30
0.0
  0
SPLINE
  5
25C
100
AcDbEntity
  8
0
100
AcDbSpline
 62
7
  6
BYLAYER
 70
0
 71
3
 72
21
 73
17
 74
0
 42
0.0000001
 43
0.0000001
 44
0.0000000001
 40
0.0
 40
0.0
 40
0.0
 40
0.0
 40
0.0624004545
 40
0.1287843809
 40
0.1984010433
 40
0.2704107273
 40
0.4174490432
 40
0.5616836471
 40
0.6303112032
 40
0.6954267721
 40
0.7564008789
 40
0.8128630543
 40
0.8647856448
 40
0.9125806103
 40
0.9571743475
 40
1.0
 40
1.0
 40
1.0
 40
1.0
 10
56.6738411711
 20
58.3965334156
 30
0.0
 10
56.263249215
 20
58.1594794543
 30
0.0
 10
55.3831322007
 20
57.7256167223
 30
0.0
 10
53.963568301
 20
57.2111367362
 30
0.0
 10
52.4292866671
 20
56.8216996546
 30
0.0
 10
50.2606449434
 20
56.4779273587
 30
0.0
 10
47.4877209468
 20
56.4017906756
 30
0.0
 10
44.764652411
 20
56.7836549346
 30
0.0
 10
42.7322552676
 20
57.369177781
 30
0.0
 10
41.3572825996
 20
57.9231664924
 30
0.0
 10
40.1357672872
 20
58.5875156927
 30
0.0
 10
39.0932170539
 20
59.3492803348
 30
0.0
 10
38.2519037289
 20
60.1941690431
 30
0.0
 10
37.6311839229
 20
61.1072029063
 30
0.0
 10
37.248623664
 20
62.0703157858
 30
0.0
 10
37.1615925973
 20
62.737341841
 30
0.0
 10
37.1615907633
 20
63.0627252408
 30
0.0
  0
SPLINE
  5
25D
100
AcDbEntity
  8
0
100
AcDbSpline
 62
7
  6
BYLAYER
 70
0
 71
3
 72
15
 73
11
 74
0
 42
0.0000001
 43
0.0000001
 44
0.0000000001
 40
0.0
 40
0.0
 40
0.0
 40
0.0
 40
0.1068071032
 40
0.2254336318
 40
0.3535011246
 40
0.4874905562
 40
0.6232809861
 40
0.7565389451
 40
0.8832669692
 40
1.0
 40
1.0
 40
1.0
 40
1.0
 10
133.8070383786
 20
146.7256011681
 30
0.0
 10
133.6635901111
 20
146.8456948036
 30
0.0
 10
133.3298763973
 20
147.0629098916
 30
0.0
 10
132.7566688354
 20
147.303401605
 30
0.0
 10
132.1080444148
 20
147.4674958927
 30
0.0
 10
131.4138881362
 20
147.5475990417
 30
0.0
 10
130.7061428526
 20
147.5400716079
 30
0.0
 10
130.0173801212
 20
147.4453749854
 30
0.0
 10
129.3797811417
 20
147.2677118234
 30
0.0
 10
128.9890624764
 20
147.0907055113
 30
0.0
 10
128.8119870794
 20
146.9884715934
 30
0.0
  0
SPLINE
  5
25E
100
AcDbEntity
  8
0
100
AcDbSpline
 62
7
  6
BYLAYER
 70
0
 71
3
 72
11
 73
7
 74
0
 42
0.0000001
 43
0.0000001
 44
0.0000000001
 40
0.0
 40
0.0
 40
0.0
 40
0.0
 40
0.2177827477
 40
0.4509152641
 40
0.7103063952
 40
1.0
 40
1.0
 40
1.0
 40
1.0
 10
134.3838075044
 20
147.7299307714
 30
0.0
 10
134.3837905185
 20
147.6056148305
 30
0.0
 10
134.3378767664
 20
147.3464980875
 30
0.0
 10
134.1414302056
 20
146.9854635482
 30
0.0
 10
133.8308946094
 20
146.6591152952
 30
0.0
 10
133.5710680077
 20
146.4801556113
 30
0.0
 10
133.4278579432
 20
146.3974737355
 30
0.0
  0
SPLINE
  5
25F
100
AcDbEntity
  8
0
100
AcDbSpline
 62
7
  6
BYLAYER
 70
0
 71
3
 72
15
 73
11
 74
0
 42
0.0000001
 43
0.0000001
 44
0.0000000001
 40
0.0
 40
0.0
 40
0.0
 40
0.0
 40
0.1068071032
 40
0.2254336318
 40
0.3535011246
 40
0.4874905562
 40
0.6232809861
 40
0.7565389451
 40
0.8832669692
 40
1.0
 40
1.0
 40
1.0
 40
1.0
 10
58.0139922753
 20
102.966726803
 30
0.0
 10
57.8705440078
 20
103.0868204384
 30
0.0
 10
57.536830294
 20
103.3040355264
 30
0.0
 10
56.9636227321
 20
103.5445272398
 30
0.0
 10
56.3149983116
 20
103.7086215275
 30
0.0
 10
55.620842033
 20
103.7887246765
 30
0.0
 10
54.9130967493
 20
103.7811972428
 30
0.0
 10
54.2243340179
 20
103.6865006202
 30
0.0
 10
53.5867350384
 20
103.5088374583
 30
0.0
 10
53.1960163732
 20
103.3318311461
 30
0.0
 10
53.0189409761
 20
103.2295972282
 30
0.0
  0
SPLINE
  5
260
100
AcDbEntity
  8
0
100
AcDbSpline
 62
7
  6
BYLAYER
 70
0
 71
3
 72
11
 73
7
 74
0
 42
0.0000001
 43
0.0000001
 44
0.0000000001
 40
0.0
 40
0.0
 40
0.0
 40
0.0
 40
0.2177827477
 40
0.4509152641
 40
0.7103063952
 40
1.0
 40
1.0
 40
1.0
 40
1.0
 10
58.5907614011
 20
103.9710564063
 30
0.0
 10
58.5907444152
 20
103.8467404653
 30
0.0
 10
58.5448306631
 20
103.5876237224
 30
0.0
 10
58.3483841023
 20
103.226589183
 30
0.0
 10
58.0378485062
 20
102.90024093
 30
0.0
 10
57.7780219045
 20
102.7212812461
 30
0.0
 10
57.6348118399
 20
102.6385993703
 30
0.0
  0
SPLINE
  5
261
100
AcDbEntity
  8
0
100
AcDbSpline
 62
7
  6
BYLAYER
 70
0
 71
3
 72
10
 73
6
 74
0
 42
0.0000001
 43
0.0000001
 44
0.0000000001
 40
0.0
 40
0.0
 40
0.0
 40
0.0
 40
0.5209229387
 40
0.7634358253
 40
1.0
 40
1.0
 40
1.0
 40
1.0
 10
38.3248414927
 20
69.0740739411
 30
0.0
 10
37.9675742438
 20
68.6525602689
 30
0.0
 10
37.5205923508
 20
67.9544274089
 30
0.0
 10
37.2126099944
 20
66.9341525062
 30
0.0
 10
37.1615835504
 20
66.4245271599
 30
0.0
 10
37.1615890321
 20
66.1735994555
 30
0.0
  0
SPLINE
  5
262
100
AcDbEntity
  8
0
100
AcDbSpline
 62
7
  6
BYLAYER
 70
0
 71
3
 72
15
 73
11
 74
0
 42
0.0000001
 43
0.0000001
 44
0.0000000001
 40
0.0
 40
0.0
 40
0.0
 40
0.0
 40
0.1068071032
 40
0.2254336318
 40
0.3535011246
 40
0.4874905562
 40
0.6232809861
 40
0.7565389451
 40
0.8832669692
 40
1.0
 40
1.0
 40
1.0
 40
1.0
 10
101.2983758747
 20
165.4940616165
 30
0.0
 10
101.1549276072
 20
165.6141552519
 30
0.0
 10
100.8212138934
 20
165.8313703399
 30
0.0
 10
100.2480063315
 20
166.0718620533
 30
0.0
 10
99.5993819109
 20
166.235956341
 30
0.0
 10
98.9052256323
 20
166.31605949
 30
0.0
 10
98.1974803487
 20
166.3085320563
 30
0.0
 10
97.5087176173
 20
166.2138354337
 30
0.0
 10
96.8711186378
 20
166.0361722718
 30
0.0
 10
96.4803999725
 20
165.8591659596
 30
0.0
 10
96.3033245755
 20
165.7569320417
 30
0.0
  0
SPLINE
  5
263
100
AcDbEntity
  8
0
100
AcDbSpline
 62
7
  6
BYLAYER
 70
0
 71
3
 72
11
 73
7
 74
0
 42
0.0000001
 43
0.0000001
 44
0.0000000001
 40
0.0
 40
0.0
 40
0.0
 40
0.0
 40
0.2177827477
 40
0.4509152641
 40
0.7103063952
 40
1.0
 40
1.0
 40
1.0
 40
1.0
 10
101.8751450005
 20
166.4983912198
 30
0.0
 10
101.8751280146
 20
166.3740752788
 30
0.0
 10
101.8292142625
 20
166.1149585359
 30
0.0
 10
101.6327677017
 20
165.7539239965
 30
0.0
 10
101.3222321055
 20
165.4275757435
 30
0.0
 10
101.0624055038
 20
165.2486160596
 30
0.0
 10
100.9191954393
 20
165.1659341838
 30
0.0
  0
SPLINE
  5
264
100
AcDbEntity
  8
0
100
AcDbSpline
 62
7
  6
BYLAYER
 70
0
 71
3
 72
13
 73
9
 74
0
 42
0.0000001
 43
0.0000001
 44
0.0000000001
 40
0.0
 40
0.0
 40
0.0
 40
0.0
 40
0.1123912524
 40
0.2329926595
 40
0.490163225
 40
0.7526088248
 40
0.879466554
 40
1.0
 40
1.0
 40
1.0
 40
1.0
 10
85.9002630684
 20
70.7079398488
 30
0.0
 10
85.6283403593
 20
70.5509461366
 30
0.0
 10
85.0386912455
 20
70.269275578
 30
0.0
 10
83.735369947
 20
69.8402698778
 30
0.0
 10
81.9520137672
 20
69.5761283681
 30
0.0
 10
80.1353459076
 20
69.6639584191
 30
0.0
 10
78.7385472736
 20
69.9541591251
 30
0.0
 10
78.0801186916
 20
70.1709437069
 30
0.0
 10
77.7679275993
 20
70.2971487196
 30
0.0
  0
SPLINE
  5
265
100
AcDbEntity
  8
0
100
AcDbSpline
 62
7
  6
BYLAYER
 70
0
 71
3
 72
15
 73
11
 74
0
 42
0.0000001
 43
0.0000001
 44
0.0000000001
 40
0.0
 40
0.0
 40
0.0
 40
0.0
 40
0.1068071032
 40
0.2254336318
 40
0.3535011246
 40
0.4874905562
 40
0.6232809861
 40
0.7565389451
 40
0.8832669692
 40
1.0
 40
1.0
 40
1.0
 40
1.0
 10
25.5053297714
 20
121.7351872513
 30
0.0
 10
25.3618815039
 20
121.8552808867
 30
0.0
 10
25.0281677901
 20
122.0724959747
 30
0.0
 10
24.4549602282
 20
122.3129876881
 30
0.0
 10
23.8063358077
 20
122.4770819758
 30
0.0
 10
23.112179529
 20
122.5571851248
 30
0.0
 10
22.4044342454
 20
122.5496576911
 30
0.0
 10
21.715671514
 20
122.4549610685
 30
0.0
 10
21.0780725345
 20
122.2772979066
 30
0.0
 10
20.6873538692
 20
122.1002915944
 30
0.0
 10
20.5102784722
 20
121.9980576765
 30
0.0
  0
SPLINE
  5
266
100
AcDbEntity
  8
0
100
AcDbSpline
 62
7
  6
BYLAYER
 70
0
 71
3
 72
11
 73
7
 74
0
 42
0.0000001
 43
0.0000001
 44
0.0000000001
 40
0.0
 40
0.0
 40
0.0
 40
0.0
 40
0.2177827477
 40
0.4509152641
 40
0.7103063952
 40
1.0
 40
1.0
 40
1.0
 40
1.0
 10
26.0820988972
 20
122.7395168546
 30
0.0
 10
26.0820819113
 20
122.6152009136
 30
0.0
 10
26.0361681592
 20
122.3560841707
 30
0.0
 10
25.8397215984
 20
121.9950496313
 30
0.0
 10
25.5291860022
 20
121.6687013783
 30
0.0
 10
25.2693594005
 20
121.4897416944
 30
0.0
 10
25.126149336
 20
121.4070598187
 30
0.0
  0
SPLINE
  5
267
100
AcDbEntity
  8
0
100
AcDbSpline
 62
7
  6
BYLAYER
 70
0
 71
3
 72
12
 73
8
 74
0
 42
0.0000001
 43
0.0000001
 44
0.0000000001
 40
0.0
 40
0.0
 40
0.0
 40
0.0
 40
0.108160086
 40
0.2183661673
 40
0.4513442183
 40
0.7104418196
 40
1.0
 40
1.0
 40
1.0
 40
1.0
 10
136.3922450957
 20
147.7299281439
 30
0.0
 10
136.3922450941
 20
147.8501394158
 30
0.0
 10
136.3713994383
 20
148.0933477833
 30
0.0
 10
136.2449418356
 20
148.5808483142
 30
0.0
 10
135.9207766318
 20
149.1787596213
 30
0.0
 10
135.3166664959
 20
149.8131168888
 30
0.0
 10
134.8111076257
 20
150.1613708983
 30
0.0
 10
134.5324011272
 20
150.3222785301
 30
0.0
  0
SPLINE
  5
268
100
AcDbEntity
  8
0
100
AcDbSpline
 62
7
  6
BYLAYER
 70
0
 71
3
 72
12
 73
8
 74
0
 42
0.0000001
 43
0.0000001
 44
0.0000000001
 40
0.0
 40
0.0
 40
0.0
 40
0.0
 40
0.1081603295
 40
0.2183666173
 40
0.4513448628
 40
0.7104422949
 40
1.0
 40
1.0
 40
1.0
 40
1.0
 10
136.3922450957
 20
145.6560120044
 30
0.0
 10
136.3922450972
 20
145.535802012
 30
0.0
 10
136.3713998926
 20
145.2925962888
 30
0.0
 10
136.24494504
 20
144.8051010566
 30
0.0
 10
135.9207869434
 20
144.207195766
 30
0.0
 10
135.3166890785
 20
143.5728431806
 30
0.0
 10
134.8111398022
 20
143.2245905065
 30
0.0
 10
134.5324385156
 20
143.063683204
 30
0.0
  0
SPLINE
  5
269
100
AcDbEntity
  8
0
100
AcDbSpline
 62
7
  6
BYLAYER
 70
0
 71
3
 72
12
 73
8
 74
0
 42
0.0000001
 43
0.0000001
 44
0.0000000001
 40
0.0
 40
0.0
 40
0.0
 40
0.0
 40
0.2895899306
 40
0.5486369884
 40
0.7816432075
 40
0.8918466031
 40
1.0
 40
1.0
 40
1.0
 40
1.0
 10
35.1212489155
 20
82.3710188916
 30
0.0
 10
34.5637716638
 20
82.6928712517
 30
0.0
 10
33.552582521
 20
83.3892699482
 30
0.0
 10
32.3445973082
 20
84.6581672795
 30
0.0
 10
31.6959045563
 20
85.8537981787
 30
0.0
 10
31.4433687086
 20
86.8289385954
 30
0.0
 10
31.4014736638
 20
87.3153105747
 30
0.0
 10
31.4014776821
 20
87.5557196012
 30
0.0
  0
SPLINE
  5
26A
100
AcDbEntity
  8
0
100
AcDbSpline
 62
7
  6
BYLAYER
 70
0
 71
3
 72
12
 73
8
 74
0
 42
0.0000001
 43
0.0000001
 44
0.0000000001
 40
0.0
 40
0.0
 40
0.0
 40
0.0
 40
0.2589546177
 40
0.5205046486
 40
0.7712727199
 40
0.8890312644
 40
1.0
 40
1.0
 40
1.0
 40
1.0
 10
48.2613529299
 20
80.6279677808
 30
0.0
 10
47.1181415953
 20
80.3991541582
 30
0.0
 10
44.776076189
 20
80.1406466558
 30
0.0
 10
41.2947951028
 20
80.3095893205
 30
0.0
 10
38.5049298899
 20
80.9087653138
 30
0.0
 10
36.4784570927
 20
81.6615758051
 30
0.0
 10
35.5539278781
 20
82.1212172273
 30
0.0
 10
35.1212489155
 20
82.3710188916
 30
0.0
  0
SPLINE
  5
26B
100
AcDbEntity
  8
0
100
AcDbSpline
 62
7
  6
BYLAYER
 70
0
 71
3
 72
9
 73
5
 74
0
 42
0.0000001
 43
0.0000001
 44
0.0000000001
 40
0.0
 40
0.0
 40
0.0
 40
0.0
 40
0.4741272639
 40
1.0
 40
1.0
 40
1.0
 40
1.0
 10
124.3612726257
 20
119.51724124
 30
0.0
 10
124.2563560187
 20
119.5778725429
 30
0.0
 10
124.0628579564
 20
119.7580352895
 30
0.0
 10
123.955584723
 20
119.9961677475
 30
0.0
 10
123.9172351616
 20
120.124981407
 30
0.0
  0
SPLINE
  5
26C
100
AcDbEntity
  8
0
100
AcDbSpline
 62
7
  6
BYLAYER
 70
0
 71
3
 72
9
 73
5
 74
0
 42
0.0000001
 43
0.0000001
 44
0.0000000001
 40
0.0
 40
0.0
 40
0.0
 40
0.0
 40
0.2444745709
 40
1.0
 40
1.0
 40
1.0
 40
1.0
 10
123.9172351616
 20
120.124981407
 30
0.0
 10
123.9129531827
 20
120.139364293
 30
0.0
 10
123.8963515917
 20
120.1984660766
 30
0.0
 10
123.8833174124
 20
120.2585547007
 30
0.0
 10
123.8752809734
 20
120.3042300521
 30
0.0
  0
SPLINE
  5
26D
100
AcDbEntity
  8
0
100
AcDbSpline
 62
7
  6
BYLAYER
 70
0
 71
3
 72
9
 73
5
 74
0
 42
0.0000001
 43
0.0000001
 44
0.0000000001
 40
0.0
 40
0.0
 40
0.0
 40
0.0
 40
0.2561711486
 40
1.0
 40
1.0
 40
1.0
 40
1.0
 10
125.9213601744
 20
123.8526867876
 30
0.0
 10
125.937514618
 20
123.8586022731
 30
0.0
 10
126.0009108848
 20
123.8807612906
 30
0.0
 10
126.0656617927
 20
123.8991021978
 30
0.0
 10
126.1143622098
 20
123.9102169328
 30
0.0
  0
SPLINE
  5
26E
100
AcDbEntity
  8
0
100
AcDbSpline
 62
7
  6
BYLAYER
 70
0
 71
3
 72
9
 73
5
 74
0
 42
0.0000001
 43
0.0000001
 44
0.0000000001
 40
0.0
 40
0.0
 40
0.0
 40
0.0
 40
0.5251516195
 40
1.0
 40
1.0
 40
1.0
 40
1.0
 10
126.1143622098
 20
123.9102169328
 30
0.0
 10
126.2428671936
 20
123.9395451998
 30
0.0
 10
126.4981423067
 20
123.9628885871
 30
0.0
 10
126.7459340935
 20
123.8860605466
 30
0.0
 10
126.8491254622
 20
123.8264262589
 30
0.0
  0
SPLINE
  5
26F
100
AcDbEntity
  8
0
100
AcDbSpline
 62
7
  6
BYLAYER
 70
0
 71
3
 72
9
 73
5
 74
0
 42
0.0000001
 43
0.0000001
 44
0.0000000001
 40
0.0
 40
0.0
 40
0.0
 40
0.0
 40
0.4741272639
 40
1.0
 40
1.0
 40
1.0
 40
1.0
 10
77.1253220921
 20
92.2457152731
 30
0.0
 10
77.0204054852
 20
92.3063465759
 30
0.0
 10
76.8269074229
 20
92.4865093225
 30
0.0
 10
76.7196341895
 20
92.7246417806
 30
0.0
 10
76.6812846281
 20
92.85345544
 30
0.0
  0
SPLINE
  5
270
100
AcDbEntity
  8
0
100
AcDbSpline
 62
7
  6
BYLAYER
 70
0
 71
3
 72
9
 73
5
 74
0
 42
0.0000001
 43
0.0000001
 44
0.0000000001
 40
0.0
 40
0.0
 40
0.0
 40
0.0
 40
0.2444745709
 40
1.0
 40
1.0
 40
1.0
 40
1.0
 10
76.6812846281
 20
92.85345544
 30
0.0
 10
76.6770026492
 20
92.8678383261
 30
0.0
 10
76.6604010581
 20
92.9269401097
 30
0.0
 10
76.6473668788
 20
92.9870287338
 30
0.0
 10
76.6393304398
 20
93.0327040852
 30
0.0
  0
SPLINE
  5
271
100
AcDbEntity
  8
0
100
AcDbSpline
 62
7
  6
BYLAYER
 70
0
 71
3
 72
9
 73
5
 74
0
 42
0.0000001
 43
0.0000001
 44
0.0000000001
 40
0.0
 40
0.0
 40
0.0
 40
0.0
 40
0.2561711486
 40
1.0
 40
1.0
 40
1.0
 40
1.0
 10
78.6854096408
 20
96.5811608206
 30
0.0
 10
78.7015640845
 20
96.5870763062
 30
0.0
 10
78.7649603513
 20
96.6092353237
 30
0.0
 10
78.8297112591
 20
96.6275762309
 30
0.0
 10
78.8784116762
 20
96.6386909659
 30
0.0
  0
SPLINE
  5
272
100
AcDbEntity
  8
0
100
AcDbSpline
 62
7
  6
BYLAYER
 70
0
 71
3
 72
9
 73
5
 74
0
 42
0.0000001
 43
0.0000001
 44
0.0000000001
 40
0.0
 40
0.0
 40
0.0
 40
0.0
 40
0.5251516195
 40
1.0
 40
1.0
 40
1.0
 40
1.0
 10
78.8784116762
 20
96.6386909659
 30
0.0
 10
79.00691666
 20
96.6680192329
 30
0.0
 10
79.2621917732
 20
96.6913626202
 30
0.0
 10
79.50998356
 20
96.6145345796
 30
0.0
 10
79.6131749286
 20
96.5549002919
 30
0.0
  0
SPLINE
  5
273
100
AcDbEntity
  8
0
100
AcDbSpline
 62
7
  6
BYLAYER
 70
0
 71
3
 72
11
 73
7
 74
0
 42
0.0000001
 43
0.0000001
 44
0.0000000001
 40
0.0
 40
0.0
 40
0.0
 40
0.0
 40
0.2177745346
 40
0.4509306044
 40
0.7102242968
 40
1.0
 40
1.0
 40
1.0
 40
1.0
 10
76.6743529073
 20
89.699673472
 30
0.0
 10
76.8419134734
 20
89.6029345137
 30
0.0
 10
77.2269271931
 20
89.4631559415
 30
0.0
 10
77.8663629475
 20
89.4470339792
 30
0.0
 10
78.5479541244
 20
89.6114842023
 30
0.0
 10
78.9913322123
 20
89.8225181555
 30
0.0
 10
79.2142911544
 20
89.9512427923
 30
0.0
  0
SPLINE
  5
274
100
AcDbEntity
  8
0
100
AcDbSpline
 62
7
  6
BYLAYER
 70
0
 71
3
 72
12
 73
8
 74
0
 42
0.0000001
 43
0.0000001
 44
0.0000000001
 40
0.0
 40
0.0
 40
0.0
 40
0.0
 40
0.1081603296
 40
0.2183666174
 40
0.4513448629
 40
0.7104422948
 40
1.0
 40
1.0
 40
1.0
 40
1.0
 10
126.603805933
 20
95.7265763802
 30
0.0
 10
126.6038059345
 20
95.6063663883
 30
0.0
 10
126.5829607301
 20
95.3631606661
 30
0.0
 10
126.4565058784
 20
94.8756654359
 30
0.0
 10
126.1323477847
 20
94.2777601476
 30
0.0
 10
125.5282499242
 20
93.6434075636
 30
0.0
 10
125.0227006506
 20
93.2951548907
 30
0.0
 10
124.7439993651
 20
93.134247589
 30
0.0
  0
SPLINE
  5
275
100
AcDbEntity
  8
0
100
AcDbSpline
 62
7
  6
BYLAYER
 70
0
 71
3
 72
12
 73
8
 74
0
 42
0.0000001
 43
0.0000001
 44
0.0000000001
 40
0.0
 40
0.0
 40
0.0
 40
0.0
 40
0.1081589231
 40
0.2183578496
 40
0.4513603077
 40
0.7104174692
 40
1.0
 40
1.0
 40
1.0
 40
1.0
 10
60.0215632619
 20
63.0627252388
 30
0.0
 10
60.0215644814
 20
62.8463485749
 30
0.0
 10
59.9838711853
 20
62.4086162974
 30
0.0
 10
59.7566038273
 20
61.5310020207
 30
0.0
 10
59.1727945826
 20
60.4549361817
 30
0.0
 10
58.0856019302
 20
59.3129614572
 30
0.0
 10
57.1755499557
 20
58.6861933884
 30
0.0
 10
56.6738411711
 20
58.3965334156
 30
0.0
  0
SPLINE
  5
276
100
AcDbEntity
  8
0
100
AcDbSpline
 62
7
  6
BYLAYER
 70
0
 71
3
 72
10
 73
6
 74
0
 42
0.0000001
 43
0.0000001
 44
0.0000000001
 40
0.0
 40
0.0
 40
0.0
 40
0.0
 40
0.2365560975
 40
0.4790585926
 40
1.0
 40
1.0
 40
1.0
 40
1.0
 10
60.0215649931
 20
66.1735994426
 30
0.0
 10
60.02155951
 20
66.4245906445
 30
0.0
 10
59.9704909647
 20
66.9343388787
 30
0.0
 10
59.6623932172
 20
67.9549008707
 30
0.0
 10
59.2151436425
 20
68.6531768566
 30
0.0
 10
58.8576775308
 20
69.0747556798
 30
0.0
  0
SPLINE
  5
277
100
AcDbEntity
  8
0
100
AcDbSpline
 62
7
  6
BYLAYER
 70
0
 71
3
 72
12
 73
8
 74
0
 42
0.0000001
 43
0.0000001
 44
0.0000000001
 40
0.0
 40
0.0
 40
0.0
 40
0.0
 40
0.2895798774
 40
0.5486331397
 40
0.7816360031
 40
0.8918382323
 40
1.0
 40
1.0
 40
1.0
 40
1.0
 10
42.305288422
 20
46.9900455236
 30
0.0
 10
41.915096869
 20
47.2153500056
 30
0.0
 10
41.2072986798
 20
47.7028015873
 30
0.0
 10
40.3617409462
 20
48.5909858503
 30
0.0
 10
39.9076875034
 20
49.4279030219
 30
0.0
 10
39.7308973327
 20
50.1104743234
 30
0.0
 10
39.70157145
 20
50.4509355094
 30
0.0
 10
39.701589226
 20
50.6192284023
 30
0.0
  0
SPLINE
  5
278
100
AcDbEntity
  8
0
100
AcDbSpline
 62
7
  6
BYLAYER
 70
0
 71
3
 72
12
 73
8
 74
0
 42
0.0000001
 43
0.0000001
 44
0.0000000001
 40
0.0
 40
0.0
 40
0.0
 40
0.0
 40
0.1142967575
 40
0.2377084711
 40
0.5003151005
 40
0.7629271526
 40
1.0
 40
1.0
 40
1.0
 40
1.0
 10
76.6100277061
 20
92.8236426188
 30
0.0
 10
76.6100277061
 20
93.0010631414
 30
0.0
 10
76.6425857999
 20
93.3704330994
 30
0.0
 10
76.8189621192
 20
94.1285812917
 30
0.0
 10
77.2295156059
 20
95.0592541305
 30
0.0
 10
77.9331508546
 20
96.0203437967
 30
0.0
 10
78.5363422053
 20
96.5281757736
 30
0.0
 10
78.8550435934
 20
96.7121754568
 30
0.0
  0
SPLINE
  5
279
100
AcDbEntity
  8
0
100
AcDbSpline
 62
7
  6
BYLAYER
 70
0
 71
3
 72
15
 73
11
 74
0
 42
0.0000001
 43
0.0000001
 44
0.0000000001
 40
0.0
 40
0.0
 40
0.0
 40
0.0
 40
0.1141462769
 40
0.2373347432
 40
0.3669750848
 40
0.4999983967
 40
0.6330219316
 40
0.7626629245
 40
0.8858524171
 40
1.0
 40
1.0
 40
1.0
 40
1.0
 10
125.7318241576
 20
104.7792790714
 30
0.0
 10
125.9777136413
 20
104.9212425837
 30
0.0
 10
126.4634224839
 20
105.2617602096
 30
0.0
 10
127.1317714427
 20
105.8869809799
 30
0.0
 10
127.7476141789
 20
106.626144609
 30
0.0
 10
128.2879003541
 20
107.451318856
 30
0.0
 10
128.7323755351
 20
108.3318111503
 30
0.0
 10
129.0645865225
 20
109.2347342
 30
0.0
 10
129.2718685312
 20
110.1261594625
 30
0.0
 10
129.3239116664
 20
110.7170601355
 30
0.0
 10
129.3239116665
 20
111.0009916796
 30
0.0
  0
SPLINE
  5
27A
100
AcDbEntity
  8
0
100
AcDbSpline
 62
7
  6
BYLAYER
 70
0
 71
3
 72
12
 73
8
 74
0
 42
0.0000001
 43
0.0000001
 44
0.0000000001
 40
0.0
 40
0.0
 40
0.0
 40
0.0
 40
0.1142967575
 40
0.2377084711
 40
0.5003151005
 40
0.7629271526
 40
1.0
 40
1.0
 40
1.0
 40
1.0
 10
123.8459782396
 20
120.0951685857
 30
0.0
 10
123.8459782396
 20
120.2725891084
 30
0.0
 10
123.8785363335
 20
120.6419590664
 30
0.0
 10
124.0549126527
 20
121.4001072586
 30
0.0
 10
124.4654661395
 20
122.3307800974
 30
0.0
 10
125.1691013882
 20
123.2918697636
 30
0.0
 10
125.7722927388
 20
123.7997017405
 30
0.0
 10
126.090994127
 20
123.9837014237
 30
0.0
  0
SPLINE
  5
27B
100
AcDbEntity
  8
0
100
AcDbSpline
 62
7
  6
BYLAYER
 70
0
 71
3
 72
13
 73
9
 74
0
 42
0.0000001
 43
0.0000001
 44
0.0000000001
 40
0.0
 40
0.0
 40
0.0
 40
0.0
 40
0.1123912524
 40
0.2329926595
 40
0.490163225
 40
0.7526088248
 40
0.879466554
 40
1.0
 40
1.0
 40
1.0
 40
1.0
 10
85.8820254127
 20
66.5703169202
 30
0.0
 10
85.6111903944
 20
66.4139511829
 30
0.0
 10
85.0238998771
 20
66.1334073065
 30
0.0
 10
83.7257918637
 20
65.7061176291
 30
0.0
 10
81.9495691087
 20
65.4430326854
 30
0.0
 10
80.1401679206
 20
65.5305114162
 30
0.0
 10
78.7489564811
 20
65.8195513194
 30
0.0
 10
78.0931616134
 20
66.0354687629
 30
0.0
 10
77.7822192855
 20
66.1611689555
 30
0.0
  0
SPLINE
  5
27C
100
AcDbEntity
  8
0
100
AcDbSpline
 62
7
  6
BYLAYER
 70
0
 71
3
 72
17
 73
13
 74
0
 42
0.0000001
 43
0.0000001
 44
0.0000000001
 40
0.0
 40
0.0
 40
0.0
 40
0.0
 40
0.1286926208
 40
0.2702795078
 40
0.4174383051
 40
0.5617803148
 40
0.6954501289
 40
0.8127134773
 40
0.8646759206
 40
0.9125113962
 40
0.9571388332
 40
1.0
 40
1.0
 40
1.0
 40
1.0
 10
133.4278579432
 20
146.3974737355
 30
0.0
 10
133.1862452046
 20
146.2579793885
 30
0.0
 10
132.6392105741
 20
146.0322637189
 30
0.0
 10
131.7476395421
 20
145.8539206092
 30
0.0
 10
130.8046587022
 20
145.8278042199
 30
0.0
 10
129.8872082004
 20
145.9567358612
 30
0.0
 10
129.069683947
 20
146.2298052721
 30
0.0
 10
128.5010773868
 20
146.5758921751
 30
0.0
 10
128.1674140167
 20
146.9107938696
 30
0.0
 10
127.9901111477
 20
147.1715042785
 30
0.0
 10
127.8809450142
 20
147.4465498891
 30
0.0
 10
127.8560248224
 20
147.6370129034
 30
0.0
 10
127.8560375182
 20
147.7299306969
 30
0.0
  0
SPLINE
  5
27D
100
AcDbEntity
  8
0
100
AcDbSpline
 62
7
  6
BYLAYER
 70
0
 71
3
 72
17
 73
13
 74
0
 42
0.0000001
 43
0.0000001
 44
0.0000000001
 40
0.0
 40
0.0
 40
0.0
 40
0.0
 40
0.1286926208
 40
0.2702795078
 40
0.4174383051
 40
0.5617803148
 40
0.6954501289
 40
0.8127134773
 40
0.8646759206
 40
0.9125113962
 40
0.9571388332
 40
1.0
 40
1.0
 40
1.0
 40
1.0
 10
57.6348118399
 20
102.6385993703
 30
0.0
 10
57.3931991014
 20
102.4991050234
 30
0.0
 10
56.8461644708
 20
102.2733893537
 30
0.0
 10
55.9545934388
 20
102.095046244
 30
0.0
 10
55.0116125989
 20
102.0689298547
 30
0.0
 10
54.0941620971
 20
102.197861496
 30
0.0
 10
53.2766378437
 20
102.470930907
 30
0.0
 10
52.7080312836
 20
102.81701781
 30
0.0
 10
52.3743679135
 20
103.1519195045
 30
0.0
 10
52.1970650444
 20
103.4126299133
 30
0.0
 10
52.0878989109
 20
103.687675524
 30
0.0
 10
52.0629787191
 20
103.8781385382
 30
0.0
 10
52.0629914149
 20
103.9710563318
 30
0.0
  0
SPLINE
  5
27E
100
AcDbEntity
  8
0
100
AcDbSpline
 62
7
  6
BYLAYER
 70
0
 71
3
 72
17
 73
13
 74
0
 42
0.0000001
 43
0.0000001
 44
0.0000000001
 40
0.0
 40
0.0
 40
0.0
 40
0.0
 40
0.1286926208
 40
0.2702795078
 40
0.4174383051
 40
0.5617803148
 40
0.6954501289
 40
0.8127134773
 40
0.8646759206
 40
0.9125113962
 40
0.9571388332
 40
1.0
 40
1.0
 40
1.0
 40
1.0
 10
100.9191954393
 20
165.1659341838
 30
0.0
 10
100.6775827007
 20
165.0264398369
 30
0.0
 10
100.1305480702
 20
164.8007241672
 30
0.0
 10
99.2389770382
 20
164.6223810575
 30
0.0
 10
98.2959961983
 20
164.5962646682
 30
0.0
 10
97.3785456965
 20
164.7251963095
 30
0.0
 10
96.5610214431
 20
164.9982657205
 30
0.0
 10
95.9924148829
 20
165.3443526234
 30
0.0
 10
95.6587515128
 20
165.679254318
 30
0.0
 10
95.4814486438
 20
165.9399647268
 30
0.0
 10
95.3722825103
 20
166.2150103374
 30
0.0
 10
95.3473623185
 20
166.4054733517
 30
0.0
 10
95.3473750143
 20
166.4983911453
 30
0.0
  0
SPLINE
  5
27F
100
AcDbEntity
  8
0
100
AcDbSpline
 62
7
  6
BYLAYER
 70
0
 71
3
 72
17
 73
13
 74
0
 42
0.0000001
 43
0.0000001
 44
0.0000000001
 40
0.0
 40
0.0
 40
0.0
 40
0.0
 40
0.1286926208
 40
0.2702795078
 40
0.4174383051
 40
0.5617803148
 40
0.6954501289
 40
0.8127134773
 40
0.8646759206
 40
0.9125113962
 40
0.9571388332
 40
1.0
 40
1.0
 40
1.0
 40
1.0
 10
25.126149336
 20
121.4070598187
 30
0.0
 10
24.8845365975
 20
121.2675654717
 30
0.0
 10
24.3375019669
 20
121.041849802
 30
0.0
 10
23.4459309349
 20
120.8635066923
 30
0.0
 10
22.502950095
 20
120.837390303
 30
0.0
 10
21.5854995932
 20
120.9663219443
 30
0.0
 10
20.7679753398
 20
121.2393913553
 30
0.0
 10
20.1993687797
 20
121.5854782583
 30
0.0
 10
19.8657054096
 20
121.9203799528
 30
0.0
 10
19.6884025405
 20
122.1810903616
 30
0.0
 10
19.579236407
 20
122.4561359723
 30
0.0
 10
19.5543162152
 20
122.6465989865
 30
0.0
 10
19.554328911
 20
122.7395167801
 30
0.0
  0
SPLINE
  5
280
100
AcDbEntity
  8
0
100
AcDbSpline
 62
7
  6
BYLAYER
 70
0
 71
3
 72
15
 73
11
 74
0
 42
0.0000001
 43
0.0000001
 44
0.0000000001
 40
0.0
 40
0.0
 40
0.0
 40
0.0
 40
0.1141469224
 40
0.2373360365
 40
0.366976904
 40
0.5000005214
 40
0.6330240662
 40
0.7626647219
 40
0.8858535023
 40
1.0
 40
1.0
 40
1.0
 40
1.0
 10
103.1013738761
 20
168.4685800502
 30
0.0
 10
102.7940093857
 20
168.6460330069
 30
0.0
 10
102.1218143901
 20
168.958999175
 30
0.0
 10
101.0272689039
 20
169.2917393492
 30
0.0
 10
99.8421954628
 20
169.4964279046
 30
0.0
 10
98.6112382275
 20
169.5655698697
 30
0.0
 10
97.3802819763
 20
169.4964220622
 30
0.0
 10
96.1952114423
 20
169.2917278799
 30
0.0
 10
95.1006706683
 20
168.9589825027
 30
0.0
 10
94.4284797907
 20
168.6460129772
 30
0.0
 10
94.1211177234
 20
168.4685584644
 30
0.0
  0
SPLINE
  5
281
100
AcDbEntity
  8
0
100
AcDbSpline
 62
7
  6
BYLAYER
 70
0
 71
3
 72
12
 73
8
 74
0
 42
0.0000001
 43
0.0000001
 44
0.0000000001
 40
0.0
 40
0.0
 40
0.0
 40
0.0
 40
0.2895577051
 40
0.5486551372
 40
0.7816333827
 40
0.8918396705
 40
1.0
 40
1.0
 40
1.0
 40
1.0
 10
19.4056978998
 20
125.331848208
 30
0.0
 10
19.1269966131
 20
125.1709409055
 30
0.0
 10
18.6214473369
 20
124.8226882314
 30
0.0
 10
18.0173494719
 20
124.188335646
 30
0.0
 10
17.6931913754
 20
123.5904303554
 30
0.0
 10
17.5667365227
 20
123.1029351232
 30
0.0
 10
17.5458913182
 20
122.8597294001
 30
0.0
 10
17.5458913197
 20
122.7395194077
 30
0.0
  0
SPLINE
  5
282
100
AcDbEntity
  8
0
100
AcDbSpline
 62
7
  6
BYLAYER
 70
0
 71
3
 72
9
 73
5
 74
0
 42
0.0000001
 43
0.0000001
 44
0.0000000001
 40
0.0
 40
0.0
 40
0.0
 40
0.0
 40
0.2588451597
 40
1.0
 40
1.0
 40
1.0
 40
1.0
 10
128.8119870794
 20
146.9884715934
 30
0.0
 10
128.7775501319
 20
146.9685895311
 30
0.0
 10
128.6460425296
 20
146.8891845663
 30
0.0
 10
128.5207997171
 20
146.7991683097
 30
0.0
 10
128.4334636605
 20
146.726120511
 30
0.0
  0
SPLINE
  5
283
100
AcDbEntity
  8
0
100
AcDbSpline
 62
7
  6
BYLAYER
 70
0
 71
3
 72
9
 73
5
 74
0
 42
0.0000001
 43
0.0000001
 44
0.0000000001
 40
0.0
 40
0.0
 40
0.0
 40
0.0
 40
0.2588451597
 40
1.0
 40
1.0
 40
1.0
 40
1.0
 10
53.0189409761
 20
103.2295972282
 30
0.0
 10
52.9845040286
 20
103.209715166
 30
0.0
 10
52.8529964263
 20
103.1303102012
 30
0.0
 10
52.7277536138
 20
103.0402939446
 30
0.0
 10
52.6404175572
 20
102.9672461458
 30
0.0
  0
SPLINE
  5
284
100
AcDbEntity
  8
0
100
AcDbSpline
 62
7
  6
BYLAYER
 70
0
 71
3
 72
9
 73
5
 74
0
 42
0.0000001
 43
0.0000001
 44
0.0000000001
 40
0.0
 40
0.0
 40
0.0
 40
0.0
 40
0.2588451597
 40
1.0
 40
1.0
 40
1.0
 40
1.0
 10
96.3033245755
 20
165.7569320417
 30
0.0
 10
96.268887628
 20
165.7370499795
 30
0.0
 10
96.1373800257
 20
165.6576450147
 30
0.0
 10
96.0121372132
 20
165.567628758
 30
0.0
 10
95.9248011566
 20
165.4945809593
 30
0.0
  0
SPLINE
  5
285
100
AcDbEntity
  8
0
100
AcDbSpline
 62
7
  6
BYLAYER
 70
0
 71
3
 72
9
 73
5
 74
0
 42
0.0000001
 43
0.0000001
 44
0.0000000001
 40
0.0
 40
0.0
 40
0.0
 40
0.0
 40
0.2588451597
 40
1.0
 40
1.0
 40
1.0
 40
1.0
 10
20.5102784722
 20
121.9980576765
 30
0.0
 10
20.4758415247
 20
121.9781756143
 30
0.0
 10
20.3443339224
 20
121.8987706495
 30
0.0
 10
20.2190911099
 20
121.8087543929
 30
0.0
 10
20.1317550533
 20
121.7357065941
 30
0.0
  0
SPLINE
  5
286
100
AcDbEntity
  8
0
100
AcDbSpline
 62
7
  6
BYLAYER
 70
0
 71
3
 72
15
 73
11
 74
0
 42
0.0000001
 43
0.0000001
 44
0.0000000001
 40
0.0
 40
0.0
 40
0.0
 40
0.0
 40
0.1141464977
 40
0.2373352781
 40
0.3669759338
 40
0.4999994786
 40
0.633023096
 40
0.7626639635
 40
0.8858530776
 40
1.0
 40
1.0
 40
1.0
 40
1.0
 10
59.8170186919
 20
99.9269729477
 30
0.0
 10
59.5096566247
 20
99.7495184348
 30
0.0
 10
58.837465747
 20
99.4365489094
 30
0.0
 10
57.7429249731
 20
99.1038035321
 30
0.0
 10
56.5578544391
 20
98.8991093498
 30
0.0
 10
55.3268981879
 20
98.8299615423
 30
0.0
 10
54.0959409526
 20
98.8991035074
 30
0.0
 10
52.9108675115
 20
99.1037920629
 30
0.0
 10
51.8163220253
 20
99.436532237
 30
0.0
 10
51.1441270297
 20
99.7494984051
 30
0.0
 10
50.8367625392
 20
99.9269513618
 30
0.0
  0
SPLINE
  5
287
100
AcDbEntity
  8
0
100
AcDbSpline
 62
7
  6
BYLAYER
 70
0
 71
3
 72
12
 73
8
 74
0
 42
0.0000001
 43
0.0000001
 44
0.0000000001
 40
0.0
 40
0.0
 40
0.0
 40
0.0
 40
0.2895581804
 40
0.5486557817
 40
0.7816338327
 40
0.891839914
 40
1.0
 40
1.0
 40
1.0
 40
1.0
 10
19.4057352882
 20
118.0732528819
 30
0.0
 10
19.1270287896
 20
118.2341605138
 30
0.0
 10
18.6214699195
 20
118.5824145232
 30
0.0
 10
18.0173597836
 20
119.2167717907
 30
0.0
 10
17.6931945798
 20
119.8146830978
 30
0.0
 10
17.5667369771
 20
120.3021836287
 30
0.0
 10
17.5458913213
 20
120.5453919962
 30
0.0
 10
17.5458913197
 20
120.6656032681
 30
0.0
  0
SPLINE
  5
288
100
AcDbEntity
  8
0
100
AcDbSpline
 62
7
  6
BYLAYER
 70
0
 71
3
 72
20
 73
16
 74
0
 42
0.0000001
 43
0.0000001
 44
0.0000000001
 40
0.0
 40
0.0
 40
0.0
 40
0.0
 40
0.0624053688
 40
0.1288058097
 40
0.2703020598
 40
0.4173624938
 40
0.5616185148
 40
0.6302561018
 40
0.6953826154
 40
0.7563651815
 40
0.8128344414
 40
0.8647656584
 40
0.9125684541
 40
0.9571684558
 40
1.0
 40
1.0
 40
1.0
 40
1.0
 10
55.7758118201
 20
62.0258733831
 30
0.0
 10
55.4108675986
 20
61.8151739963
 30
0.0
 10
54.6284868513
 20
61.4294914532
 30
0.0
 10
52.9098300686
 20
60.806817147
 30
0.0
 10
50.544555538
 20
60.3335810181
 30
0.0
 10
47.6108863502
 20
60.252693075
 30
0.0
 10
45.1898047159
 20
60.5922496166
 30
0.0
 10
43.3832991964
 20
61.1126938961
 30
0.0
 10
42.1610628906
 20
61.6050710692
 30
0.0
 10
41.0752999831
 20
62.1956436993
 30
0.0
 10
40.1486347752
 20
62.8728087099
 30
0.0
 10
39.400754238
 20
63.6237645048
 30
0.0
 10
38.8489581843
 20
64.4353441275
 30
0.0
 10
38.5090185288
 20
65.291476789
 30
0.0
 10
38.4315887604
 20
65.8843736765
 30
0.0
 10
38.4316175775
 20
66.1735994477
 30
0.0
  0
SPLINE
  5
289
100
AcDbEntity
  8
0
100
AcDbSpline
 62
7
  6
BYLAYER
 70
0
 71
3
 72
11
 73
7
 74
0
 42
0.0000001
 43
0.0000001
 44
0.0000000001
 40
0.0
 40
0.0
 40
0.0
 40
0.0
 40
0.289777178
 40
0.5490714025
 40
0.7822268831
 40
1.0
 40
1.0
 40
1.0
 40
1.0
 10
75.6222036455
 20
92.0251947788
 30
0.0
 10
75.6222036456
 20
91.7677328429
 30
0.0
 10
75.6611325439
 20
91.2782178639
 30
0.0
 10
75.8595181765
 20
90.6056894363
 30
0.0
 10
76.1932130913
 20
90.0599633667
 30
0.0
 10
76.5067867938
 20
89.7964156329
 30
0.0
 10
76.6743529073
 20
89.699673472
 30
0.0
  0
SPLINE
  5
28A
100
AcDbEntity
  8
0
100
AcDbSpline
 62
7
  6
BYLAYER
 70
0
 71
3
 72
19
 73
15
 74
0
 42
0.0000001
 43
0.0000001
 44
0.0000000001
 40
0.0
 40
0.0
 40
0.0
 40
0.0
 40
0.1363149004
 40
0.287119037
 40
0.4407422329
 40
0.584734674
 40
0.6500205494
 40
0.7096949794
 40
0.7636672631
 40
0.8126422287
 40
0.858254544
 40
0.9029637347
 40
0.9494693882
 40
1.0
 40
1.0
 40
1.0
 40
1.0
 10
81.1001370724
 20
95.4159929959
 30
0.0
 10
81.1001370724
 20
95.0868258944
 30
0.0
 10
80.9890771837
 20
94.3928537597
 30
0.0
 10
80.5912025836
 20
93.3985807585
 30
0.0
 10
79.9958324982
 20
92.4859129387
 30
0.0
 10
79.3703807321
 20
91.8594929939
 30
0.0
 10
78.8280148518
 20
91.4985755264
 30
0.0
 10
78.4338371982
 20
91.316585403
 30
0.0
 10
78.050195124
 20
91.2205279775
 30
0.0
 10
77.6876074741
 20
91.2152396196
 30
0.0
 10
77.3581250965
 20
91.3046808531
 30
0.0
 10
77.0767422277
 20
91.4880079028
 30
0.0
 10
76.8560875894
 20
91.7555944061
 30
0.0
 10
76.7583242394
 20
91.9713913873
 30
0.0
 10
76.7195352995
 20
92.0870809174
 30
0.0
  0
SPLINE
  5
28B
100
AcDbEntity
  8
0
100
AcDbSpline
 62
7
  6
BYLAYER
 70
0
 71
3
 72
9
 73
5
 74
0
 42
0.0000001
 43
0.0000001
 44
0.0000000001
 40
0.0
 40
0.0
 40
0.0
 40
0.0
 40
0.234170239
 40
1.0
 40
1.0
 40
1.0
 40
1.0
 10
76.7195352995
 20
92.0870809174
 30
0.0
 10
76.7010108126
 20
92.1423309243
 30
0.0
 10
76.6336048994
 20
92.3821841313
 30
0.0
 10
76.6100277061
 20
92.6330673817
 30
0.0
 10
76.6100277061
 20
92.8236426188
 30
0.0
  0
SPLINE
  5
28C
100
AcDbEntity
  8
0
100
AcDbSpline
 62
7
  6
BYLAYER
 70
0
 71
3
 72
9
 73
5
 74
0
 42
0.0000001
 43
0.0000001
 44
0.0000000001
 40
0.0
 40
0.0
 40
0.0
 40
0.0
 40
0.2667315975
 40
1.0
 40
1.0
 40
1.0
 40
1.0
 10
78.8550435934
 20
96.7121754568
 30
0.0
 10
78.9121571072
 20
96.7451494846
 30
0.0
 10
79.1301711708
 20
96.8615619331
 30
0.0
 10
79.3655103448
 20
96.9481951496
 30
0.0
 10
79.5431021089
 20
96.9846706149
 30
0.0
  0
SPLINE
  5
28D
100
AcDbEntity
  8
0
100
AcDbSpline
 62
7
  6
BYLAYER
 70
0
 71
3
 72
15
 73
11
 74
0
 42
0.0000001
 43
0.0000001
 44
0.0000000001
 40
0.0
 40
0.0
 40
0.0
 40
0.0
 40
0.1265830078
 40
0.2437570426
 40
0.3556470738
 40
0.467488172
 40
0.584492064
 40
0.7108419202
 40
0.8491668047
 40
1.0
 40
1.0
 40
1.0
 40
1.0
 10
79.5431021089
 20
96.9846706149
 30
0.0
 10
79.6502660933
 20
97.006680961
 30
0.0
 10
79.8614103544
 20
97.0303515831
 30
0.0
 10
80.1696651375
 20
96.9937875439
 30
0.0
 10
80.4466218151
 20
96.8828285065
 30
0.0
 10
80.6821287899
 20
96.6999268783
 30
0.0
 10
80.8690903951
 20
96.4525002678
 30
0.0
 10
81.0036167661
 20
96.1486130861
 30
0.0
 10
81.0837944465
 20
95.7967612986
 30
0.0
 10
81.1001370724
 20
95.5463525124
 30
0.0
 10
81.1001370724
 20
95.4159929959
 30
0.0
  0
SPLINE
  5
28E
100
AcDbEntity
  8
0
100
AcDbSpline
 62
7
  6
BYLAYER
 70
0
 71
3
 72
11
 73
7
 74
0
 42
0.0000001
 43
0.0000001
 44
0.0000000001
 40
0.0
 40
0.0
 40
0.0
 40
0.0
 40
0.2177827477
 40
0.4509152641
 40
0.7103063952
 40
1.0
 40
1.0
 40
1.0
 40
1.0
 10
127.8560375182
 20
147.7299306969
 30
0.0
 10
127.8560545041
 20
147.8542466379
 30
0.0
 10
127.9019682562
 20
148.1133633809
 30
0.0
 10
128.0984148169
 20
148.4743979202
 30
0.0
 10
128.4089504131
 20
148.8007461732
 30
0.0
 10
128.6687770148
 20
148.9797058571
 30
0.0
 10
128.8119870794
 20
149.0623877329
 30
0.0
  0
SPLINE
  5
28F
100
AcDbEntity
  8
0
100
AcDbSpline
 62
7
  6
BYLAYER
 70
0
 71
3
 72
17
 73
13
 74
0
 42
0.0000001
 43
0.0000001
 44
0.0000000001
 40
0.0
 40
0.0
 40
0.0
 40
0.0
 40
0.1286839723
 40
0.2702731138
 40
0.4174311221
 40
0.5617769804
 40
0.6954476236
 40
0.8127121074
 40
0.864676385
 40
0.9125098108
 40
0.9571396749
 40
1.0
 40
1.0
 40
1.0
 40
1.0
 10
80.1284733601
 20
95.4159906603
 30
0.0
 10
80.1284733601
 20
95.2033428627
 30
0.0
 10
80.0689858012
 20
94.7562124451
 30
0.0
 10
79.846954181
 20
94.0996827231
 30
0.0
 10
79.5047913571
 20
93.4672271806
 30
0.0
 10
79.0700215888
 20
92.9107122984
 30
0.0
 10
78.5781676765
 20
92.4751035003
 30
0.0
 10
78.1329808674
 20
92.2316614766
 30
0.0
 10
77.7847282781
 20
92.1390387216
 30
0.0
 10
77.545047475
 20
92.1213801232
 30
0.0
 10
77.321867545
 20
92.1541025308
 30
0.0
 10
77.1866444898
 20
92.210277062
 30
0.0
 10
77.1253220921
 20
92.2457152731
 30
0.0
  0
SPLINE
  5
290
100
AcDbEntity
  8
0
100
AcDbSpline
 62
7
  6
BYLAYER
 70
0
 71
3
 72
19
 73
15
 74
0
 42
0.0000001
 43
0.0000001
 44
0.0000000001
 40
0.0
 40
0.0
 40
0.0
 40
0.0
 40
0.1363149004
 40
0.287119037
 40
0.4407422329
 40
0.584734674
 40
0.6500205494
 40
0.7096949794
 40
0.7636672631
 40
0.8126422287
 40
0.858254544
 40
0.9029637347
 40
0.9494693882
 40
1.0
 40
1.0
 40
1.0
 40
1.0
 10
128.3360876059
 20
122.6875189628
 30
0.0
 10
128.3360876059
 20
122.3583518613
 30
0.0
 10
128.2250277173
 20
121.6643797266
 30
0.0
 10
127.8271531172
 20
120.6701067255
 30
0.0
 10
127.2317830317
 20
119.7574389056
 30
0.0
 10
126.6063312657
 20
119.1310189609
 30
0.0
 10
126.0639653853
 20
118.7701014933
 30
0.0
 10
125.6697877318
 20
118.5881113699
 30
0.0
 10
125.2861456575
 20
118.4920539445
 30
0.0
 10
124.9235580077
 20
118.4867655865
 30
0.0
 10
124.5940756301
 20
118.57620682
 30
0.0
 10
124.3126927612
 20
118.7595338697
 30
0.0
 10
124.092038123
 20
119.027120373
 30
0.0
 10
123.9942747729
 20
119.2429173542
 30
0.0
 10
123.9554858331
 20
119.3586068844
 30
0.0
  0
SPLINE
  5
291
100
AcDbEntity
  8
0
100
AcDbSpline
 62
7
  6
BYLAYER
 70
0
 71
3
 72
9
 73
5
 74
0
 42
0.0000001
 43
0.0000001
 44
0.0000000001
 40
0.0
 40
0.0
 40
0.0
 40
0.0
 40
0.234170239
 40
1.0
 40
1.0
 40
1.0
 40
1.0
 10
123.9554858331
 20
119.3586068844
 30
0.0
 10
123.9369613461
 20
119.4138568912
 30
0.0
 10
123.8695554329
 20
119.6537100982
 30
0.0
 10
123.8459782396
 20
119.9045933486
 30
0.0
 10
123.8459782396
 20
120.0951685857
 30
0.0
  0
SPLINE
  5
292
100
AcDbEntity
  8
0
100
AcDbSpline
 62
7
  6
BYLAYER
 70
0
 71
3
 72
17
 73
13
 74
0
 42
0.0000001
 43
0.0000001
 44
0.0000000001
 40
0.0
 40
0.0
 40
0.0
 40
0.0
 40
0.1286839723
 40
0.2702731138
 40
0.4174311221
 40
0.5617769804
 40
0.6954476236
 40
0.8127121074
 40
0.864676385
 40
0.9125098108
 40
0.9571396749
 40
1.0
 40
1.0
 40
1.0
 40
1.0
 10
127.3644238936
 20
122.6875166272
 30
0.0
 10
127.3644238936
 20
122.4748688296
 30
0.0
 10
127.3049363348
 20
122.0277384121
 30
0.0
 10
127.0829047146
 20
121.37120869
 30
0.0
 10
126.7407418906
 20
120.7387531475
 30
0.0
 10
126.3059721223
 20
120.1822382653
 30
0.0
 10
125.81411821
 20
119.7466294672
 30
0.0
 10
125.368931401
 20
119.5031874435
 30
0.0
 10
125.0206788116
 20
119.4105646886
 30
0.0
 10
124.7809980086
 20
119.3929060901
 30
0.0
 10
124.5578180786
 20
119.4256284977
 30
0.0
 10
124.4225950233
 20
119.481803029
 30
0.0
 10
124.3612726257
 20
119.51724124
 30
0.0
  0
SPLINE
  5
293
100
AcDbEntity
  8
0
100
AcDbSpline
 62
7
  6
BYLAYER
 70
0
 71
3
 72
11
 73
7
 74
0
 42
0.0000001
 43
0.0000001
 44
0.0000000001
 40
0.0
 40
0.0
 40
0.0
 40
0.0
 40
0.2177827477
 40
0.4509152641
 40
0.7103063952
 40
1.0
 40
1.0
 40
1.0
 40
1.0
 10
52.0629914149
 20
103.9710563318
 30
0.0
 10
52.0630084008
 20
104.0953722727
 30
0.0
 10
52.1089221529
 20
104.3544890157
 30
0.0
 10
52.3053687137
 20
104.715523555
 30
0.0
 10
52.6159043098
 20
105.041871808
 30
0.0
 10
52.8757309115
 20
105.2208314919
 30
0.0
 10
53.0189409761
 20
105.3035133677
 30
0.0
  0
SPLINE
  5
294
100
AcDbEntity
  8
0
100
AcDbSpline
 62
7
  6
BYLAYER
 70
0
 71
3
 72
11
 73
7
 74
0
 42
0.0000001
 43
0.0000001
 44
0.0000000001
 40
0.0
 40
0.0
 40
0.0
 40
0.0
 40
0.2177827477
 40
0.4509152641
 40
0.7103063952
 40
1.0
 40
1.0
 40
1.0
 40
1.0
 10
95.3473750143
 20
166.4983911453
 30
0.0
 10
95.3473920002
 20
166.6227070862
 30
0.0
 10
95.3933057523
 20
166.8818238292
 30
0.0
 10
95.589752313
 20
167.2428583685
 30
0.0
 10
95.9002879092
 20
167.5692066215
 30
0.0
 10
96.1601145109
 20
167.7481663054
 30
0.0
 10
96.3033245755
 20
167.8308481812
 30
0.0
  0
SPLINE
  5
295
100
AcDbEntity
  8
0
100
AcDbSpline
 62
7
  6
BYLAYER
 70
0
 71
3
 72
11
 73
7
 74
0
 42
0.0000001
 43
0.0000001
 44
0.0000000001
 40
0.0
 40
0.0
 40
0.0
 40
0.0
 40
0.2177827477
 40
0.4509152641
 40
0.7103063952
 40
1.0
 40
1.0
 40
1.0
 40
1.0
 10
19.554328911
 20
122.7395167801
 30
0.0
 10
19.5543458969
 20
122.8638327211
 30
0.0
 10
19.600259649
 20
123.122949464
 30
0.0
 10
19.7967062098
 20
123.4839840034
 30
0.0
 10
20.1072418059
 20
123.8103322563
 30
0.0
 10
20.3670684076
 20
123.9892919402
 30
0.0
 10
20.5102784722
 20
124.071973816
 30
0.0
  0
SPLINE
  5
296
100
AcDbEntity
  8
0
100
AcDbSpline
 62
7
  6
BYLAYER
 70
0
 71
3
 72
12
 73
8
 74
0
 42
0.0000001
 43
0.0000001
 44
0.0000000001
 40
0.0
 40
0.0
 40
0.0
 40
0.0
 40
0.2895820023
 40
0.5486373127
 40
0.7816404419
 40
0.8918399459
 40
1.0
 40
1.0
 40
1.0
 40
1.0
 10
56.6738411711
 20
61.5074076249
 30
0.0
 10
57.1755491582
 20
61.7970671373
 30
0.0
 10
58.0855991307
 20
62.4238308466
 30
0.0
 10
59.1727873326
 20
63.5658041114
 30
0.0
 10
59.7566043291
 20
64.6418655016
 30
0.0
 10
59.9838707661
 20
65.5194846915
 30
0.0
 10
60.0215697201
 20
65.957220465
 30
0.0
 10
60.0215649931
 20
66.1735994426
 30
0.0
  0
SPLINE
  5
297
100
AcDbEntity
  8
0
100
AcDbSpline
 62
7
  6
BYLAYER
 70
0
 71
3
 72
17
 73
13
 74
0
 42
0.0000001
 43
0.0000001
 44
0.0000000001
 40
0.0
 40
0.0
 40
0.0
 40
0.0
 40
0.1286926208
 40
0.2702795078
 40
0.4174383051
 40
0.5617803148
 40
0.6954501289
 40
0.8127134773
 40
0.8646759206
 40
0.9125113962
 40
0.9571388332
 40
1.0
 40
1.0
 40
1.0
 40
1.0
 10
128.8119870794
 20
149.0623877329
 30
0.0
 10
129.0535998179
 20
149.2018820798
 30
0.0
 10
129.6006344485
 20
149.4275977495
 30
0.0
 10
130.4922054805
 20
149.6059408592
 30
0.0
 10
131.4351863204
 20
149.6320572485
 30
0.0
 10
132.3526368222
 20
149.5031256072
 30
0.0
 10
133.1701610756
 20
149.2300561962
 30
0.0
 10
133.7387676357
 20
148.8839692933
 30
0.0
 10
134.0724310058
 20
148.5490675987
 30
0.0
 10
134.2497338749
 20
148.2883571899
 30
0.0
 10
134.3589000084
 20
148.0133115793
 30
0.0
 10
134.3838202002
 20
147.822848565
 30
0.0
 10
134.3838075044
 20
147.7299307714
 30
0.0
  0
SPLINE
  5
298
100
AcDbEntity
  8
0
100
AcDbSpline
 62
7
  6
BYLAYER
 70
0
 71
3
 72
17
 73
13
 74
0
 42
0.0000001
 43
0.0000001
 44
0.0000000001
 40
0.0
 40
0.0
 40
0.0
 40
0.0
 40
0.1286926208
 40
0.2702795078
 40
0.4174383051
 40
0.5617803148
 40
0.6954501289
 40
0.8127134773
 40
0.8646759206
 40
0.9125113962
 40
0.9571388332
 40
1.0
 40
1.0
 40
1.0
 40
1.0
 10
53.0189409761
 20
105.3035133677
 30
0.0
 10
53.2605537146
 20
105.4430077147
 30
0.0
 10
53.8075883452
 20
105.6687233843
 30
0.0
 10
54.6991593772
 20
105.847066494
 30
0.0
 10
55.6421402171
 20
105.8731828833
 30
0.0
 10
56.5595907189
 20
105.744251242
 30
0.0
 10
57.3771149723
 20
105.4711818311
 30
0.0
 10
57.9457215324
 20
105.1250949281
 30
0.0
 10
58.2793849025
 20
104.7901932336
 30
0.0
 10
58.4566877716
 20
104.5294828247
 30
0.0
 10
58.5658539051
 20
104.2544372141
 30
0.0
 10
58.5907740969
 20
104.0639741998
 30
0.0
 10
58.5907614011
 20
103.9710564063
 30
0.0
  0
SPLINE
  5
299
100
AcDbEntity
  8
0
100
AcDbSpline
 62
7
  6
BYLAYER
 70
0
 71
3
 72
11
 73
7
 74
0
 42
0.0000001
 43
0.0000001
 44
0.0000000001
 40
0.0
 40
0.0
 40
0.0
 40
0.0
 40
0.2177732482
 40
0.4509008352
 40
0.7103635849
 40
1.0
 40
1.0
 40
1.0
 40
1.0
 10
126.8491254622
 20
123.8264262589
 30
0.0
 10
126.9311705952
 20
123.7790123799
 30
0.0
 10
127.0847950341
 20
123.6500420825
 30
0.0
 10
127.2482404652
 20
123.3826808168
 30
0.0
 10
127.3452711522
 20
123.053285219
 30
0.0
 10
127.3644238936
 20
122.8135467103
 30
0.0
 10
127.3644238936
 20
122.6875166272
 30
0.0
  0
SPLINE
  5
29A
100
AcDbEntity
  8
0
100
AcDbSpline
 62
7
  6
BYLAYER
 70
0
 71
3
 72
17
 73
13
 74
0
 42
0.0000001
 43
0.0000001
 44
0.0000000001
 40
0.0
 40
0.0
 40
0.0
 40
0.0
 40
0.1286926208
 40
0.2702795078
 40
0.4174383051
 40
0.5617803148
 40
0.6954501289
 40
0.8127134773
 40
0.8646759206
 40
0.9125113962
 40
0.9571388332
 40
1.0
 40
1.0
 40
1.0
 40
1.0
 10
96.3033245755
 20
167.8308481812
 30
0.0
 10
96.544937314
 20
167.9703425282
 30
0.0
 10
97.0919719446
 20
168.1960581978
 30
0.0
 10
97.9835429766
 20
168.3744013075
 30
0.0
 10
98.9265238165
 20
168.4005176968
 30
0.0
 10
99.8439743183
 20
168.2715860555
 30
0.0
 10
100.6614985717
 20
167.9985166446
 30
0.0
 10
101.2301051318
 20
167.6524297416
 30
0.0
 10
101.5637685019
 20
167.3175280471
 30
0.0
 10
101.741071371
 20
167.0568176382
 30
0.0
 10
101.8502375044
 20
166.7817720276
 30
0.0
 10
101.8751576963
 20
166.5913090133
 30
0.0
 10
101.8751450005
 20
166.4983912198
 30
0.0
  0
SPLINE
  5
29B
100
AcDbEntity
  8
0
100
AcDbSpline
 62
7
  6
BYLAYER
 70
0
 71
3
 72
17
 73
13
 74
0
 42
0.0000001
 43
0.0000001
 44
0.0000000001
 40
0.0
 40
0.0
 40
0.0
 40
0.0
 40
0.1286926208
 40
0.2702795078
 40
0.4174383051
 40
0.5617803148
 40
0.6954501289
 40
0.8127134773
 40
0.8646759206
 40
0.9125113962
 40
0.9571388332
 40
1.0
 40
1.0
 40
1.0
 40
1.0
 10
20.5102784722
 20
124.071973816
 30
0.0
 10
20.7518912107
 20
124.211468163
 30
0.0
 10
21.2989258413
 20
124.4371838326
 30
0.0
 10
22.1904968733
 20
124.6155269423
 30
0.0
 10
23.1334777132
 20
124.6416433316
 30
0.0
 10
24.050928215
 20
124.5127116903
 30
0.0
 10
24.8684524684
 20
124.2396422794
 30
0.0
 10
25.4370590285
 20
123.8935553764
 30
0.0
 10
25.7707223986
 20
123.5586536819
 30
0.0
 10
25.9480252677
 20
123.2979432731
 30
0.0
 10
26.0571914012
 20
123.0228976624
 30
0.0
 10
26.082111593
 20
122.8324346481
 30
0.0
 10
26.0820988972
 20
122.7395168546
 30
0.0
  0
SPLINE
  5
29C
100
AcDbEntity
  8
0
100
AcDbSpline
 62
7
  6
BYLAYER
 70
0
 71
3
 72
9
 73
5
 74
0
 42
0.0000001
 43
0.0000001
 44
0.0000000001
 40
0.0
 40
0.0
 40
0.0
 40
0.0
 40
0.2667315975
 40
1.0
 40
1.0
 40
1.0
 40
1.0
 10
126.090994127
 20
123.9837014237
 30
0.0
 10
126.1481076407
 20
124.0166754515
 30
0.0
 10
126.3661217043
 20
124.1330879
 30
0.0
 10
126.6014608784
 20
124.2197211165
 30
0.0
 10
126.7790526425
 20
124.2561965818
 30
0.0
  0
SPLINE
  5
29D
100
AcDbEntity
  8
0
100
AcDbSpline
 62
7
  6
BYLAYER
 70
0
 71
3
 72
15
 73
11
 74
0
 42
0.0000001
 43
0.0000001
 44
0.0000000001
 40
0.0
 40
0.0
 40
0.0
 40
0.0
 40
0.1265830078
 40
0.2437570426
 40
0.3556470738
 40
0.467488172
 40
0.584492064
 40
0.7108419202
 40
0.8491668047
 40
1.0
 40
1.0
 40
1.0
 40
1.0
 10
126.7790526425
 20
124.2561965818
 30
0.0
 10
126.8862166268
 20
124.2782069279
 30
0.0
 10
127.0973608879
 20
124.3018775501
 30
0.0
 10
127.405615671
 20
124.2653135108
 30
0.0
 10
127.6825723486
 20
124.1543544734
 30
0.0
 10
127.9180793235
 20
123.9714528452
 30
0.0
 10
128.1050409287
 20
123.7240262347
 30
0.0
 10
128.2395672997
 20
123.420139053
 30
0.0
 10
128.3197449801
 20
123.0682872655
 30
0.0
 10
128.3360876059
 20
122.8178784793
 30
0.0
 10
128.3360876059
 20
122.6875189628
 30
0.0
  0
SPLINE
  5
29E
100
AcDbEntity
  8
0
100
AcDbSpline
 62
7
  6
BYLAYER
 70
0
 71
3
 72
11
 73
7
 74
0
 42
0.0000001
 43
0.0000001
 44
0.0000000001
 40
0.0
 40
0.0
 40
0.0
 40
0.0
 40
0.2505349504
 40
0.5107834929
 40
0.7653918695
 40
1.0
 40
1.0
 40
1.0
 40
1.0
 10
52.7876888009
 20
46.0943869486
 30
0.0
 10
51.9721381647
 20
45.8423770159
 30
0.0
 10
50.2534059412
 20
45.500854709
 30
0.0
 10
47.6343371209
 20
45.4414484987
 30
0.0
 10
45.0965714253
 20
45.8185898266
 30
0.0
 10
43.5086196382
 20
46.3732088569
 30
0.0
 10
42.7927699809
 20
46.7288711448
 30
0.0
  0
SPLINE
  5
29F
100
AcDbEntity
  8
0
100
AcDbSpline
 62
7
  6
BYLAYER
 70
0
 71
3
 72
12
 73
8
 74
0
 42
0.0000001
 43
0.0000001
 44
0.0000000001
 40
0.0
 40
0.0
 40
0.0
 40
0.0
 40
0.1081590131
 40
0.218360724
 40
0.4513549346
 40
0.7104291093
 40
1.0
 40
1.0
 40
1.0
 40
1.0
 10
58.7515364478
 20
66.1735994504
 30
0.0
 10
58.7515172845
 20
65.9812648946
 30
0.0
 10
58.7181053065
 20
65.5921569597
 30
0.0
 10
58.5159587914
 20
64.8120945228
 30
0.0
 10
57.9971348468
 20
63.8555298406
 30
0.0
 10
57.0306701521
 20
62.8404915209
 30
0.0
 10
56.2217562943
 20
62.2833380085
 30
0.0
 10
55.7758118201
 20
62.0258733831
 30
0.0
  0
SPLINE
  5
2A0
100
AcDbEntity
  8
0
100
AcDbSpline
 62
7
  6
BYLAYER
 70
0
 71
3
 72
12
 73
8
 74
0
 42
0.0000001
 43
0.0000001
 44
0.0000000001
 40
0.0
 40
0.0
 40
0.0
 40
0.0
 40
0.108160086
 40
0.2183661673
 40
0.4513442183
 40
0.7104418196
 40
1.0
 40
1.0
 40
1.0
 40
1.0
 10
17.5458913197
 20
122.7395194077
 30
0.0
 10
17.5458913213
 20
122.6193081357
 30
0.0
 10
17.5667369771
 20
122.3760997682
 30
0.0
 10
17.6931945798
 20
121.8885992373
 30
0.0
 10
18.0173597836
 20
121.2906879303
 30
0.0
 10
18.6214699195
 20
120.6563306627
 30
0.0
 10
19.1270287896
 20
120.3080766533
 30
0.0
 10
19.4057352882
 20
120.1471690214
 30
0.0
  0
SPLINE
  5
2A1
100
AcDbEntity
  8
0
100
AcDbSpline
 62
7
  6
BYLAYER
 70
0
 71
3
 72
15
 73
11
 74
0
 42
0.0000001
 43
0.0000001
 44
0.0000000001
 40
0.0
 40
0.0
 40
0.0
 40
0.0
 40
0.1141469224
 40
0.2373360365
 40
0.366976904
 40
0.5000005214
 40
0.6330240662
 40
0.7626647219
 40
0.8858535023
 40
1.0
 40
1.0
 40
1.0
 40
1.0
 10
50.8367625392
 20
102.0008675013
 30
0.0
 10
51.1441270297
 20
101.8234145446
 30
0.0
 10
51.8163220253
 20
101.5104483765
 30
0.0
 10
52.9108675115
 20
101.1777082024
 30
0.0
 10
54.0959409526
 20
100.9730196469
 30
0.0
 10
55.3268981879
 20
100.9038776818
 30
0.0
 10
56.5578544391
 20
100.9730254893
 30
0.0
 10
57.7429249731
 20
101.1777196716
 30
0.0
 10
58.837465747
 20
101.5104650489
 30
0.0
 10
59.5096566247
 20
101.8234345743
 30
0.0
 10
59.8170186919
 20
102.0008890872
 30
0.0
  0
SPLINE
  5
2A2
100
AcDbEntity
  8
0
100
AcDbSpline
 62
7
  6
BYLAYER
 70
0
 71
3
 72
12
 73
8
 74
0
 42
0.0000001
 43
0.0000001
 44
0.0000000001
 40
0.0
 40
0.0
 40
0.0
 40
0.0
 40
0.2895577051
 40
0.5486551372
 40
0.7816333827
 40
0.8918396705
 40
1.0
 40
1.0
 40
1.0
 40
1.0
 10
134.5324385156
 20
145.1375993435
 30
0.0
 10
134.8111398022
 20
145.298506646
 30
0.0
 10
135.3166890785
 20
145.6467593201
 30
0.0
 10
135.9207869434
 20
146.2811119055
 30
0.0
 10
136.24494504
 20
146.8790171961
 30
0.0
 10
136.3713998926
 20
147.3665124283
 30
0.0
 10
136.3922450972
 20
147.6097181515
 30
0.0
 10
136.3922450957
 20
147.7299281439
 30
0.0
  0
SPLINE
  5
2A3
100
AcDbEntity
  8
0
100
AcDbSpline
 62
7
  6
BYLAYER
 70
0
 71
3
 72
21
 73
17
 74
0
 42
0.0000001
 43
0.0000001
 44
0.0000000001
 40
0.0
 40
0.0
 40
0.0
 40
0.0
 40
0.0428257525
 40
0.0874198981
 40
0.1352153909
 40
0.1871384152
 40
0.2436007701
 40
0.3045746855
 40
0.3696896016
 40
0.4383160368
 40
0.5825482659
 40
0.7295861507
 40
0.8015964053
 40
0.8712137895
 40
0.9375990773
 40
1.0
 40
1.0
 40
1.0
 40
1.0
 10
37.1615890321
 20
66.1735994555
 30
0.0
 10
37.1615961404
 20
65.848215291
 30
0.0
 10
37.2486169477
 20
65.1811847096
 30
0.0
 10
37.6311906047
 20
64.2180667201
 30
0.0
 10
38.2519179749
 20
63.30502648
 30
0.0
 10
39.0932402997
 20
62.4601338919
 30
0.0
 10
40.1357961359
 20
61.6983715705
 30
0.0
 10
41.357309071
 20
61.0340286259
 30
0.0
 10
42.7322690211
 20
60.4800485326
 30
0.0
 10
44.7646358532
 20
59.8945349051
 30
0.0
 10
47.487673666
 20
59.5126693059
 30
0.0
 10
50.2605805505
 20
59.5887991054
 30
0.0
 10
52.4292304758
 20
59.9325614839
 30
0.0
 10
53.9635329757
 20
60.3219994233
 30
0.0
 10
55.3831150538
 20
60.8364860784
 30
0.0
 10
56.263246128
 20
61.2703518813
 30
0.0
 10
56.6738411711
 20
61.5074076249
 30
0.0
  0
SPLINE
  5
2A4
100
AcDbEntity
  8
0
100
AcDbSpline
 62
7
  6
BYLAYER
 70
0
 71
3
 72
11
 73
7
 74
0
 42
0.0000001
 43
0.0000001
 44
0.0000000001
 40
0.0
 40
0.0
 40
0.0
 40
0.0
 40
0.2177732482
 40
0.4509008352
 40
0.7103635849
 40
1.0
 40
1.0
 40
1.0
 40
1.0
 10
79.6131749286
 20
96.5549002919
 30
0.0
 10
79.6952200616
 20
96.507486413
 30
0.0
 10
79.8488445006
 20
96.3785161156
 30
0.0
 10
80.0122899317
 20
96.1111548499
 30
0.0
 10
80.1093206186
 20
95.7817592521
 30
0.0
 10
80.1284733601
 20
95.5420207434
 30
0.0
 10
80.1284733601
 20
95.4159906603
 30
0.0
  0
ELLIPSE
  5
2A5
100
AcDbEntity
  8
0
100
AcDbEllipse
 62
7
  6
BYLAYER
 10
76.2221493762
 20
95.8265498375
 30
0.0
 11
5.0801255878
 21
2.2830132413
 31
0.0
 40
0.7133435069
 41
2.8313661658
 42
3.6167770879
  0
ENDSEC
  0
SECTION
  2
OBJECTS
  0
DICTIONARY
  5
C
100
AcDbDictionary
280
0
281
1
  3
ACAD_GROUP
350
D
  3
ACAD_MLINESTYLE
350
17
  3
ACAD_LAYOUT
350
1A
  3
ACAD_PLOTSETTINGS
350
19
  3
ACAD_PLOTSTYLENAME
350
E
  0
DICTIONARY
  5
D
102
{ACAD_REACTORS
330
C
102
}
100
AcDbDictionary
280
0
281
1
  0
ACDBDICTIONARYWDFLT
  5
E
102
{ACAD_REACTORS
330
C
102
}
100
AcDbDictionary
281
1
  3
Normal
350
F
100
AcDbDictionaryWithDefault
340
F
  0
DICTIONARY
  5
17
102
{ACAD_REACTORS
330
C
102
}
100
AcDbDictionary
280
0
281
1
  3
Standard
350
18
  0
DICTIONARY
  5
19
102
{ACAD_REACTORS
330
C
102
}
100
AcDbDictionary
281
1
  0
DICTIONARY
  5
1A
102
{ACAD_REACTORS
330
C
102
}
100
AcDbDictionary
281
1
  3
Model
350
2A6
  3
Layout1
350
2A7
  0
ACDBPLACEHOLDER
  5
F
102
{ACAD_REACTORS
330
E
102
}
  0
MLINESTYLE
  5
18
102
{ACAD_REACTORS
330
17
102
}
100
AcDbMlineStyle
  2
STANDARD
 70
0
  3

 62
256
 51
90.0
 52
90.0
 71
2
 49
0.5
 62
256
  6
BYLAYER
 49
-0.5
 62
256
  6
BYLAYER
  0
LAYOUT
  5
2A6
102
{ACAD_REACTORS
330
1A
102
}
100
AcDbPlotSettings
  1

  2
none_device
  4

  6

 40
0.0
 41
0.0
 42
0.0
 43
0.0
 44
210.0
 45
297.0
 46
0.0
 47
0.0
 48
0.0
 49
0.0
140
0.0
141
0.0
142
1.0
143
1.0
 70
1024
 72
1
 73
0
 74
0
  7

 75
0
147
1.0
148
0.0
149
0.0
100
AcDbLayout
  1
Model
 70
0
 71
0
 10
0.0
 20
0.0
 11
210.0
 21
297.0
 12
0.0
 22
0.0
 32
0.0
 14
0.0
 24
0.0
 34
0.0
 15
0.0
 25
0.0
 35
0.0
146
0.0
 13
0.0
 23
0.0
 33
0.0
 16
1.0
 26
0.0
 36
0.0
 17
0.0
 27
1.0
 37
0.0
 76
0
330
210
345
0
346
0
  0
LAYOUT
  5
2A7
102
{ACAD_REACTORS
330
1A
102
}
100
AcDbPlotSettings
  1

  2
none_device
  4

  6

 40
0.0
 41
0.0
 42
0.0
 43
0.0
 44
210.0
 45
297.0
 46
0.0
 47
0.0
 48
0.0
 49
0.0
140
0.0
141
0.0
142
1.0
143
1.0
 70
0
 72
1
 73
0
 74
0
  7

 75
0
147
1.0
148
0.0
149
0.0
100
AcDbLayout
  1
Layout1
 70
0
 71
1
 10
0.0
 20
0.0
 11
210.0
 21
297.0
 12
0.0
 22
0.0
 32
0.0
 14
0.0
 24
0.0
 34
0.0
 15
0.0
 25
0.0
 35
0.0
146
0.0
 13
0.0
 23
0.0
 33
0.0
 16
1.0
 26
0.0
 36
0.0
 17
0.0
 27
1.0
 37
0.0
 76
0
330
211
345
0
346
0
  0
ENDSEC
  0
EOF
