999
DXF file: C:\Users\sesa63760\Dev\_Creo\CAD\MCADID0003773_3D-CAD\drw0001_4.dxf
999
Pro/ENGINEER 2019471 by Parametric Technology Corporation
  0
SECTION
  2
HEADER
  9
$ACADVER
  1
AC1024
  9
$DWGCODEPAGE
  3
ANSI_1252
  9
$EXTMAX
 10
73.3218035226
 20
103.6979792677
 30
0.0
  9
$EXTMIN
 10
0.0
 20
0.0
 30
0.0
  9
$LIMMIN
 10
0.0
 20
0.0
  9
$LIMMAX
 10
73.3218035226
 20
103.6979792677
  9
$VIEWCTR
 10
36.6609017613
 20
51.8489896338
  9
$VIEWSIZE
 40
103.6979792677
  9
$CLAYER
  8
0
  9
$LTSCALE
 40
6.7595719819
  9
$CELTYPE
  6
BYLAYER
  9
$DIMSCALE
 40
1.0
  9
$DIMASZ
 40
0.8728786134
  9
$DIMEXO
 40
1.0
  9
$DIMDLI
 40
4.6702497329
  9
$DIMEXE
 40
1.0
  9
$DIMCEN
 40
1.1061117789
  9
$DIMLFAC
 40
1.0
  9
$DIMBLK
  1
_FILLED
  9
$DIMALT
 70
0
  9
$DIMALTF
 40
0.0393700787
  9
$DIMTXT
 40
1.2220300587
  9
$DIMTOL
 70
1
  9
$DIMLIM
 70
0
  9
$DIMTFAC
 40
1.0
  9
$DIMTP
 40
0.01
  9
$DIMTM
 40
0.01
  9
$DIMGAP
 40
0.625
  9
$DIMDSEP
 70
46
  9
$AUNITS
 70
0
  9
$PDMODE
 70
3
  9
$PDSIZE
 40
0.3125
  9
$HANDSEED
  5
27C
  9
$TILEMODE
 70
1
  9
$MEASUREMENT
 70
1
  9
$INSUNITS
 70
4
  0
ENDSEC
  0
SECTION
  2
CLASSES
  0
CLASS
  1
ACDBDICTIONARYWDFLT
  2
AcDbDictionaryWithDefault
  3
AutoCAD 2000
 90
0
 91
1
280
0
281
0
  0
CLASS
  1
ACDBPLACEHOLDER
  2
AcDbPlaceHolder
  3
AutoCAD 2000
 90
0
 91
1
280
0
281
0
  0
CLASS
  1
LAYOUT
  2
AcDbLayout
  3
AutoCAD 2000
 90
0
 91
0
280
0
281
0
  0
ENDSEC
  0
SECTION
  2
TABLES
  0
TABLE
  2
VPORT
  5
8
100
AcDbSymbolTable
 70
2
  0
VPORT
  5
1F4
100
AcDbSymbolTableRecord
100
AcDbViewportTableRecord
  2
*ACTIVE
 70
0
 10
0.0
 20
0.0
 11
1.0
 21
1.0
 12
36.6609017613
 22
51.8489896338
 13
0.0
 23
0.0
 14
1.0
 24
1.0
 15
0.0
 25
0.0
 16
0.0
 26
0.0
 36
1.0
 17
0.0
 27
0.0
 37
0.0
 40
103.6979792677
 41
0.7070707071
 42
50.0
 43
0.0
 44
0.0
 50
0.0
 51
0.0
 71
0
 72
100
 73
1
 74
1
 75
0
 76
0
 77
0
 78
0
  0
ENDTAB
  0
TABLE
  2
LTYPE
  5
5
100
AcDbSymbolTable
 70
6
  0
LTYPE
  5
14
100
AcDbSymbolTableRecord
100
AcDbLinetypeTableRecord
  2
BYBLOCK
 70
0
  3

 72
65
 73
0
 40
0.0
  0
LTYPE
  5
15
100
AcDbSymbolTableRecord
100
AcDbLinetypeTableRecord
  2
BYLAYER
 70
0
  3

 72
65
 73
0
 40
0.0
  0
LTYPE
  5
16
100
AcDbSymbolTableRecord
100
AcDbLinetypeTableRecord
  2
CONTINUOUS
 70
64
  3
Solid line
 72
65
 73
0
 40
0.0
  0
LTYPE
  5
1F5
100
AcDbSymbolTableRecord
100
AcDbLinetypeTableRecord
  2
CENTER
 70
64
  3
____ _ ____ _ ____ _ ____ _ ____ _ ____ _ ____
 72
65
 73
4
 40
0.6
 49
0.375
 74
0
 49
-0.075
 74
0
 49
0.075
 74
0
 49
-0.075
 74
0
  0
LTYPE
  5
1F6
100
AcDbSymbolTableRecord
100
AcDbLinetypeTableRecord
  2
HIDDEN
 70
64
  3
- - - - - - - - - - - - - - - - - - - -
 72
65
 73
2
 40
0.2
 49
0.1
 74
0
 49
-0.1
 74
0
  0
LTYPE
  5
1F7
100
AcDbSymbolTableRecord
100
AcDbLinetypeTableRecord
  2
PHANTOM
 70
64
  3
_____ _ _ _____ _ _ _____ _ _ _____
 72
65
 73
6
 40
0.8
 49
0.45
 74
0
 49
-0.05
 74
0
 49
0.1
 74
0
 49
-0.05
 74
0
 49
0.1
 74
0
 49
-0.05
 74
0
  0
LTYPE
  5
1F8
100
AcDbSymbolTableRecord
100
AcDbLinetypeTableRecord
  2
DOT
 70
64
  3
. . . . . . . . . . . . . . . . . . . .
 72
65
 73
2
 40
0.2
 49
0.1
 74
0
 49
-0.1
 74
0
  0
LTYPE
  5
1F9
100
AcDbSymbolTableRecord
100
AcDbLinetypeTableRecord
  2
DASHED
 70
64
  3
- - - - - - - - - - - - - - - - - - - -
 72
65
 73
2
 40
0.2
 49
0.1
 74
0
 49
-0.1
 74
0
  0
ENDTAB
  0
TABLE
  2
LAYER
  5
2
100
AcDbSymbolTable
 70
36
  0
LAYER
  5
10
100
AcDbSymbolTableRecord
100
AcDbLayerTableRecord
  2
0
 70
0
 62
7
  6
CONTINUOUS
370
-3
390
F
  0
LAYER
  5
1FA
100
AcDbSymbolTableRecord
100
AcDbLayerTableRecord
  2
DEFAULT_1
 70
0
 62
7
  6
CENTER
370
-3
390
F
  0
LAYER
  5
1FB
100
AcDbSymbolTableRecord
100
AcDbLayerTableRecord
  2
DEFAULT_2
 70
0
 62
7
  6
HIDDEN
370
-3
390
F
  0
LAYER
  5
1FC
100
AcDbSymbolTableRecord
100
AcDbLayerTableRecord
  2
DEFAULT_3
 70
0
 62
7
  6
PHANTOM
370
-3
390
F
  0
LAYER
  5
1FD
100
AcDbSymbolTableRecord
100
AcDbLayerTableRecord
  2
00_COMPONENTS
 70
0
 62
7
  6
CONTINUOUS
370
-3
390
F
  0
LAYER
  5
1FE
100
AcDbSymbolTableRecord
100
AcDbLayerTableRecord
  2
01_1_DEFAULT_DATUMS
 70
0
 62
7
  6
CONTINUOUS
370
-3
390
F
  0
LAYER
  5
1FF
100
AcDbSymbolTableRecord
100
AcDbLayerTableRecord
  2
01_PLANES
 70
0
 62
7
  6
CONTINUOUS
370
-3
390
F
  0
LAYER
  5
200
100
AcDbSymbolTableRecord
100
AcDbLayerTableRecord
  2
02_COORD_SYS
 70
0
 62
7
  6
CONTINUOUS
370
-3
390
F
  0
LAYER
  5
201
100
AcDbSymbolTableRecord
100
AcDbLayerTableRecord
  2
03_AXES
 70
0
 62
7
  6
CONTINUOUS
370
-3
390
F
  0
LAYER
  5
202
100
AcDbSymbolTableRecord
100
AcDbLayerTableRecord
  2
04_POINTS
 70
0
 62
7
  6
CONTINUOUS
370
-3
390
F
  0
LAYER
  5
203
100
AcDbSymbolTableRecord
100
AcDbLayerTableRecord
  2
05_CURVES
 70
0
 62
7
  6
CONTINUOUS
370
-3
390
F
  0
LAYER
  5
204
100
AcDbSymbolTableRecord
100
AcDbLayerTableRecord
  2
06_SURFS
 70
0
 62
7
  6
CONTINUOUS
370
-3
390
F
  0
LAYER
  5
205
100
AcDbSymbolTableRecord
100
AcDbLayerTableRecord
  2
07_COSMETICS
 70
0
 62
7
  6
CONTINUOUS
370
-3
390
F
  0
LAYER
  5
206
100
AcDbSymbolTableRecord
100
AcDbLayerTableRecord
  2
10_NOTES
 70
0
 62
7
  6
CONTINUOUS
370
-3
390
F
  0
LAYER
  5
207
100
AcDbSymbolTableRecord
100
AcDbLayerTableRecord
  2
11_NOTES_PUB
 70
0
 62
7
  6
CONTINUOUS
370
-3
390
F
  0
LAYER
  5
208
100
AcDbSymbolTableRecord
100
AcDbLayerTableRecord
  2
13_REF_GTOL
 70
0
 62
7
  6
CONTINUOUS
370
-3
390
F
  0
LAYER
  5
209
100
AcDbSymbolTableRecord
100
AcDbLayerTableRecord
  2
16_MISC
 70
0
 62
7
  6
CONTINUOUS
370
-3
390
F
  0
LAYER
  5
20A
100
AcDbSymbolTableRecord
100
AcDbLayerTableRecord
  2
17_NO_PRINT
 70
0
 62
7
  6
CONTINUOUS
370
-3
390
F
  0
LAYER
  5
20B
100
AcDbSymbolTableRecord
100
AcDbLayerTableRecord
  2
18_DATUM_CAMS_JOINTS
 70
0
 62
7
  6
CONTINUOUS
370
-3
390
F
  0
LAYER
  5
20C
100
AcDbSymbolTableRecord
100
AcDbLayerTableRecord
  2
19_DATUM_FUNCTIONAL
 70
0
 62
7
  6
CONTINUOUS
370
-3
390
F
  0
LAYER
  5
20D
100
AcDbSymbolTableRecord
100
AcDbLayerTableRecord
  2
20_DATUM_KINEMATIC_SCHEME
 70
0
 62
7
  6
CONTINUOUS
370
-3
390
F
  0
LAYER
  5
20E
100
AcDbSymbolTableRecord
100
AcDbLayerTableRecord
  2
INTFCLR_10671
 70
0
 62
7
  6
CONTINUOUS
370
-3
390
F
  0
LAYER
  5
20F
100
AcDbSymbolTableRecord
100
AcDbLayerTableRecord
  2
INTFCLR_10712
 70
0
 62
7
  6
CONTINUOUS
370
-3
390
F
  0
ENDTAB
  0
TABLE
  2
STYLE
  5
3
100
AcDbSymbolTable
 70
1
  0
STYLE
  5
11
100
AcDbSymbolTableRecord
100
AcDbTextStyleTableRecord
  2
STANDARD
 70
0
 40
0.0
 41
1.0
 50
0.0
 71
0
 42
0.2
  3
ARIAL.TTF
  4

  0
STYLE
  5
210
100
AcDbSymbolTableRecord
100
AcDbTextStyleTableRecord
  2
TEXTSTYLE_1
 70
0
 40
0.0
 41
0.8
 50
0.0
 71
0
 42
0.2
  3
gdt
  4

  0
ENDTAB
  0
TABLE
  2
VIEW
  5
6
100
AcDbSymbolTable
 70
0
  0
ENDTAB
  0
TABLE
  2
UCS
  5
7
100
AcDbSymbolTable
 70
0
  0
ENDTAB
  0
TABLE
  2
APPID
  5
9
100
AcDbSymbolTable
 70
1
  0
APPID
  5
211
100
AcDbSymbolTableRecord
100
AcDbRegAppTableRecord
  2
ACAD
 70
0
  0
ENDTAB
  0
TABLE
  2
BLOCK_RECORD
  5
1
100
AcDbSymbolTable
 70
0
  0
BLOCK_RECORD
  5
212
100
AcDbSymbolTableRecord
100
AcDbBlockTableRecord
  2
*Model_Space
  0
BLOCK_RECORD
  5
213
100
AcDbSymbolTableRecord
100
AcDbBlockTableRecord
  2
*Paper_Space
  0
BLOCK_RECORD
  5
214
100
AcDbSymbolTableRecord
100
AcDbBlockTableRecord
  2
_FILLED
  0
ENDTAB
  0
TABLE
  2
DIMSTYLE
  5
A
100
AcDbSymbolTable
 70
1
100
AcDbDimStyleTable
 71
0
  0
DIMSTYLE
105
215
100
AcDbSymbolTableRecord
100
AcDbDimStyleTableRecord
  2
STANDARD
 70
0
  3

  4

 40
1.0
 41
0.8728786134
 42
1.0
 43
0.38
 44
1.0
 45
0.0
 46
0.0
 47
0.01
 48
0.01
140
1.2220300587
141
0.09
142
0.0
143
25.4
144
1.0
145
0.0
146
1.0
147
0.625
 71
1
 72
0
 73
0
 74
0
 75
0
 76
0
 77
1
 78
8
 79
2
170
0
171
1
172
0
173
0
174
0
175
0
176
0
177
0
178
0
270
2
179
2
271
2
272
2
273
2
274
2
275
0
280
0
281
0
282
0
283
1
284
8
285
0
286
0
287
3
288
0
340
11
278
46
341
214
342
214
343
214
344
214
  0
ENDTAB
  0
ENDSEC
  0
SECTION
  2
BLOCKS
  0
BLOCK
  5
20
100
AcDbEntity
  8
0
100
AcDbBlockBegin
  2
*Model_Space
 70
0
 10
0.0
 20
0.0
 30
0.0
  3
*Model_Space
  1

  0
ENDBLK
  5
21
100
AcDbEntity
  8
0
100
AcDbBlockEnd
  0
BLOCK
  5
1C
100
AcDbEntity
  8
0
100
AcDbBlockBegin
  2
*Paper_Space
 70
0
 10
0.0
 20
0.0
 30
0.0
  3
*Paper_Space
  1

  0
ENDBLK
  5
1D
100
AcDbEntity
  8
0
100
AcDbBlockEnd
  0
BLOCK
  5
216
100
AcDbEntity
  8
0
100
AcDbBlockBegin
  2
_FILLED
 70
64
 10
0.0
 20
0.0
  3
_FILLED
  1

  0
SOLID
  5
217
100
AcDbEntity
  8
0
  6
BYBLOCK
 62
0
100
AcDbTrace
 10
0.0
 20
0.0
 11
-1.0
 21
0.25
 12
-1.0
 22
-0.25
 13
-1.0
 23
-0.25
  0
ENDBLK
  5
218
100
AcDbEntity
  8
0
  6
BYBLOCK
 62
0
100
AcDbBlockEnd
  0
ENDSEC
  0
SECTION
  2
ENTITIES
  0
LINE
  5
219
100
AcDbEntity
  8
0
100
AcDbLine
 62
7
  6
BYLAYER
 10
43.1128415955
 20
7.4251307064
 11
32.1128415955
 21
7.4251307064
  0
LINE
  5
21A
100
AcDbEntity
  8
0
100
AcDbLine
 62
7
  6
BYLAYER
 10
44.1128415955
 20
8.4251307064
 11
31.1128415955
 21
8.4251307064
  0
LINE
  5
21B
100
AcDbEntity
  8
0
100
AcDbLine
 62
7
  6
BYLAYER
 10
32.3128415955
 20
93.6382220051
 11
31.6128415955
 21
93.2340768167
  0
LINE
  5
21C
100
AcDbEntity
  8
0
100
AcDbLine
 62
7
  6
BYLAYER
 10
31.1128415955
 20
15.5251307064
 11
44.1128415955
 21
15.5251307064
  0
LINE
  5
21D
100
AcDbEntity
  8
0
100
AcDbLine
 62
7
  6
BYLAYER
 10
31.7113697329
 20
16.1236588439
 11
43.514313458
 21
16.1236588439
  0
LINE
  5
21E
100
AcDbEntity
  8
0
100
AcDbLine
 62
7
  6
BYLAYER
 10
43.1628415955
 20
16.9721869813
 11
32.0628415955
 21
16.9721869813
  0
LINE
  5
21F
100
AcDbEntity
  8
0
100
AcDbLine
 62
7
  6
BYLAYER
 10
32.1128415955
 20
7.4251307064
 11
31.1128415955
 21
8.4251307064
  0
LINE
  5
220
100
AcDbEntity
  8
0
100
AcDbLine
 62
7
  6
BYLAYER
 10
47.0128415955
 20
19.4251307064
 11
28.2128415955
 21
19.4251307064
  0
LINE
  5
221
100
AcDbEntity
  8
0
100
AcDbLine
 62
7
  6
BYLAYER
 10
31.6128415955
 20
86.1382220051
 11
31.1128415955
 21
85.6382220051
  0
LINE
  5
222
100
AcDbEntity
  8
0
100
AcDbLine
 62
7
  6
BYLAYER
 10
28.2128415955
 20
21.9251307064
 11
47.0128415955
 21
21.9251307064
  0
LINE
  5
223
100
AcDbEntity
  8
0
100
AcDbLine
 62
7
  6
BYLAYER
 10
28.2128415955
 20
21.9251307064
 11
26.6431864809
 21
22.8313715094
  0
LINE
  5
224
100
AcDbEntity
  8
0
100
AcDbLine
 62
7
  6
BYLAYER
 10
28.1542629517
 20
26.2837093502
 11
47.0714202392
 21
26.2837093502
  0
LINE
  5
225
100
AcDbEntity
  8
0
100
AcDbLine
 62
7
  6
BYLAYER
 10
47.0714202392
 20
26.5665520627
 11
28.1542629517
 21
26.5665520627
  0
LINE
  5
226
100
AcDbEntity
  8
0
100
AcDbLine
 62
7
  6
BYLAYER
 10
28.1542629517
 20
26.5665520627
 11
26.6431864809
 21
28.0776285335
  0
LINE
  5
227
100
AcDbEntity
  8
0
100
AcDbLine
 62
7
  6
BYLAYER
 10
50.6128415955
 20
32.9774959012
 11
53.2708418148
 21
33.0238914676
  0
LINE
  5
228
100
AcDbEntity
  8
0
100
AcDbLine
 62
7
  6
BYLAYER
 10
50.6128415955
 20
30.1274959012
 11
24.6128415955
 21
30.1274959012
  0
LINE
  5
229
100
AcDbEntity
  8
0
100
AcDbLine
 62
7
  6
BYLAYER
 10
24.6128415955
 20
32.9774959012
 11
21.9548413762
 21
33.0238914676
  0
LINE
  5
22A
100
AcDbEntity
  8
0
100
AcDbLine
 62
7
  6
BYLAYER
 10
43.514313458
 20
16.1236588439
 11
44.1128415955
 21
15.5251307064
  0
LINE
  5
22B
100
AcDbEntity
  8
0
100
AcDbLine
 62
7
  6
BYLAYER
 10
20.8628415955
 20
85.6382220051
 11
20.8628415955
 21
75.1382220051
  0
LINE
  5
22C
100
AcDbEntity
  8
0
100
AcDbLine
 62
7
  6
BYLAYER
 10
21.2128415955
 20
33.2382220051
 11
21.2128415955
 21
33.0377158752
  0
LINE
  5
22D
100
AcDbEntity
  8
0
100
AcDbLine
 62
7
  6
BYLAYER
 10
19.6723083968
 20
36.6581630764
 11
19.6126131034
 21
33.2382220051
  0
LINE
  5
22E
100
AcDbEntity
  8
0
100
AcDbLine
 62
7
  6
BYLAYER
 10
20.8040621666
 20
72.8382220051
 11
20.6845711789
 21
65.9925879017
  0
LINE
  5
22F
100
AcDbEntity
  8
0
100
AcDbLine
 62
7
  6
BYLAYER
 10
20.2481945557
 20
40.9925879017
 11
20.181159075
 21
37.1521277884
  0
LINE
  5
230
100
AcDbEntity
  8
0
100
AcDbLine
 62
7
  6
BYLAYER
 10
20.8845635635
 20
65.9925879017
 11
20.4481869403
 21
40.9925879017
  0
LINE
  5
231
100
AcDbEntity
  8
0
100
AcDbLine
 62
7
  6
BYLAYER
 10
24.6128415955
 20
32.9774959012
 11
50.6128415955
 21
32.9774959012
  0
LINE
  5
232
100
AcDbEntity
  8
0
100
AcDbLine
 62
7
  6
BYLAYER
 10
54.0128415955
 20
33.0377158752
 11
21.2128415955
 21
33.0377158752
  0
LINE
  5
233
100
AcDbEntity
  8
0
100
AcDbLine
 62
7
  6
BYLAYER
 10
55.6129903948
 20
33.2382220051
 11
19.6132984969
 21
33.2382220051
  0
LINE
  5
234
100
AcDbEntity
  8
0
100
AcDbLine
 62
7
  6
BYLAYER
 10
24.2128415955
 20
72.8382220051
 11
24.2128415955
 21
75.1382220051
  0
LINE
  5
235
100
AcDbEntity
  8
0
100
AcDbLine
 62
7
  6
BYLAYER
 10
24.6128415955
 20
32.9774959012
 11
24.6128415955
 21
30.1274959012
  0
LINE
  5
236
100
AcDbEntity
  8
0
100
AcDbLine
 62
7
  6
BYLAYER
 10
20.181159075
 20
37.1521277884
 11
20.128654373
 21
37.1475342222
  0
LINE
  5
237
100
AcDbEntity
  8
0
100
AcDbLine
 62
7
  6
BYLAYER
 10
19.6723083968
 20
36.6581630764
 11
55.5533747941
 21
36.6581630764
  0
LINE
  5
238
100
AcDbEntity
  8
0
100
AcDbLine
 62
7
  6
BYLAYER
 10
55.0970288179
 20
37.1475342222
 11
20.1293201173
 21
37.1475342222
  0
LINE
  5
239
100
AcDbEntity
  8
0
100
AcDbLine
 62
7
  6
BYLAYER
 10
20.181159075
 20
37.1521277884
 11
55.0445241159
 21
37.1521277884
  0
LINE
  5
23A
100
AcDbEntity
  8
0
100
AcDbLine
 62
7
  6
BYLAYER
 10
55.0445241159
 20
37.1521277884
 11
55.0970288179
 21
37.1475342222
  0
LINE
  5
23B
100
AcDbEntity
  8
0
100
AcDbLine
 62
7
  6
BYLAYER
 10
25.3509905687
 20
85.6382220051
 11
25.3509905687
 21
75.1382220051
  0
LINE
  5
23C
100
AcDbEntity
  8
0
100
AcDbLine
 62
7
  6
BYLAYER
 10
26.6431864809
 20
30.1274959012
 11
26.6431864809
 21
28.0776285335
  0
LINE
  5
23D
100
AcDbEntity
  8
0
100
AcDbLine
 62
7
  6
BYLAYER
 10
26.6431864809
 20
24.7726328794
 11
26.6431864809
 21
22.8313715094
  0
LINE
  5
23E
100
AcDbEntity
  8
0
100
AcDbLine
 62
7
  6
BYLAYER
 10
28.2128415955
 20
19.4251307064
 11
28.2128415955
 21
21.9251307064
  0
LINE
  5
23F
100
AcDbEntity
  8
0
100
AcDbLine
 62
7
  6
BYLAYER
 10
20.2482178704
 20
40.9925879017
 11
22.2712010518
 21
40.9925879017
  0
LINE
  5
240
100
AcDbEntity
  8
0
100
AcDbLine
 62
7
  6
BYLAYER
 10
47.0714202392
 20
26.2837093502
 11
48.5824967101
 21
24.7726328794
  0
LINE
  5
241
100
AcDbEntity
  8
0
100
AcDbLine
 62
7
  6
BYLAYER
 10
31.1128415955
 20
8.4251307064
 11
31.1128415955
 21
15.5251307064
  0
LINE
  5
242
100
AcDbEntity
  8
0
100
AcDbLine
 62
7
  6
BYLAYER
 10
31.6128415955
 20
93.2340768167
 11
31.6128415955
 21
86.1382220051
  0
LINE
  5
243
100
AcDbEntity
  8
0
100
AcDbLine
 62
7
  6
BYLAYER
 10
32.0628415955
 20
16.9721869813
 11
32.0628415955
 21
19.4251307064
  0
LINE
  5
244
100
AcDbEntity
  8
0
100
AcDbLine
 62
7
  6
BYLAYER
 10
32.1280140382
 20
30.1274959012
 11
32.1280140382
 21
28.0776285335
  0
LINE
  5
245
100
AcDbEntity
  8
0
100
AcDbLine
 62
7
  6
BYLAYER
 10
32.1280140382
 20
24.7726328794
 11
32.1280140382
 21
22.8313715094
  0
LINE
  5
246
100
AcDbEntity
  8
0
100
AcDbLine
 62
7
  6
BYLAYER
 10
32.3128415955
 20
95.6382220051
 11
32.3128415955
 21
93.6382220051
  0
LINE
  5
247
100
AcDbEntity
  8
0
100
AcDbLine
 62
7
  6
BYLAYER
 10
33.1246926222
 20
85.6382220051
 11
33.1246926222
 21
75.1382220051
  0
LINE
  5
248
100
AcDbEntity
  8
0
100
AcDbLine
 62
7
  6
BYLAYER
 10
42.1009905687
 20
85.6382220051
 11
42.1009905687
 21
75.1382220051
  0
LINE
  5
249
100
AcDbEntity
  8
0
100
AcDbLine
 62
7
  6
BYLAYER
 10
42.9128415955
 20
95.6382220051
 11
42.9128415955
 21
93.6382220051
  0
LINE
  5
24A
100
AcDbEntity
  8
0
100
AcDbLine
 62
7
  6
BYLAYER
 10
43.0976691528
 20
30.1274959012
 11
43.0976691528
 21
28.0776285335
  0
LINE
  5
24B
100
AcDbEntity
  8
0
100
AcDbLine
 62
7
  6
BYLAYER
 10
43.0976691528
 20
24.7726328794
 11
43.0976691528
 21
22.8313715094
  0
LINE
  5
24C
100
AcDbEntity
  8
0
100
AcDbLine
 62
7
  6
BYLAYER
 10
43.1628415955
 20
19.4251307064
 11
43.1628415955
 21
16.9721869813
  0
LINE
  5
24D
100
AcDbEntity
  8
0
100
AcDbLine
 62
7
  6
BYLAYER
 10
43.6128415955
 20
93.2340768167
 11
43.6128415955
 21
86.1382220051
  0
LINE
  5
24E
100
AcDbEntity
  8
0
100
AcDbLine
 62
7
  6
BYLAYER
 10
44.1128415955
 20
15.5251307064
 11
44.1128415955
 21
8.4251307064
  0
LINE
  5
24F
100
AcDbEntity
  8
0
100
AcDbLine
 62
7
  6
BYLAYER
 10
47.0128415955
 20
21.9251307064
 11
47.0128415955
 21
19.4251307064
  0
LINE
  5
250
100
AcDbEntity
  8
0
100
AcDbLine
 62
7
  6
BYLAYER
 10
48.5824967101
 20
30.1274959012
 11
48.5824967101
 21
28.0776285335
  0
LINE
  5
251
100
AcDbEntity
  8
0
100
AcDbLine
 62
7
  6
BYLAYER
 10
48.5824967101
 20
24.7726328794
 11
48.5824967101
 21
22.8313715094
  0
LINE
  5
252
100
AcDbEntity
  8
0
100
AcDbLine
 62
7
  6
BYLAYER
 10
49.8746926222
 20
85.6382220051
 11
49.8746926222
 21
75.1382220051
  0
LINE
  5
253
100
AcDbEntity
  8
0
100
AcDbLine
 62
7
  6
BYLAYER
 10
50.6128415955
 20
30.1274959012
 11
50.6128415955
 21
32.9774959012
  0
LINE
  5
254
100
AcDbEntity
  8
0
100
AcDbLine
 62
7
  6
BYLAYER
 10
26.6431864808
 20
24.7726328794
 11
28.1542629517
 21
26.2837093502
  0
LINE
  5
255
100
AcDbEntity
  8
0
100
AcDbLine
 62
7
  6
BYLAYER
 10
51.0128415955
 20
72.8382220051
 11
51.0128415955
 21
75.1382220051
  0
LINE
  5
256
100
AcDbEntity
  8
0
100
AcDbLine
 62
7
  6
BYLAYER
 10
22.7645645135
 20
65.9925879017
 11
20.6845959412
 21
65.9925879017
  0
LINE
  5
257
100
AcDbEntity
  8
0
100
AcDbLine
 62
7
  6
BYLAYER
 10
54.4216210243
 20
72.8382220051
 11
55.0445241159
 21
37.1521277884
  0
LINE
  5
258
100
AcDbEntity
  8
0
100
AcDbLine
 62
7
  6
BYLAYER
 10
55.5533747941
 20
36.6581630764
 11
55.6130700875
 21
33.2382220051
  0
LINE
  5
259
100
AcDbEntity
  8
0
100
AcDbLine
 62
7
  6
BYLAYER
 10
54.0128415955
 20
33.0377158752
 11
54.0128415955
 21
33.2382220051
  0
LINE
  5
25A
100
AcDbEntity
  8
0
100
AcDbLine
 62
7
  6
BYLAYER
 10
54.3628415955
 20
85.6382220051
 11
54.3628415955
 21
75.1382220051
  0
LINE
  5
25B
100
AcDbEntity
  8
0
100
AcDbLine
 62
7
  6
BYLAYER
 10
31.1128415955
 20
15.5251307064
 11
31.7113697329
 21
16.1236588439
  0
LINE
  5
25C
100
AcDbEntity
  8
0
100
AcDbLine
 62
7
  6
BYLAYER
 10
20.8043266973
 20
72.8382220051
 11
54.4213564936
 21
72.8382220051
  0
LINE
  5
25D
100
AcDbEntity
  8
0
100
AcDbLine
 62
7
  6
BYLAYER
 10
48.5824967101
 20
28.0776285335
 11
47.0714202392
 21
26.5665520627
  0
LINE
  5
25E
100
AcDbEntity
  8
0
100
AcDbLine
 62
7
  6
BYLAYER
 10
54.3628415955
 20
75.1382220051
 11
20.8628415955
 21
75.1382220051
  0
LINE
  5
25F
100
AcDbEntity
  8
0
100
AcDbLine
 62
7
  6
BYLAYER
 10
43.6128415955
 20
86.1382220051
 11
44.1128415955
 21
85.6382220051
  0
LINE
  5
260
100
AcDbEntity
  8
0
100
AcDbLine
 62
7
  6
BYLAYER
 10
48.5824967101
 20
22.8313715094
 11
47.0128415955
 21
21.9251307064
  0
LINE
  5
261
100
AcDbEntity
  8
0
100
AcDbLine
 62
7
  6
BYLAYER
 10
44.1128415955
 20
8.4251307064
 11
43.1128415955
 21
7.4251307064
  0
LINE
  5
262
100
AcDbEntity
  8
0
100
AcDbLine
 62
7
  6
BYLAYER
 10
20.8628415955
 20
85.6382220051
 11
54.3628415955
 21
85.6382220051
  0
LINE
  5
263
100
AcDbEntity
  8
0
100
AcDbLine
 62
7
  6
BYLAYER
 10
43.6128415955
 20
86.1382220051
 11
31.6128415955
 21
86.1382220051
  0
LINE
  5
264
100
AcDbEntity
  8
0
100
AcDbLine
 62
7
  6
BYLAYER
 10
31.6128415955
 20
93.2340768167
 11
43.6128415955
 21
93.2340768167
  0
LINE
  5
265
100
AcDbEntity
  8
0
100
AcDbLine
 62
7
  6
BYLAYER
 10
42.9128415955
 20
93.6382220051
 11
43.6128415955
 21
93.2340768167
  0
LINE
  5
266
100
AcDbEntity
  8
0
100
AcDbLine
 62
7
  6
BYLAYER
 10
42.9128415955
 20
93.6382220051
 11
32.3128415955
 21
93.6382220051
  0
LINE
  5
267
100
AcDbEntity
  8
0
100
AcDbLine
 62
7
  6
BYLAYER
 10
32.3130750997
 20
95.6382220051
 11
42.9126080912
 21
95.6382220051
  0
ARC
  5
268
100
AcDbEntity
  8
0
100
AcDbCircle
 62
7
  6
BYLAYER
 10
44.3628415955
 20
16.9721869813
 40
1.2
100
AcDbArc
 50
180.0
 51
225.0
  0
ARC
  5
269
100
AcDbEntity
  8
0
100
AcDbCircle
 62
7
  6
BYLAYER
 10
30.8628415955
 20
16.9721869813
 40
1.2
100
AcDbArc
 50
315.0
 51
360.0
  0
ARC
  5
26A
100
AcDbEntity
  8
0
100
AcDbCircle
 62
7
  6
BYLAYER
 10
55.0534509465
 20
36.6494368731
 40
0.5
100
AcDbArc
 50
1.0
 51
85.0
  0
ARC
  5
26B
100
AcDbEntity
  8
0
100
AcDbCircle
 62
7
  6
BYLAYER
 10
20.1722322444
 20
36.6494368731
 40
0.5
100
AcDbArc
 50
95.0
 51
179.0
  0
ARC
  5
26C
100
AcDbEntity
  8
0
100
AcDbCircle
 62
7
  6
BYLAYER
 10
47.2128415955
 20
26.4251307064
 40
0.2
100
AcDbArc
 50
135.0
 51
225.0
  0
ARC
  5
26D
100
AcDbEntity
  8
0
100
AcDbCircle
 62
7
  6
BYLAYER
 10
28.0128415955
 20
26.4251307064
 40
0.2
100
AcDbArc
 50
315.0
 51
45.0
  0
SPLINE
  5
26E
100
AcDbEntity
  8
0
100
AcDbSpline
 62
7
  6
BYLAYER
 70
0
 71
3
 72
15
 73
11
 74
0
 42
0.0000001
 43
0.0000001
 44
0.0000000001
 40
0.0
 40
0.0
 40
0.0
 40
0.0
 40
0.1654714987
 40
0.3242782482
 40
0.4715852232
 40
0.6050791786
 40
0.7238596698
 40
0.8280819941
 40
0.9190977705
 40
1.0
 40
1.0
 40
1.0
 40
1.0
 10
23.5472087832
 20
42.9925879017
 30
0.0
 10
23.5441899219
 20
42.8513314856
 30
0.0
 10
23.5168294605
 20
42.5745353252
 30
0.0
 10
23.4187293049
 20
42.1826150463
 30
0.0
 10
23.2754623592
 20
41.8342172823
 30
0.0
 10
23.1002425674
 20
41.5399650098
 30
0.0
 10
22.9049367972
 20
41.3047385229
 30
0.0
 10
22.6986856735
 20
41.1307055009
 30
0.0
 10
22.487566113
 20
41.0206970189
 30
0.0
 10
22.3402798273
 20
40.9925879017
 30
0.0
 10
22.2712010518
 20
40.9925879017
 30
0.0
  0
SPLINE
  5
26F
100
AcDbEntity
  8
0
100
AcDbSpline
 62
7
  6
BYLAYER
 70
0
 71
3
 72
9
 73
5
 74
0
 42
0.0000001
 43
0.0000001
 44
0.0000000001
 40
0.0
 40
0.0
 40
0.0
 40
0.0
 40
0.5
 40
1.0
 40
1.0
 40
1.0
 40
1.0
 10
23.9984575361
 20
63.9925879017
 30
0.0
 10
23.9228282943
 20
60.4925969738
 30
0.0
 10
23.7724743346
 20
53.4925956115
 30
0.0
 10
23.6220092161
 20
46.492596641
 30
0.0
 10
23.5472087832
 20
42.9925879017
 30
0.0
  0
SPLINE
  5
270
100
AcDbEntity
  8
0
100
AcDbSpline
 62
7
  6
BYLAYER
 70
0
 71
3
 72
14
 73
10
 74
0
 42
0.0000001
 43
0.0000001
 44
0.0000000001
 40
0.0
 40
0.0
 40
0.0
 40
0.0
 40
0.082570524
 40
0.1742418405
 40
0.278434199
 40
0.3967704812
 40
0.5297379737
 40
0.6767306137
 40
1.0
 40
1.0
 40
1.0
 40
1.0
 10
22.7645645135
 20
65.9925879017
 30
0.0
 10
22.8348470238
 20
65.9925879017
 30
0.0
 10
22.9837528856
 20
65.9655044716
 30
0.0
 10
23.1970479365
 20
65.8568472739
 30
0.0
 10
23.4035544441
 20
65.6839768133
 30
0.0
 10
23.5964719924
 20
65.4489393767
 30
0.0
 10
23.7664637693
 20
65.1538555743
 30
0.0
 10
23.9513919233
 20
64.6733113464
 30
0.0
 10
24.0044019394
 20
64.2676846365
 30
0.0
 10
23.9984575361
 20
63.9925879017
 30
0.0
  0
SPLINE
  5
271
100
AcDbEntity
  8
0
100
AcDbSpline
 62
7
  6
BYLAYER
 70
0
 71
3
 72
19
 73
15
 74
0
 42
0.0000001
 43
0.0000001
 44
0.0000000001
 40
0.0
 40
0.0
 40
0.0
 40
0.0
 40
0.1379132369
 40
0.2668121499
 40
0.3277688772
 40
0.3865907842
 40
0.4437517035
 40
0.5
 40
0.5562482965
 40
0.6134092158
 40
0.6722311228
 40
0.7331878501
 40
0.8620867631
 40
1.0
 40
1.0
 40
1.0
 40
1.0
 10
32.1280140382
 20
28.0776285335
 30
0.0
 10
31.9205879909
 20
27.8702024863
 30
0.0
 10
31.5024369285
 20
27.4851171047
 30
0.0
 10
30.9309822269
 20
27.0798967795
 30
0.0
 10
30.4588264202
 20
26.8393884064
 30
0.0
 10
30.1052487991
 20
26.7076185748
 30
0.0
 10
29.7467798672
 20
26.6264229144
 30
0.0
 10
29.3856002595
 20
26.5987260379
 30
0.0
 10
29.0244206519
 20
26.6264229144
 30
0.0
 10
28.6659517199
 20
26.7076185748
 30
0.0
 10
28.3123740988
 20
26.8393884064
 30
0.0
 10
27.8402182921
 20
27.0798967795
 30
0.0
 10
27.2687635905
 20
27.4851171047
 30
0.0
 10
26.8506125281
 20
27.8702024863
 30
0.0
 10
26.6431864809
 20
28.0776285335
 30
0.0
  0
SPLINE
  5
272
100
AcDbEntity
  8
0
100
AcDbSpline
 62
7
  6
BYLAYER
 70
0
 71
3
 72
15
 73
11
 74
0
 42
0.0000001
 43
0.0000001
 44
0.0000000001
 40
0.0
 40
0.0
 40
0.0
 40
0.0
 40
0.1250147044
 40
0.2500256211
 40
0.3750192854
 40
0.5
 40
0.6249807146
 40
0.7499743789
 40
0.8749852956
 40
1.0
 40
1.0
 40
1.0
 40
1.0
 10
43.0976691528
 20
28.0776285335
 30
0.0
 10
42.6707082741
 20
27.8641480942
 30
0.0
 10
41.8015081564
 20
27.4664632493
 30
0.0
 10
40.4475934847
 20
26.9923851523
 30
0.0
 10
39.0458128059
 20
26.6808629775
 30
0.0
 10
37.6128415955
 20
26.5714334024
 30
0.0
 10
36.1798703851
 20
26.6808629775
 30
0.0
 10
34.7780897062
 20
26.9923851523
 30
0.0
 10
33.4241750345
 20
27.4664632493
 30
0.0
 10
32.5549749168
 20
27.8641480942
 30
0.0
 10
32.1280140382
 20
28.0776285335
 30
0.0
  0
SPLINE
  5
273
100
AcDbEntity
  8
0
100
AcDbSpline
 62
7
  6
BYLAYER
 70
0
 71
3
 72
19
 73
15
 74
0
 42
0.0000001
 43
0.0000001
 44
0.0000000001
 40
0.0
 40
0.0
 40
0.0
 40
0.0
 40
0.1379132369
 40
0.2668121499
 40
0.3277688772
 40
0.3865907842
 40
0.4437517035
 40
0.5
 40
0.5562482965
 40
0.6134092158
 40
0.6722311228
 40
0.7331878501
 40
0.8620867631
 40
1.0
 40
1.0
 40
1.0
 40
1.0
 10
48.5824967101
 20
28.0776285335
 30
0.0
 10
48.3750706628
 20
27.8702024863
 30
0.0
 10
47.9569196004
 20
27.4851171047
 30
0.0
 10
47.3854648988
 20
27.0798967795
 30
0.0
 10
46.9133090921
 20
26.8393884064
 30
0.0
 10
46.559731471
 20
26.7076185748
 30
0.0
 10
46.2012625391
 20
26.6264229144
 30
0.0
 10
45.8400829314
 20
26.5987260379
 30
0.0
 10
45.4789033238
 20
26.6264229144
 30
0.0
 10
45.1204343919
 20
26.7076185748
 30
0.0
 10
44.7668567707
 20
26.8393884064
 30
0.0
 10
44.294700964
 20
27.0798967795
 30
0.0
 10
43.7232462624
 20
27.4851171047
 30
0.0
 10
43.3050952
 20
27.8702024863
 30
0.0
 10
43.0976691528
 20
28.0776285335
 30
0.0
  0
SPLINE
  5
274
100
AcDbEntity
  8
0
100
AcDbSpline
 62
7
  6
BYLAYER
 70
0
 71
3
 72
19
 73
15
 74
0
 42
0.0000001
 43
0.0000001
 44
0.0000000001
 40
0.0
 40
0.0
 40
0.0
 40
0.0
 40
0.1379132369
 40
0.2668121499
 40
0.3277688772
 40
0.3865907842
 40
0.4437517035
 40
0.5
 40
0.5562482965
 40
0.6134092158
 40
0.6722311228
 40
0.7331878501
 40
0.8620867631
 40
1.0
 40
1.0
 40
1.0
 40
1.0
 10
43.0976691528
 20
24.7726328794
 30
0.0
 10
43.3050952
 20
24.9800589266
 30
0.0
 10
43.7232462624
 20
25.3651443081
 30
0.0
 10
44.294700964
 20
25.7703646334
 30
0.0
 10
44.7668567707
 20
26.0108730065
 30
0.0
 10
45.1204343919
 20
26.1426428381
 30
0.0
 10
45.4789033238
 20
26.2238384985
 30
0.0
 10
45.8400829314
 20
26.251535375
 30
0.0
 10
46.2012625391
 20
26.2238384985
 30
0.0
 10
46.559731471
 20
26.1426428381
 30
0.0
 10
46.9133090921
 20
26.0108730065
 30
0.0
 10
47.3854648988
 20
25.7703646334
 30
0.0
 10
47.9569196004
 20
25.3651443081
 30
0.0
 10
48.3750706628
 20
24.9800589266
 30
0.0
 10
48.5824967101
 20
24.7726328794
 30
0.0
  0
SPLINE
  5
275
100
AcDbEntity
  8
0
100
AcDbSpline
 62
7
  6
BYLAYER
 70
0
 71
3
 72
15
 73
11
 74
0
 42
0.0000001
 43
0.0000001
 44
0.0000000001
 40
0.0
 40
0.0
 40
0.0
 40
0.0
 40
0.1250147044
 40
0.2500256211
 40
0.3750192854
 40
0.5
 40
0.6249807146
 40
0.7499743789
 40
0.8749852956
 40
1.0
 40
1.0
 40
1.0
 40
1.0
 10
32.1280140382
 20
24.7726328794
 30
0.0
 10
32.5549749168
 20
24.9861133187
 30
0.0
 10
33.4241750345
 20
25.3837981636
 30
0.0
 10
34.7780897062
 20
25.8578762606
 30
0.0
 10
36.1798703851
 20
26.1693984354
 30
0.0
 10
37.6128415955
 20
26.2788280105
 30
0.0
 10
39.0458128059
 20
26.1693984354
 30
0.0
 10
40.4475934847
 20
25.8578762606
 30
0.0
 10
41.8015081564
 20
25.3837981636
 30
0.0
 10
42.6707082741
 20
24.9861133187
 30
0.0
 10
43.0976691528
 20
24.7726328794
 30
0.0
  0
SPLINE
  5
276
100
AcDbEntity
  8
0
100
AcDbSpline
 62
7
  6
BYLAYER
 70
0
 71
3
 72
19
 73
15
 74
0
 42
0.0000001
 43
0.0000001
 44
0.0000000001
 40
0.0
 40
0.0
 40
0.0
 40
0.0
 40
0.1379132369
 40
0.2668121499
 40
0.3277688772
 40
0.3865907842
 40
0.4437517035
 40
0.5
 40
0.5562482965
 40
0.6134092158
 40
0.6722311228
 40
0.7331878501
 40
0.8620867631
 40
1.0
 40
1.0
 40
1.0
 40
1.0
 10
26.6431864809
 20
24.7726328794
 30
0.0
 10
26.8506125281
 20
24.9800589266
 30
0.0
 10
27.2687635905
 20
25.3651443081
 30
0.0
 10
27.8402182921
 20
25.7703646334
 30
0.0
 10
28.3123740988
 20
26.0108730065
 30
0.0
 10
28.6659517199
 20
26.1426428381
 30
0.0
 10
29.0244206519
 20
26.2238384985
 30
0.0
 10
29.3856002595
 20
26.251535375
 30
0.0
 10
29.7467798672
 20
26.2238384985
 30
0.0
 10
30.1052487991
 20
26.1426428381
 30
0.0
 10
30.4588264202
 20
26.0108730065
 30
0.0
 10
30.9309822269
 20
25.7703646334
 30
0.0
 10
31.5024369285
 20
25.3651443081
 30
0.0
 10
31.9205879909
 20
24.9800589266
 30
0.0
 10
32.1280140382
 20
24.7726328794
 30
0.0
  0
SPLINE
  5
277
100
AcDbEntity
  8
0
100
AcDbSpline
 62
7
  6
BYLAYER
 70
0
 71
3
 72
15
 73
11
 74
0
 42
0.0000001
 43
0.0000001
 44
0.0000000001
 40
0.0
 40
0.0
 40
0.0
 40
0.0
 40
0.1308321166
 40
0.2572557787
 40
0.3797985916
 40
0.5
 40
0.6202014084
 40
0.7427442213
 40
0.8691678834
 40
1.0
 40
1.0
 40
1.0
 40
1.0
 10
32.1280140382
 20
22.8313715094
 30
0.0
 10
31.9087683331
 20
22.7047899426
 30
0.0
 10
31.4678809984
 20
22.4720031391
 30
0.0
 10
30.7839563301
 20
22.1984065426
 30
0.0
 10
30.0886531346
 20
22.0234943602
 30
0.0
 10
29.3856002595
 20
21.9627887403
 30
0.0
 10
28.6825473844
 20
22.0234943602
 30
0.0
 10
27.987244189
 20
22.1984065426
 30
0.0
 10
27.3033195206
 20
22.4720031391
 30
0.0
 10
26.8624321859
 20
22.7047899426
 30
0.0
 10
26.6431864809
 20
22.8313715094
 30
0.0
  0
SPLINE
  5
278
100
AcDbEntity
  8
0
100
AcDbSpline
 62
7
  6
BYLAYER
 70
0
 71
3
 72
15
 73
11
 74
0
 42
0.0000001
 43
0.0000001
 44
0.0000000001
 40
0.0
 40
0.0
 40
0.0
 40
0.0
 40
0.1250022065
 40
0.2500063241
 40
0.3750042929
 40
0.5
 40
0.6249957071
 40
0.7499936759
 40
0.8749977935
 40
1.0
 40
1.0
 40
1.0
 40
1.0
 10
43.0976691528
 20
22.8313715094
 30
0.0
 10
42.6518885065
 20
22.7026857213
 30
0.0
 10
41.753930701
 20
22.4665159334
 30
0.0
 10
40.3877203413
 20
22.1949050512
 30
0.0
 10
39.0051160633
 20
22.0225295167
 30
0.0
 10
37.6128415955
 20
21.9630755318
 30
0.0
 10
36.2205671276
 20
22.0225295167
 30
0.0
 10
34.8379628496
 20
22.1949050512
 30
0.0
 10
33.4717524899
 20
22.4665159334
 30
0.0
 10
32.5737946844
 20
22.7026857213
 30
0.0
 10
32.1280140382
 20
22.8313715094
 30
0.0
  0
SPLINE
  5
279
100
AcDbEntity
  8
0
100
AcDbSpline
 62
7
  6
BYLAYER
 70
0
 71
3
 72
15
 73
11
 74
0
 42
0.0000001
 43
0.0000001
 44
0.0000000001
 40
0.0
 40
0.0
 40
0.0
 40
0.0
 40
0.1308321166
 40
0.2572557787
 40
0.3797985916
 40
0.5
 40
0.6202014084
 40
0.7427442213
 40
0.8691678834
 40
1.0
 40
1.0
 40
1.0
 40
1.0
 10
48.5824967101
 20
22.8313715094
 30
0.0
 10
48.363251005
 20
22.7047899426
 30
0.0
 10
47.9223636703
 20
22.4720031391
 30
0.0
 10
47.238439002
 20
22.1984065426
 30
0.0
 10
46.5431358065
 20
22.0234943602
 30
0.0
 10
45.8400829314
 20
21.9627887403
 30
0.0
 10
45.1370300563
 20
22.0234943602
 30
0.0
 10
44.4417268609
 20
22.1984065426
 30
0.0
 10
43.7578021925
 20
22.4720031391
 30
0.0
 10
43.3169148578
 20
22.7047899426
 30
0.0
 10
43.0976691528
 20
22.8313715094
 30
0.0
  0
ENDSEC
  0
SECTION
  2
OBJECTS
  0
DICTIONARY
  5
C
100
AcDbDictionary
280
0
281
1
  3
ACAD_GROUP
350
D
  3
ACAD_MLINESTYLE
350
17
  3
ACAD_LAYOUT
350
1A
  3
ACAD_PLOTSETTINGS
350
19
  3
ACAD_PLOTSTYLENAME
350
E
  0
DICTIONARY
  5
D
102
{ACAD_REACTORS
330
C
102
}
100
AcDbDictionary
280
0
281
1
  0
ACDBDICTIONARYWDFLT
  5
E
102
{ACAD_REACTORS
330
C
102
}
100
AcDbDictionary
281
1
  3
Normal
350
F
100
AcDbDictionaryWithDefault
340
F
  0
DICTIONARY
  5
17
102
{ACAD_REACTORS
330
C
102
}
100
AcDbDictionary
280
0
281
1
  3
Standard
350
18
  0
DICTIONARY
  5
19
102
{ACAD_REACTORS
330
C
102
}
100
AcDbDictionary
281
1
  0
DICTIONARY
  5
1A
102
{ACAD_REACTORS
330
C
102
}
100
AcDbDictionary
281
1
  3
Model
350
27A
  3
Layout1
350
27B
  0
ACDBPLACEHOLDER
  5
F
102
{ACAD_REACTORS
330
E
102
}
  0
MLINESTYLE
  5
18
102
{ACAD_REACTORS
330
17
102
}
100
AcDbMlineStyle
  2
STANDARD
 70
0
  3

 62
256
 51
90.0
 52
90.0
 71
2
 49
0.5
 62
256
  6
BYLAYER
 49
-0.5
 62
256
  6
BYLAYER
  0
LAYOUT
  5
27A
102
{ACAD_REACTORS
330
1A
102
}
100
AcDbPlotSettings
  1

  2
none_device
  4

  6

 40
0.0
 41
0.0
 42
0.0
 43
0.0
 44
210.0
 45
297.0
 46
0.0
 47
0.0
 48
0.0
 49
0.0
140
0.0
141
0.0
142
1.0
143
1.0
 70
1024
 72
1
 73
0
 74
0
  7

 75
0
147
1.0
148
0.0
149
0.0
100
AcDbLayout
  1
Model
 70
0
 71
0
 10
0.0
 20
0.0
 11
210.0
 21
297.0
 12
0.0
 22
0.0
 32
0.0
 14
0.0
 24
0.0
 34
0.0
 15
0.0
 25
0.0
 35
0.0
146
0.0
 13
0.0
 23
0.0
 33
0.0
 16
1.0
 26
0.0
 36
0.0
 17
0.0
 27
1.0
 37
0.0
 76
0
330
212
345
0
346
0
  0
LAYOUT
  5
27B
102
{ACAD_REACTORS
330
1A
102
}
100
AcDbPlotSettings
  1

  2
none_device
  4

  6

 40
0.0
 41
0.0
 42
0.0
 43
0.0
 44
210.0
 45
297.0
 46
0.0
 47
0.0
 48
0.0
 49
0.0
140
0.0
141
0.0
142
1.0
143
1.0
 70
0
 72
1
 73
0
 74
0
  7

 75
0
147
1.0
148
0.0
149
0.0
100
AcDbLayout
  1
Layout1
 70
0
 71
1
 10
0.0
 20
0.0
 11
210.0
 21
297.0
 12
0.0
 22
0.0
 32
0.0
 14
0.0
 24
0.0
 34
0.0
 15
0.0
 25
0.0
 35
0.0
146
0.0
 13
0.0
 23
0.0
 33
0.0
 16
1.0
 26
0.0
 36
0.0
 17
0.0
 27
1.0
 37
0.0
 76
0
330
213
345
0
346
0
  0
ENDSEC
  0
EOF
