999
DXF file: C:\Users\sesa63760\Dev\_Creo\CAD\MCADID0003550_3D-CAD\drw0001_6.dxf
999
Pro/ENGINEER 2019471 by Parametric Technology Corporation
  0
SECTION
  2
HEADER
  9
$ACADVER
  1
AC1024
  9
$DWGCODEPAGE
  3
ANSI_1252
  9
$EXTMAX
 10
83.8036273538
 20
118.5222729718
 30
0.0
  9
$EXTMIN
 10
0.0
 20
0.0
 30
0.0
  9
$LIMMIN
 10
0.0
 20
0.0
  9
$LIMMAX
 10
83.8036273538
 20
118.5222729718
  9
$VIEWCTR
 10
41.9018136769
 20
59.2611364859
  9
$VIEWSIZE
 40
118.5222729718
  9
$CLAYER
  8
0
  9
$LTSCALE
 40
7.7258963122
  9
$CELTYPE
  6
BYLAYER
  9
$DIMSCALE
 40
1.0
  9
$DIMASZ
 40
0.9976622304
  9
$DIMEXO
 40
1.0
  9
$DIMDLI
 40
5.3378919975
  9
$DIMEXE
 40
1.0
  9
$DIMCEN
 40
1.2642375784
  9
$DIMLFAC
 40
1.0
  9
$DIMBLK
  1
_FILLED
  9
$DIMALT
 70
0
  9
$DIMALTF
 40
0.0393700787
  9
$DIMTXT
 40
1.3967271226
  9
$DIMTOL
 70
1
  9
$DIMLIM
 70
0
  9
$DIMTFAC
 40
1.0
  9
$DIMTP
 40
0.01
  9
$DIMTM
 40
0.01
  9
$DIMGAP
 40
0.625
  9
$DIMDSEP
 70
46
  9
$AUNITS
 70
0
  9
$PDMODE
 70
3
  9
$PDSIZE
 40
0.3125
  9
$HANDSEED
  5
274
  9
$TILEMODE
 70
1
  9
$MEASUREMENT
 70
1
  9
$INSUNITS
 70
4
  0
ENDSEC
  0
SECTION
  2
CLASSES
  0
CLASS
  1
ACDBDICTIONARYWDFLT
  2
AcDbDictionaryWithDefault
  3
AutoCAD 2000
 90
0
 91
1
280
0
281
0
  0
CLASS
  1
ACDBPLACEHOLDER
  2
AcDbPlaceHolder
  3
AutoCAD 2000
 90
0
 91
1
280
0
281
0
  0
CLASS
  1
LAYOUT
  2
AcDbLayout
  3
AutoCAD 2000
 90
0
 91
0
280
0
281
0
  0
ENDSEC
  0
SECTION
  2
TABLES
  0
TABLE
  2
VPORT
  5
8
100
AcDbSymbolTable
 70
2
  0
VPORT
  5
1F4
100
AcDbSymbolTableRecord
100
AcDbViewportTableRecord
  2
*ACTIVE
 70
0
 10
0.0
 20
0.0
 11
1.0
 21
1.0
 12
41.9018136769
 22
59.2611364859
 13
0.0
 23
0.0
 14
1.0
 24
1.0
 15
0.0
 25
0.0
 16
0.0
 26
0.0
 36
1.0
 17
0.0
 27
0.0
 37
0.0
 40
118.5222729718
 41
0.7070707071
 42
50.0
 43
0.0
 44
0.0
 50
0.0
 51
0.0
 71
0
 72
100
 73
1
 74
1
 75
0
 76
0
 77
0
 78
0
  0
ENDTAB
  0
TABLE
  2
LTYPE
  5
5
100
AcDbSymbolTable
 70
6
  0
LTYPE
  5
14
100
AcDbSymbolTableRecord
100
AcDbLinetypeTableRecord
  2
BYBLOCK
 70
0
  3

 72
65
 73
0
 40
0.0
  0
LTYPE
  5
15
100
AcDbSymbolTableRecord
100
AcDbLinetypeTableRecord
  2
BYLAYER
 70
0
  3

 72
65
 73
0
 40
0.0
  0
LTYPE
  5
16
100
AcDbSymbolTableRecord
100
AcDbLinetypeTableRecord
  2
CONTINUOUS
 70
64
  3
Solid line
 72
65
 73
0
 40
0.0
  0
LTYPE
  5
1F5
100
AcDbSymbolTableRecord
100
AcDbLinetypeTableRecord
  2
CENTER
 70
64
  3
____ _ ____ _ ____ _ ____ _ ____ _ ____ _ ____
 72
65
 73
4
 40
0.6
 49
0.375
 74
0
 49
-0.075
 74
0
 49
0.075
 74
0
 49
-0.075
 74
0
  0
LTYPE
  5
1F6
100
AcDbSymbolTableRecord
100
AcDbLinetypeTableRecord
  2
HIDDEN
 70
64
  3
- - - - - - - - - - - - - - - - - - - -
 72
65
 73
2
 40
0.2
 49
0.1
 74
0
 49
-0.1
 74
0
  0
LTYPE
  5
1F7
100
AcDbSymbolTableRecord
100
AcDbLinetypeTableRecord
  2
PHANTOM
 70
64
  3
_____ _ _ _____ _ _ _____ _ _ _____
 72
65
 73
6
 40
0.8
 49
0.45
 74
0
 49
-0.05
 74
0
 49
0.1
 74
0
 49
-0.05
 74
0
 49
0.1
 74
0
 49
-0.05
 74
0
  0
LTYPE
  5
1F8
100
AcDbSymbolTableRecord
100
AcDbLinetypeTableRecord
  2
DOT
 70
64
  3
. . . . . . . . . . . . . . . . . . . .
 72
65
 73
2
 40
0.2
 49
0.1
 74
0
 49
-0.1
 74
0
  0
LTYPE
  5
1F9
100
AcDbSymbolTableRecord
100
AcDbLinetypeTableRecord
  2
DASHED
 70
64
  3
- - - - - - - - - - - - - - - - - - - -
 72
65
 73
2
 40
0.2
 49
0.1
 74
0
 49
-0.1
 74
0
  0
ENDTAB
  0
TABLE
  2
LAYER
  5
2
100
AcDbSymbolTable
 70
36
  0
LAYER
  5
10
100
AcDbSymbolTableRecord
100
AcDbLayerTableRecord
  2
0
 70
0
 62
7
  6
CONTINUOUS
370
-3
390
F
  0
LAYER
  5
1FA
100
AcDbSymbolTableRecord
100
AcDbLayerTableRecord
  2
DEFAULT_1
 70
0
 62
7
  6
CENTER
370
-3
390
F
  0
LAYER
  5
1FB
100
AcDbSymbolTableRecord
100
AcDbLayerTableRecord
  2
DEFAULT_2
 70
0
 62
7
  6
HIDDEN
370
-3
390
F
  0
LAYER
  5
1FC
100
AcDbSymbolTableRecord
100
AcDbLayerTableRecord
  2
DEFAULT_3
 70
0
 62
7
  6
PHANTOM
370
-3
390
F
  0
LAYER
  5
1FD
100
AcDbSymbolTableRecord
100
AcDbLayerTableRecord
  2
00_COMPONENTS
 70
0
 62
7
  6
CONTINUOUS
370
-3
390
F
  0
LAYER
  5
1FE
100
AcDbSymbolTableRecord
100
AcDbLayerTableRecord
  2
01_1_DEFAULT_DATUMS
 70
0
 62
7
  6
CONTINUOUS
370
-3
390
F
  0
LAYER
  5
1FF
100
AcDbSymbolTableRecord
100
AcDbLayerTableRecord
  2
01_PLANES
 70
0
 62
7
  6
CONTINUOUS
370
-3
390
F
  0
LAYER
  5
200
100
AcDbSymbolTableRecord
100
AcDbLayerTableRecord
  2
02_COORD_SYS
 70
0
 62
7
  6
CONTINUOUS
370
-3
390
F
  0
LAYER
  5
201
100
AcDbSymbolTableRecord
100
AcDbLayerTableRecord
  2
03_AXES
 70
0
 62
7
  6
CONTINUOUS
370
-3
390
F
  0
LAYER
  5
202
100
AcDbSymbolTableRecord
100
AcDbLayerTableRecord
  2
04_POINTS
 70
0
 62
7
  6
CONTINUOUS
370
-3
390
F
  0
LAYER
  5
203
100
AcDbSymbolTableRecord
100
AcDbLayerTableRecord
  2
05_CURVES
 70
0
 62
7
  6
CONTINUOUS
370
-3
390
F
  0
LAYER
  5
204
100
AcDbSymbolTableRecord
100
AcDbLayerTableRecord
  2
06_SURFS
 70
0
 62
7
  6
CONTINUOUS
370
-3
390
F
  0
LAYER
  5
205
100
AcDbSymbolTableRecord
100
AcDbLayerTableRecord
  2
07_COSMETICS
 70
0
 62
7
  6
CONTINUOUS
370
-3
390
F
  0
LAYER
  5
206
100
AcDbSymbolTableRecord
100
AcDbLayerTableRecord
  2
10_NOTES
 70
0
 62
7
  6
CONTINUOUS
370
-3
390
F
  0
LAYER
  5
207
100
AcDbSymbolTableRecord
100
AcDbLayerTableRecord
  2
11_NOTES_PUB
 70
0
 62
7
  6
CONTINUOUS
370
-3
390
F
  0
LAYER
  5
208
100
AcDbSymbolTableRecord
100
AcDbLayerTableRecord
  2
13_REF_GTOL
 70
0
 62
7
  6
CONTINUOUS
370
-3
390
F
  0
LAYER
  5
209
100
AcDbSymbolTableRecord
100
AcDbLayerTableRecord
  2
16_MISC
 70
0
 62
7
  6
CONTINUOUS
370
-3
390
F
  0
LAYER
  5
20A
100
AcDbSymbolTableRecord
100
AcDbLayerTableRecord
  2
17_NO_PRINT
 70
0
 62
7
  6
CONTINUOUS
370
-3
390
F
  0
LAYER
  5
20B
100
AcDbSymbolTableRecord
100
AcDbLayerTableRecord
  2
18_DATUM_CAMS_JOINTS
 70
0
 62
7
  6
CONTINUOUS
370
-3
390
F
  0
LAYER
  5
20C
100
AcDbSymbolTableRecord
100
AcDbLayerTableRecord
  2
19_DATUM_FUNCTIONAL
 70
0
 62
7
  6
CONTINUOUS
370
-3
390
F
  0
LAYER
  5
20D
100
AcDbSymbolTableRecord
100
AcDbLayerTableRecord
  2
20_DATUM_KINEMATIC_SCHEME
 70
0
 62
7
  6
CONTINUOUS
370
-3
390
F
  0
ENDTAB
  0
TABLE
  2
STYLE
  5
3
100
AcDbSymbolTable
 70
1
  0
STYLE
  5
11
100
AcDbSymbolTableRecord
100
AcDbTextStyleTableRecord
  2
STANDARD
 70
0
 40
0.0
 41
1.0
 50
0.0
 71
0
 42
0.2
  3
ARIAL.TTF
  4

  0
STYLE
  5
20E
100
AcDbSymbolTableRecord
100
AcDbTextStyleTableRecord
  2
TEXTSTYLE_1
 70
0
 40
0.0
 41
0.8
 50
0.0
 71
0
 42
0.2
  3
gdt
  4

  0
ENDTAB
  0
TABLE
  2
VIEW
  5
6
100
AcDbSymbolTable
 70
0
  0
ENDTAB
  0
TABLE
  2
UCS
  5
7
100
AcDbSymbolTable
 70
0
  0
ENDTAB
  0
TABLE
  2
APPID
  5
9
100
AcDbSymbolTable
 70
1
  0
APPID
  5
20F
100
AcDbSymbolTableRecord
100
AcDbRegAppTableRecord
  2
ACAD
 70
0
  0
ENDTAB
  0
TABLE
  2
BLOCK_RECORD
  5
1
100
AcDbSymbolTable
 70
0
  0
BLOCK_RECORD
  5
210
100
AcDbSymbolTableRecord
100
AcDbBlockTableRecord
  2
*Model_Space
  0
BLOCK_RECORD
  5
211
100
AcDbSymbolTableRecord
100
AcDbBlockTableRecord
  2
*Paper_Space
  0
BLOCK_RECORD
  5
212
100
AcDbSymbolTableRecord
100
AcDbBlockTableRecord
  2
_FILLED
  0
ENDTAB
  0
TABLE
  2
DIMSTYLE
  5
A
100
AcDbSymbolTable
 70
1
100
AcDbDimStyleTable
 71
0
  0
DIMSTYLE
105
213
100
AcDbSymbolTableRecord
100
AcDbDimStyleTableRecord
  2
STANDARD
 70
0
  3

  4

 40
1.0
 41
0.9976622304
 42
1.0
 43
0.38
 44
1.0
 45
0.0
 46
0.0
 47
0.01
 48
0.01
140
1.3967271226
141
0.09
142
0.0
143
25.4
144
1.0
145
0.0
146
1.0
147
0.625
 71
1
 72
0
 73
0
 74
0
 75
0
 76
0
 77
1
 78
8
 79
2
170
0
171
1
172
0
173
0
174
0
175
0
176
0
177
0
178
0
270
2
179
2
271
2
272
2
273
2
274
2
275
0
280
0
281
0
282
0
283
1
284
8
285
0
286
0
287
3
288
0
340
11
278
46
341
212
342
212
343
212
344
212
  0
ENDTAB
  0
ENDSEC
  0
SECTION
  2
BLOCKS
  0
BLOCK
  5
20
100
AcDbEntity
  8
0
100
AcDbBlockBegin
  2
*Model_Space
 70
0
 10
0.0
 20
0.0
 30
0.0
  3
*Model_Space
  1

  0
ENDBLK
  5
21
100
AcDbEntity
  8
0
100
AcDbBlockEnd
  0
BLOCK
  5
1C
100
AcDbEntity
  8
0
100
AcDbBlockBegin
  2
*Paper_Space
 70
0
 10
0.0
 20
0.0
 30
0.0
  3
*Paper_Space
  1

  0
ENDBLK
  5
1D
100
AcDbEntity
  8
0
100
AcDbBlockEnd
  0
BLOCK
  5
214
100
AcDbEntity
  8
0
100
AcDbBlockBegin
  2
_FILLED
 70
64
 10
0.0
 20
0.0
  3
_FILLED
  1

  0
SOLID
  5
215
100
AcDbEntity
  8
0
  6
BYBLOCK
 62
0
100
AcDbTrace
 10
0.0
 20
0.0
 11
-1.0
 21
0.25
 12
-1.0
 22
-0.25
 13
-1.0
 23
-0.25
  0
ENDBLK
  5
216
100
AcDbEntity
  8
0
  6
BYBLOCK
 62
0
100
AcDbBlockEnd
  0
ENDSEC
  0
SECTION
  2
ENTITIES
  0
LINE
  5
217
100
AcDbEntity
  8
0
100
AcDbLine
 62
7
  6
BYLAYER
 10
42.8169077268
 20
14.7299146497
 11
47.3169077268
 21
14.7299146497
  0
LINE
  5
218
100
AcDbEntity
  8
0
100
AcDbLine
 62
7
  6
BYLAYER
 10
54.3169077268
 20
14.7299146497
 11
58.8169077268
 21
14.7299146497
  0
LINE
  5
219
100
AcDbEntity
  8
0
100
AcDbLine
 62
7
  6
BYLAYER
 10
44.0669077268
 20
17.5504651779
 11
47.3169077268
 21
17.5504665048
  0
LINE
  5
21A
100
AcDbEntity
  8
0
100
AcDbLine
 62
7
  6
BYLAYER
 10
54.3169077268
 20
17.5504915119
 11
57.5669077268
 21
17.5504651779
  0
LINE
  5
21B
100
AcDbEntity
  8
0
100
AcDbLine
 62
7
  6
BYLAYER
 10
58.8169077268
 20
19.7299146497
 11
57.5669077268
 21
19.7299146497
  0
LINE
  5
21C
100
AcDbEntity
  8
0
100
AcDbLine
 62
7
  6
BYLAYER
 10
44.0669077268
 20
19.7299146497
 11
42.8169077268
 21
19.7299146497
  0
LINE
  5
21D
100
AcDbEntity
  8
0
100
AcDbLine
 62
7
  6
BYLAYER
 10
46.0669077268
 20
20.7300411167
 11
47.3851736566
 21
20.7300411117
  0
LINE
  5
21E
100
AcDbEntity
  8
0
100
AcDbLine
 62
7
  6
BYLAYER
 10
54.2486417971
 20
20.7300411117
 11
55.5669077268
 21
20.7300411167
  0
LINE
  5
21F
100
AcDbEntity
  8
0
100
AcDbLine
 62
7
  6
BYLAYER
 10
37.582172574
 20
91.7278602028
 11
30.5593510065
 21
88.3026012606
  0
LINE
  5
220
100
AcDbEntity
  8
0
100
AcDbLine
 62
7
  6
BYLAYER
 10
57.5669077268
 20
27.2300411167
 11
55.5669077268
 21
27.2300411167
  0
LINE
  5
221
100
AcDbEntity
  8
0
100
AcDbLine
 62
7
  6
BYLAYER
 10
44.0669077268
 20
27.2300411167
 11
46.0669077268
 21
27.2300411167
  0
LINE
  5
222
100
AcDbEntity
  8
0
100
AcDbLine
 62
7
  6
BYLAYER
 10
31.7169077268
 20
86.7669493857
 11
38.7397292942
 21
90.1922083278
  0
LINE
  5
223
100
AcDbEntity
  8
0
100
AcDbLine
 62
7
  6
BYLAYER
 10
44.0669077268
 20
28.7300411167
 11
57.5669077268
 21
28.7300411167
  0
LINE
  5
224
100
AcDbEntity
  8
0
100
AcDbLine
 62
7
  6
BYLAYER
 10
31.1784493998
 20
105.8300411167
 11
31.757064596
 21
108.5065311085
  0
LINE
  5
225
100
AcDbEntity
  8
0
100
AcDbLine
 62
7
  6
BYLAYER
 10
27.4019546141
 20
70.4459284367
 11
27.4019546141
 21
78.2141537658
  0
LINE
  5
226
100
AcDbEntity
  8
0
100
AcDbLine
 62
7
  6
BYLAYER
 10
29.2025785316
 20
67.8315984612
 11
29.2025785316
 21
80.8284837722
  0
LINE
  5
227
100
AcDbEntity
  8
0
100
AcDbLine
 62
7
  6
BYLAYER
 10
29.7016437518
 20
80.8284837722
 11
29.7016437518
 21
67.8315984612
  0
LINE
  5
228
100
AcDbEntity
  8
0
100
AcDbLine
 62
7
  6
BYLAYER
 10
29.7169077268
 20
66.3301772843
 11
29.7169077268
 21
86.9544101913
  0
LINE
  5
229
100
AcDbEntity
  8
0
100
AcDbLine
 62
7
  6
BYLAYER
 10
31.1169077268
 20
95.7300411167
 11
31.1169077268
 21
105.7300409964
  0
LINE
  5
22A
100
AcDbEntity
  8
0
100
AcDbLine
 62
7
  6
BYLAYER
 10
31.1784493998
 20
105.8298535932
 11
31.1784493998
 21
95.6302286402
  0
LINE
  5
22B
100
AcDbEntity
  8
0
100
AcDbLine
 62
7
  6
BYLAYER
 10
31.7169077268
 20
65.5507045346
 11
31.7169077268
 21
86.7669493857
  0
LINE
  5
22C
100
AcDbEntity
  8
0
100
AcDbLine
 62
7
  6
BYLAYER
 10
31.7570645363
 20
92.9535512768
 11
31.7570646256
 21
108.5065312209
  0
LINE
  5
22D
100
AcDbEntity
  8
0
100
AcDbLine
 62
7
  6
BYLAYER
 10
32.0471495314
 20
92.7300411167
 11
32.0471495314
 21
108.7300411167
  0
LINE
  5
22E
100
AcDbEntity
  8
0
100
AcDbLine
 62
7
  6
BYLAYER
 10
37.3169077268
 20
108.7300411167
 11
37.3169077268
 21
92.7300411167
  0
LINE
  5
22F
100
AcDbEntity
  8
0
100
AcDbLine
 62
7
  6
BYLAYER
 10
37.5669077268
 20
105.4800411167
 11
37.5669077268
 21
95.9800411167
  0
LINE
  5
230
100
AcDbEntity
  8
0
100
AcDbLine
 62
7
  6
BYLAYER
 10
37.582172574
 20
91.7278602028
 11
37.582172574
 21
105.2306290103
  0
LINE
  5
231
100
AcDbEntity
  8
0
100
AcDbLine
 62
7
  6
BYLAYER
 10
39.582172574
 20
105.2306290103
 11
39.582172574
 21
91.5403993972
  0
LINE
  5
232
100
AcDbEntity
  8
0
100
AcDbLine
 62
7
  6
BYLAYER
 10
31.1784493998
 20
95.6300411167
 11
31.757064596
 21
92.9535511249
  0
LINE
  5
233
100
AcDbEntity
  8
0
100
AcDbLine
 62
7
  6
BYLAYER
 10
41.1169077268
 20
102.7800411167
 11
41.1169077268
 21
98.6800411167
  0
LINE
  5
234
100
AcDbEntity
  8
0
100
AcDbLine
 62
7
  6
BYLAYER
 10
42.6169077268
 20
62.0116066999
 11
42.6169077268
 21
59.8450149047
  0
LINE
  5
235
100
AcDbEntity
  8
0
100
AcDbLine
 62
7
  6
BYLAYER
 10
42.8169077268
 20
14.7299146497
 11
42.8169077268
 21
65.5506990661
  0
LINE
  5
236
100
AcDbEntity
  8
0
100
AcDbLine
 62
7
  6
BYLAYER
 10
44.0669077268
 20
17.5504651779
 11
44.0669077268
 21
28.7300411167
  0
LINE
  5
237
100
AcDbEntity
  8
0
100
AcDbLine
 62
7
  6
BYLAYER
 10
46.0669077268
 20
27.2300411167
 11
46.0669077268
 21
20.7300411167
  0
LINE
  5
238
100
AcDbEntity
  8
0
100
AcDbLine
 62
7
  6
BYLAYER
 10
42.8169077268
 20
59.8450149047
 11
42.6169077268
 21
59.8450149047
  0
LINE
  5
239
100
AcDbEntity
  8
0
100
AcDbLine
 62
7
  6
BYLAYER
 10
42.8169077268
 20
62.0116066999
 11
42.6169077268
 21
62.0116066999
  0
LINE
  5
23A
100
AcDbEntity
  8
0
100
AcDbLine
 62
7
  6
BYLAYER
 10
42.8169077268
 20
62.7299146497
 11
58.8169077268
 21
62.7299146497
  0
LINE
  5
23B
100
AcDbEntity
  8
0
100
AcDbLine
 62
7
  6
BYLAYER
 10
47.3169077268
 20
10.8155328216
 11
47.3169077268
 21
20.023591491
  0
LINE
  5
23C
100
AcDbEntity
  8
0
100
AcDbLine
 62
7
  6
BYLAYER
 10
47.3160002856
 20
20.0235889958
 11
47.3476438174
 21
20.730041138
  0
LINE
  5
23D
100
AcDbEntity
  8
0
100
AcDbLine
 62
7
  6
BYLAYER
 10
58.8168991378
 20
64.7300411167
 11
42.8169163158
 21
64.7300411167
  0
LINE
  5
23E
100
AcDbEntity
  8
0
100
AcDbLine
 62
7
  6
BYLAYER
 10
42.8169082234
 20
65.5506985994
 11
31.7169077268
 21
65.5506985994
  0
LINE
  5
23F
100
AcDbEntity
  8
0
100
AcDbLine
 62
7
  6
BYLAYER
 10
29.7169077268
 20
66.3300411167
 11
31.7169077268
 21
66.3300411167
  0
LINE
  5
240
100
AcDbEntity
  8
0
100
AcDbLine
 62
7
  6
BYLAYER
 10
54.2861716359
 20
20.7300411379
 11
54.3177848692
 21
20.0235891723
  0
LINE
  5
241
100
AcDbEntity
  8
0
100
AcDbLine
 62
7
  6
BYLAYER
 10
50.8169077268
 20
71.1446736664
 11
50.8169077268
 21
80.0059649901
  0
LINE
  5
242
100
AcDbEntity
  8
0
100
AcDbLine
 62
7
  6
BYLAYER
 10
29.7016437518
 20
67.8315984612
 11
29.2025785316
 21
67.8315984612
  0
LINE
  5
243
100
AcDbEntity
  8
0
100
AcDbLine
 62
7
  6
BYLAYER
 10
29.7169077268
 20
70.0300411167
 11
29.7016437518
 21
70.0300411167
  0
LINE
  5
244
100
AcDbEntity
  8
0
100
AcDbLine
 62
7
  6
BYLAYER
 10
29.2025785316
 20
70.3300405306
 11
27.4019546141
 21
70.4459284367
  0
LINE
  5
245
100
AcDbEntity
  8
0
100
AcDbLine
 62
7
  6
BYLAYER
 10
54.3169077268
 20
10.8155328216
 11
54.3169077268
 21
20.023591491
  0
LINE
  5
246
100
AcDbEntity
  8
0
100
AcDbLine
 62
7
  6
BYLAYER
 10
55.5669077268
 20
27.2300411167
 11
55.5669077268
 21
20.7300411167
  0
LINE
  5
247
100
AcDbEntity
  8
0
100
AcDbLine
 62
7
  6
BYLAYER
 10
50.8169077268
 20
71.1506985994
 11
31.7169077268
 21
71.1506985994
  0
LINE
  5
248
100
AcDbEntity
  8
0
100
AcDbLine
 62
7
  6
BYLAYER
 10
57.5669077268
 20
17.5504651779
 11
57.5669077268
 21
28.7300411167
  0
LINE
  5
249
100
AcDbEntity
  8
0
100
AcDbLine
 62
7
  6
BYLAYER
 10
58.8169077268
 20
14.7299146497
 11
58.8169077268
 21
80.7300411167
  0
LINE
  5
24A
100
AcDbEntity
  8
0
100
AcDbLine
 62
7
  6
BYLAYER
 10
31.7169077268
 20
75.2069016313
 11
29.7169077268
 21
75.2069016313
  0
LINE
  5
24B
100
AcDbEntity
  8
0
100
AcDbLine
 62
7
  6
BYLAYER
 10
27.4019546141
 20
78.2141537967
 11
29.2025785316
 21
78.3300417028
  0
LINE
  5
24C
100
AcDbEntity
  8
0
100
AcDbLine
 62
7
  6
BYLAYER
 10
29.7016437518
 20
78.6300411167
 11
29.7169077268
 21
78.6300411167
  0
LINE
  5
24D
100
AcDbEntity
  8
0
100
AcDbLine
 62
7
  6
BYLAYER
 10
50.8169077268
 20
79.9992993604
 11
31.7169077268
 21
79.9992993604
  0
LINE
  5
24E
100
AcDbEntity
  8
0
100
AcDbLine
 62
7
  6
BYLAYER
 10
29.2025785316
 20
80.8284837722
 11
29.7016437518
 21
80.8284837722
  0
LINE
  5
24F
100
AcDbEntity
  8
0
100
AcDbLine
 62
7
  6
BYLAYER
 10
53.2942994438
 20
81.1992782067
 11
31.7169077268
 21
81.199245555
  0
LINE
  5
250
100
AcDbEntity
  8
0
100
AcDbLine
 62
7
  6
BYLAYER
 10
56.8169077268
 20
82.7300426549
 11
31.7169077268
 21
82.7300426549
  0
LINE
  5
251
100
AcDbEntity
  8
0
100
AcDbLine
 62
7
  6
BYLAYER
 10
29.7169077268
 20
86.3115059863
 11
31.7169077268
 21
86.3115059863
  0
LINE
  5
252
100
AcDbEntity
  8
0
100
AcDbLine
 62
7
  6
BYLAYER
 10
30.3172969345
 20
88.1547019984
 11
34.5622222398
 21
88.1547019984
  0
LINE
  5
253
100
AcDbEntity
  8
0
100
AcDbLine
 62
7
  6
BYLAYER
 10
37.582172574
 20
91.953439639
 11
39.582172574
 21
91.953439639
  0
LINE
  5
254
100
AcDbEntity
  8
0
100
AcDbLine
 62
7
  6
BYLAYER
 10
37.3169077268
 20
92.7300411167
 11
32.0471495314
 21
92.7300411167
  0
LINE
  5
255
100
AcDbEntity
  8
0
100
AcDbLine
 62
7
  6
BYLAYER
 10
31.1784493998
 20
95.7300411167
 11
31.1169077268
 21
95.7300411167
  0
LINE
  5
256
100
AcDbEntity
  8
0
100
AcDbLine
 62
7
  6
BYLAYER
 10
37.5669077268
 20
95.9800411167
 11
37.3169077268
 21
95.9800411167
  0
LINE
  5
257
100
AcDbEntity
  8
0
100
AcDbLine
 62
7
  6
BYLAYER
 10
37.582172574
 20
97.7550411167
 11
37.5669077268
 21
97.7550411167
  0
LINE
  5
258
100
AcDbEntity
  8
0
100
AcDbLine
 62
7
  6
BYLAYER
 10
41.1169077268
 20
98.6800411167
 11
39.582172574
 21
98.6800411167
  0
LINE
  5
259
100
AcDbEntity
  8
0
100
AcDbLine
 62
7
  6
BYLAYER
 10
37.582172574
 20
101.1505614529
 11
39.582172574
 21
101.1505614529
  0
LINE
  5
25A
100
AcDbEntity
  8
0
100
AcDbLine
 62
7
  6
BYLAYER
 10
39.582172574
 20
102.7800411167
 11
41.1169077268
 21
102.7800411167
  0
LINE
  5
25B
100
AcDbEntity
  8
0
100
AcDbLine
 62
7
  6
BYLAYER
 10
37.5669077268
 20
103.7050411167
 11
37.582172574
 21
103.7050411167
  0
LINE
  5
25C
100
AcDbEntity
  8
0
100
AcDbLine
 62
7
  6
BYLAYER
 10
37.582172574
 20
105.2306356969
 11
39.582172574
 21
105.2306356969
  0
LINE
  5
25D
100
AcDbEntity
  8
0
100
AcDbLine
 62
7
  6
BYLAYER
 10
37.3169077268
 20
105.4800411167
 11
37.5669077268
 21
105.4800411167
  0
LINE
  5
25E
100
AcDbEntity
  8
0
100
AcDbLine
 62
7
  6
BYLAYER
 10
31.1169077268
 20
105.7300411167
 11
31.1784493998
 21
105.7300411167
  0
LINE
  5
25F
100
AcDbEntity
  8
0
100
AcDbLine
 62
7
  6
BYLAYER
 10
32.0471495314
 20
108.7300411167
 11
37.3169077268
 21
108.7300411167
  0
ARC
  5
260
100
AcDbEntity
  8
0
100
AcDbCircle
 62
7
  6
BYLAYER
 10
62.1669077259
 20
100.7300411167
 40
31.4499999991
100
AcDbArc
 50
170.8521576963
 51
189.1478424823
  0
ARC
  5
261
100
AcDbEntity
  8
0
100
AcDbCircle
 62
7
  6
BYLAYER
 10
34.5671028536
 20
74.3300411167
 40
8.1501951267
100
AcDbArc
 50
151.5385847104
 51
208.4614152896
  0
ARC
  5
262
100
AcDbEntity
  8
0
100
AcDbCircle
 62
7
  6
BYLAYER
 10
56.8169077268
 20
80.7300411167
 40
2.0
100
AcDbArc
 50
0.0
 51
90.0
  0
ARC
  5
263
100
AcDbEntity
  8
0
100
AcDbCircle
 62
7
  6
BYLAYER
 10
38.082172574
 20
91.5403993972
 40
1.5
100
AcDbArc
 50
296.0
 51
360.0
  0
ARC
  5
264
100
AcDbEntity
  8
0
100
AcDbCircle
 62
7
  6
BYLAYER
 10
31.2169077268
 20
86.9544101913
 40
1.5
100
AcDbArc
 50
115.9999999998
 51
180.0
  0
ARC
  5
265
100
AcDbEntity
  8
0
100
AcDbCircle
 62
7
  6
BYLAYER
 10
32.0471495314
 20
93.0300411167
 40
0.3
100
AcDbArc
 50
194.7716230865
 51
270.0
  0
ARC
  5
266
100
AcDbEntity
  8
0
100
AcDbCircle
 62
7
  6
BYLAYER
 10
32.0471495314
 20
108.4300411167
 40
0.3
100
AcDbArc
 50
90.0
 51
165.2283769135
  0
SPLINE
  5
267
100
AcDbEntity
  8
0
100
AcDbSpline
 62
7
  6
BYLAYER
 70
0
 71
3
 72
10
 73
6
 74
0
 42
0.0000001
 43
0.0000001
 44
0.0000000001
 40
0.0
 40
0.0
 40
0.0
 40
0.0
 40
0.3041185731
 40
0.5783987555
 40
1.0
 40
1.0
 40
1.0
 40
1.0
 10
53.2942736533
 20
81.1992500274
 30
0.0
 10
53.7762364221
 20
81.2651669685
 30
0.0
 10
54.6884065969
 20
81.4259284062
 30
0.0
 10
56.2420928682
 20
81.809437856
 30
0.0
 10
57.3016843046
 20
82.1556295673
 30
0.0
 10
57.9344988966
 20
82.3886905778
 30
0.0
  0
SPLINE
  5
268
100
AcDbEntity
  8
0
100
AcDbSpline
 62
7
  6
BYLAYER
 70
0
 71
3
 72
14
 73
10
 74
0
 42
0.0000001
 43
0.0000001
 44
0.0000000001
 40
0.0
 40
0.0
 40
0.0
 40
0.0
 40
0.2471687474
 40
0.3714663062
 40
0.4962593408
 40
0.6215682497
 40
0.7473703574
 40
0.8735701635
 40
1.0
 40
1.0
 40
1.0
 40
1.0
 10
53.2942994438
 20
81.1992782067
 30
0.0
 10
53.1290034014
 20
81.0359363216
 30
0.0
 10
52.8666238514
 20
80.8035183735
 30
0.0
 10
52.4853718185
 20
80.5338589675
 30
0.0
 10
52.1814834102
 20
80.3552257757
 30
0.0
 10
51.8602985498
 20
80.2062586083
 30
0.0
 10
51.5231879297
 20
80.0931770287
 30
0.0
 10
51.1736015953
 20
80.0221457455
 30
0.0
 10
50.9357761175
 20
80.0059649901
 30
0.0
 10
50.8169077268
 20
80.0059649901
 30
0.0
  0
SPLINE
  5
269
100
AcDbEntity
  8
0
100
AcDbSpline
 62
7
  6
BYLAYER
 70
0
 71
3
 72
46
 73
42
 74
0
 42
0.0000001
 43
0.0000001
 44
0.0000000001
 40
0.0
 40
0.0
 40
0.0
 40
0.0
 40
0.0000271592
 40
0.0001058493
 40
0.0002361049
 40
0.0004179287
 40
0.0006512529
 40
0.0009359924
 40
0.0016593763
 40
0.0025873982
 40
0.0037193751
 40
0.005054533
 40
0.0065915959
 40
0.0102656422
 40
0.014729723
 40
0.0199692274
 40
0.0259674657
 40
0.0327065216
 40
0.0401661485
 40
0.0483256233
 40
0.0571627585
 40
0.0767783953
 40
0.0988262831
 40
0.1231181739
 40
0.1494691919
 40
0.177702236
 40
0.2076501202
 40
0.2391562367
 40
0.2720769073
 40
0.3416430296
 40
0.4154244788
 40
0.4926579157
 40
0.5727146222
 40
0.6550777453
 40
0.7393236514
 40
0.7820508251
 40
0.8251271293
 40
0.8685148751
 40
0.9121695111
 40
0.9560275573
 40
1.0
 40
1.0
 40
1.0
 40
1.0
 10
42.8169093638
 20
65.550699753
 30
0.0
 10
42.8169991931
 20
65.5506978474
 30
0.0
 10
42.8172163459
 20
65.5510664716
 30
0.0
 10
42.8178352662
 20
65.5514645547
 30
0.0
 10
42.8187620286
 20
65.5524133608
 30
0.0
 10
42.8200960313
 20
65.5536077247
 30
0.0
 10
42.821788144
 20
65.5551961905
 30
0.0
 10
42.8247959705
 20
65.557988918
 30
0.0
 10
42.8294782063
 20
65.5623622197
 30
0.0
 10
42.8362074728
 20
65.5686465624
 30
0.0
 10
42.844411589
 20
65.5763183956
 30
0.0
 10
42.8540851412
 20
65.5853682638
 30
0.0
 10
42.8698972017
 20
65.600166673
 30
0.0
 10
42.8932636982
 20
65.6220416528
 30
0.0
 10
42.9255712602
 20
65.6522884024
 30
0.0
 10
42.9634954102
 20
65.6877863096
 30
0.0
 10
43.006922082
 20
65.7284189962
 30
0.0
 10
43.0557238848
 20
65.7740569983
 30
0.0
 10
43.1097651266
 20
65.8245601957
 30
0.0
 10
43.1688994185
 20
65.8797792074
 30
0.0
 10
43.2574649405
 20
65.9624037277
 30
0.0
 10
43.379719294
 20
66.0762716035
 30
0.0
 10
43.539579872
 20
66.2247794935
 30
0.0
 10
43.7160197595
 20
66.388178912
 30
0.0
 10
43.9077976332
 20
66.5651302715
 30
0.0
 10
44.1137339108
 20
66.7543289559
 30
0.0
 10
44.3327298915
 20
66.9545192858
 30
0.0
 10
44.5637794477
 20
67.1645067425
 30
0.0
 10
44.8928221571
 20
67.4615430775
 30
0.0
 10
45.3279890778
 20
67.8497322868
 30
0.0
 10
45.8776255575
 20
68.3297774584
 30
0.0
 10
46.4606539494
 20
68.82424965
 30
0.0
 10
47.0758409177
 20
69.3245216518
 30
0.0
 10
47.7245439004
 20
69.8198280584
 30
0.0
 10
48.2946274236
 20
70.2139437793
 30
0.0
 10
48.7755175825
 20
70.5062311219
 30
0.0
 10
49.1520519551
 20
70.7089793836
 30
0.0
 10
49.5446239605
 20
70.886646223
 30
0.0
 10
49.9545046966
 20
71.028826903
 30
0.0
 10
50.3804424983
 20
71.1226253287
 30
0.0
 10
50.6714358411
 20
71.1446736664
 30
0.0
 10
50.8169077268
 20
71.1446736664
 30
0.0
  0
SPLINE
  5
26A
100
AcDbEntity
  8
0
100
AcDbSpline
 62
7
  6
BYLAYER
 70
0
 71
3
 72
19
 73
15
 74
0
 42
0.0000001
 43
0.0000001
 44
0.0000000001
 40
0.0
 40
0.0
 40
0.0
 40
0.0
 40
0.1787078928
 40
0.3511663973
 40
0.5113892935
 40
0.6540827421
 40
0.7174881531
 40
0.7750262529
 40
0.826427978
 40
0.8715948863
 40
0.9106913214
 40
0.9442486088
 40
0.973391982
 40
1.0
 40
1.0
 40
1.0
 40
1.0
 10
50.8169077268
 20
9.7922318551
 30
0.0
 10
51.0446012745
 20
9.7922318551
 30
0.0
 10
51.4921329657
 20
9.8049002208
 30
0.0
 10
52.141650929
 20
9.8614143778
 30
0.0
 10
52.7408010177
 20
9.9530947179
 30
0.0
 10
53.1960486827
 20
10.0592661482
 30
0.0
 10
53.5161729728
 20
10.1615740077
 30
0.0
 10
53.7209046009
 20
10.2414454491
 30
0.0
 10
53.8980479559
 20
10.3266937526
 30
0.0
 10
54.0460556158
 20
10.4166498831
 30
0.0
 10
54.1638054885
 20
10.5106240318
 30
0.0
 10
54.2502767452
 20
10.6084652442
 30
0.0
 10
54.304281255
 20
10.7101629234
 30
0.0
 10
54.3168811431
 20
10.781631273
 30
0.0
 10
54.3168814535
 20
10.81553282
 30
0.0
  0
SPLINE
  5
26B
100
AcDbEntity
  8
0
100
AcDbSpline
 62
7
  6
BYLAYER
 70
0
 71
3
 72
14
 73
10
 74
0
 42
0.0000001
 43
0.0000001
 44
0.0000000001
 40
0.0
 40
0.0
 40
0.0
 40
0.0
 40
0.019756965
 40
0.0771868822
 40
0.1699789484
 40
0.2944615675
 40
0.4458402804
 40
0.618369224
 40
1.0
 40
1.0
 40
1.0
 40
1.0
 10
44.8169403299
 20
64.7300405271
 30
0.0
 10
44.856290268
 20
64.7257326579
 30
0.0
 10
45.010157177
 20
64.7101535179
 30
0.0
 10
45.3490059797
 20
64.6759661295
 30
0.0
 10
45.8971196414
 20
64.6257451207
 30
0.0
 10
46.6333684662
 20
64.5662242173
 30
0.0
 10
47.5298386884
 20
64.5067933532
 30
0.0
 10
48.9417840653
 20
64.4371444886
 30
0.0
 10
50.0522726013
 20
64.4147431626
 30
0.0
 10
50.8169077268
 20
64.4147431626
 30
0.0
  0
SPLINE
  5
26C
100
AcDbEntity
  8
0
100
AcDbSpline
 62
7
  6
BYLAYER
 70
0
 71
3
 72
19
 73
15
 74
0
 42
0.0000001
 43
0.0000001
 44
0.0000000001
 40
0.0
 40
0.0
 40
0.0
 40
0.0
 40
0.0266077411
 40
0.0557507324
 40
0.0893071838
 40
0.1284028335
 40
0.1735682545
 40
0.224969189
 40
0.2825058541
 40
0.3459110094
 40
0.4886049686
 40
0.648829126
 40
0.8212910471
 40
1.0
 40
1.0
 40
1.0
 40
1.0
 10
47.3169340001
 20
10.8155328233
 30
0.0
 10
47.3169336898
 20
10.7816316315
 30
0.0
 10
47.3295339028
 20
10.710164008
 30
0.0
 10
47.38353752
 20
10.6084683365
 30
0.0
 10
47.4700053737
 20
10.5106274814
 30
0.0
 10
47.5877527563
 20
10.4166565701
 30
0.0
 10
47.7357550765
 20
10.3266993137
 30
0.0
 10
47.9128949178
 20
10.241454489
 30
0.0
 10
48.1176219576
 20
10.1615802559
 30
0.0
 10
48.4377452563
 20
10.0592739191
 30
0.0
 10
48.89299387
 20
9.9530989904
 30
0.0
 10
49.4921503196
 20
9.8614158673
 30
0.0
 10
50.1416754865
 20
9.8049007986
 30
0.0
 10
50.5892128445
 20
9.7922318551
 30
0.0
 10
50.8169077268
 20
9.7922318551
 30
0.0
  0
SPLINE
  5
26D
100
AcDbEntity
  8
0
100
AcDbSpline
 62
7
  6
BYLAYER
 70
0
 71
3
 72
15
 73
11
 74
0
 42
0.0000001
 43
0.0000001
 44
0.0000000001
 40
0.0
 40
0.0
 40
0.0
 40
0.0
 40
0.3816065426
 40
0.5541224641
 40
0.7054949763
 40
0.8299817864
 40
0.9227844138
 40
0.9561062949
 40
0.9802275597
 40
1.0
 40
1.0
 40
1.0
 40
1.0
 10
50.8169077268
 20
64.4147431626
 30
0.0
 10
51.5814941799
 20
64.4147431626
 30
0.0
 10
52.6919075337
 20
64.4371447439
 30
0.0
 10
54.1037667419
 20
64.5067772952
 30
0.0
 10
55.0002052314
 20
64.5662177911
 30
0.0
 10
55.7364766561
 20
64.6256880526
 30
0.0
 10
56.2365048221
 20
64.6716204851
 30
0.0
 10
56.5360777949
 20
64.701226746
 30
0.0
 10
56.690011638
 20
64.7166989765
 30
0.0
 10
56.7774538019
 20
64.7261038616
 30
0.0
 10
56.8168737355
 20
64.7300407953
 30
0.0
  0
SPLINE
  5
26E
100
AcDbEntity
  8
0
100
AcDbSpline
 62
7
  6
BYLAYER
 70
0
 71
3
 72
19
 73
15
 74
0
 42
0.0000001
 43
0.0000001
 44
0.0000000001
 40
0.0
 40
0.0
 40
0.0
 40
0.0
 40
0.0266077411
 40
0.0557507324
 40
0.0893071838
 40
0.1284028335
 40
0.1735682545
 40
0.224969189
 40
0.2825058541
 40
0.3459110093
 40
0.4886049686
 40
0.648829126
 40
0.8212910471
 40
1.0
 40
1.0
 40
1.0
 40
1.0
 10
54.3168814535
 20
10.81553282
 30
0.0
 10
54.3168817639
 20
10.8494340117
 30
0.0
 10
54.3042815508
 20
10.9209016352
 30
0.0
 10
54.2502779337
 20
11.0225973067
 30
0.0
 10
54.1638100799
 20
11.1204381618
 30
0.0
 10
54.0460626973
 20
11.2144090731
 30
0.0
 10
53.8980603771
 20
11.3043663295
 30
0.0
 10
53.7209205358
 20
11.3896111542
 30
0.0
 10
53.516193496
 20
11.4694853873
 30
0.0
 10
53.1960701973
 20
11.5717917241
 30
0.0
 10
52.7408215836
 20
11.6779666528
 30
0.0
 10
52.141665134
 20
11.7696497759
 30
0.0
 10
51.4921399671
 20
11.8261648446
 30
0.0
 10
51.0446026091
 20
11.8388337881
 30
0.0
 10
50.8169077268
 20
11.8388337881
 30
0.0
  0
SPLINE
  5
26F
100
AcDbEntity
  8
0
100
AcDbSpline
 62
7
  6
BYLAYER
 70
0
 71
3
 72
16
 73
12
 74
0
 42
0.0000001
 43
0.0000001
 44
0.0000000001
 40
0.0
 40
0.0
 40
0.0
 40
0.0
 40
0.0625564829
 40
0.1251123798
 40
0.1876736534
 40
0.250238753
 40
0.3751929878
 40
0.5002154122
 40
0.7497453476
 40
0.8748654059
 40
1.0
 40
1.0
 40
1.0
 40
1.0
 10
50.8169077268
 20
24.7736852074
 30
0.0
 10
50.9373324087
 20
24.7736852074
 30
0.0
 10
51.1785240044
 20
24.7565837625
 30
0.0
 10
51.5328711792
 20
24.6807748639
 30
0.0
 10
51.8738104321
 20
24.5579638732
 30
0.0
 10
52.303269328
 20
24.3380265165
 30
0.0
 10
52.7859504384
 20
23.9696990578
 30
0.0
 10
53.4212790366
 20
23.2416257635
 30
0.0
 10
53.8612967945
 20
22.3682556337
 30
0.0
 10
54.1316116642
 20
21.4441220683
 30
0.0
 10
54.2172227659
 20
20.968874355
 30
0.0
 10
54.2486417971
 20
20.7300411117
 30
0.0
  0
SPLINE
  5
270
100
AcDbEntity
  8
0
100
AcDbSpline
 62
7
  6
BYLAYER
 70
0
 71
3
 72
19
 73
15
 74
0
 42
0.0000001
 43
0.0000001
 44
0.0000000001
 40
0.0
 40
0.0
 40
0.0
 40
0.0
 40
0.1787078928
 40
0.3511663973
 40
0.5113892935
 40
0.6540827421
 40
0.7174881531
 40
0.7750262529
 40
0.826427978
 40
0.8715948863
 40
0.9106913214
 40
0.9442486088
 40
0.973391982
 40
1.0
 40
1.0
 40
1.0
 40
1.0
 10
50.8169077268
 20
11.8388337881
 30
0.0
 10
50.5892141791
 20
11.8388337881
 30
0.0
 10
50.1416824879
 20
11.8261654224
 30
0.0
 10
49.4921645246
 20
11.7696512654
 30
0.0
 10
48.8930144359
 20
11.6779709253
 30
0.0
 10
48.4377667709
 20
11.571799495
 30
0.0
 10
48.1176424808
 20
11.4694916355
 30
0.0
 10
47.9129108527
 20
11.3896201941
 30
0.0
 10
47.7357674977
 20
11.3043718906
 30
0.0
 10
47.5877598378
 20
11.2144157601
 30
0.0
 10
47.4700099651
 20
11.1204416114
 30
0.0
 10
47.3835387085
 20
11.022600399
 30
0.0
 10
47.3295341986
 20
10.9209027198
 30
0.0
 10
47.3169343105
 20
10.8494343702
 30
0.0
 10
47.3169340001
 20
10.8155328233
 30
0.0
  0
SPLINE
  5
271
100
AcDbEntity
  8
0
100
AcDbSpline
 62
7
  6
BYLAYER
 70
0
 71
3
 72
16
 73
12
 74
0
 42
0.0000001
 43
0.0000001
 44
0.0000000001
 40
0.0
 40
0.0
 40
0.0
 40
0.0
 40
0.0625564858
 40
0.1251123851
 40
0.1876736611
 40
0.2502387601
 40
0.3751929929
 40
0.5002154134
 40
0.7497453462
 40
0.8748654045
 40
1.0
 40
1.0
 40
1.0
 40
1.0
 10
50.8169077268
 20
24.7736852074
 30
0.0
 10
50.6964830393
 20
24.7736852074
 30
0.0
 10
50.4552914336
 20
24.7565837592
 30
0.0
 10
50.1009442433
 20
24.6807748597
 30
0.0
 10
49.7600049874
 20
24.5579638535
 30
0.0
 10
49.3305460916
 20
24.3380264984
 30
0.0
 10
48.8478649982
 20
23.9696990379
 30
0.0
 10
48.2125364112
 20
23.2416257556
 30
0.0
 10
47.7725186731
 20
22.3682556343
 30
0.0
 10
47.5022037715
 20
21.4441220766
 30
0.0
 10
47.4165927212
 20
20.9688743533
 30
0.0
 10
47.3851736566
 20
20.7300411117
 30
0.0
  0
ENDSEC
  0
SECTION
  2
OBJECTS
  0
DICTIONARY
  5
C
100
AcDbDictionary
280
0
281
1
  3
ACAD_GROUP
350
D
  3
ACAD_MLINESTYLE
350
17
  3
ACAD_LAYOUT
350
1A
  3
ACAD_PLOTSETTINGS
350
19
  3
ACAD_PLOTSTYLENAME
350
E
  0
DICTIONARY
  5
D
102
{ACAD_REACTORS
330
C
102
}
100
AcDbDictionary
280
0
281
1
  0
ACDBDICTIONARYWDFLT
  5
E
102
{ACAD_REACTORS
330
C
102
}
100
AcDbDictionary
281
1
  3
Normal
350
F
100
AcDbDictionaryWithDefault
340
F
  0
DICTIONARY
  5
17
102
{ACAD_REACTORS
330
C
102
}
100
AcDbDictionary
280
0
281
1
  3
Standard
350
18
  0
DICTIONARY
  5
19
102
{ACAD_REACTORS
330
C
102
}
100
AcDbDictionary
281
1
  0
DICTIONARY
  5
1A
102
{ACAD_REACTORS
330
C
102
}
100
AcDbDictionary
281
1
  3
Model
350
272
  3
Layout1
350
273
  0
ACDBPLACEHOLDER
  5
F
102
{ACAD_REACTORS
330
E
102
}
  0
MLINESTYLE
  5
18
102
{ACAD_REACTORS
330
17
102
}
100
AcDbMlineStyle
  2
STANDARD
 70
0
  3

 62
256
 51
90.0
 52
90.0
 71
2
 49
0.5
 62
256
  6
BYLAYER
 49
-0.5
 62
256
  6
BYLAYER
  0
LAYOUT
  5
272
102
{ACAD_REACTORS
330
1A
102
}
100
AcDbPlotSettings
  1

  2
none_device
  4

  6

 40
0.0
 41
0.0
 42
0.0
 43
0.0
 44
210.0
 45
297.0
 46
0.0
 47
0.0
 48
0.0
 49
0.0
140
0.0
141
0.0
142
1.0
143
1.0
 70
1024
 72
1
 73
0
 74
0
  7

 75
0
147
1.0
148
0.0
149
0.0
100
AcDbLayout
  1
Model
 70
0
 71
0
 10
0.0
 20
0.0
 11
210.0
 21
297.0
 12
0.0
 22
0.0
 32
0.0
 14
0.0
 24
0.0
 34
0.0
 15
0.0
 25
0.0
 35
0.0
146
0.0
 13
0.0
 23
0.0
 33
0.0
 16
1.0
 26
0.0
 36
0.0
 17
0.0
 27
1.0
 37
0.0
 76
0
330
210
345
0
346
0
  0
LAYOUT
  5
273
102
{ACAD_REACTORS
330
1A
102
}
100
AcDbPlotSettings
  1

  2
none_device
  4

  6

 40
0.0
 41
0.0
 42
0.0
 43
0.0
 44
210.0
 45
297.0
 46
0.0
 47
0.0
 48
0.0
 49
0.0
140
0.0
141
0.0
142
1.0
143
1.0
 70
0
 72
1
 73
0
 74
0
  7

 75
0
147
1.0
148
0.0
149
0.0
100
AcDbLayout
  1
Layout1
 70
0
 71
1
 10
0.0
 20
0.0
 11
210.0
 21
297.0
 12
0.0
 22
0.0
 32
0.0
 14
0.0
 24
0.0
 34
0.0
 15
0.0
 25
0.0
 35
0.0
146
0.0
 13
0.0
 23
0.0
 33
0.0
 16
1.0
 26
0.0
 36
0.0
 17
0.0
 27
1.0
 37
0.0
 76
0
330
211
345
0
346
0
  0
ENDSEC
  0
EOF
