999
DXF file: C:\Users\sesa63760\Dev\_Creo\CAD\MCADID0003880_3D-CAD\drw0001_1.dxf
999
Pro/ENGINEER 2019471 by Parametric Technology Corporation
  0
SECTION
  2
HEADER
  9
$ACADVER
  1
AC1024
  9
$DWGCODEPAGE
  3
ANSI_1252
  9
$EXTMAX
 10
39.2564227778
 20
55.5197979286
 30
0.0
  9
$EXTMIN
 10
-0.0
 20
0.0
 30
0.0
  9
$LIMMIN
 10
-0.0
 20
0.0
  9
$LIMMAX
 10
39.2564227778
 20
55.5197979286
  9
$VIEWCTR
 10
19.6282113889
 20
27.7598989643
  9
$VIEWSIZE
 40
55.5197979286
  9
$CLAYER
  8
0
  9
$LTSCALE
 40
3.6190683094
  9
$CELTYPE
  6
BYLAYER
  9
$DIMSCALE
 40
1.0
  9
$DIMASZ
 40
0.4673383664
  9
$DIMEXO
 40
1.0
  9
$DIMDLI
 40
2.5004471956
  9
$DIMEXE
 40
1.0
  9
$DIMCEN
 40
0.5922111779
  9
$DIMLFAC
 40
1.0
  9
$DIMBLK
  1
_FILLED
  9
$DIMALT
 70
0
  9
$DIMALTF
 40
0.0393700787
  9
$DIMTXT
 40
0.654273713
  9
$DIMTOL
 70
1
  9
$DIMLIM
 70
0
  9
$DIMTFAC
 40
1.0
  9
$DIMTP
 40
0.01
  9
$DIMTM
 40
0.01
  9
$DIMGAP
 40
0.625
  9
$DIMDSEP
 70
46
  9
$AUNITS
 70
0
  9
$PDMODE
 70
3
  9
$PDSIZE
 40
0.3125
  9
$HANDSEED
  5
2A2
  9
$TILEMODE
 70
1
  9
$MEASUREMENT
 70
1
  9
$INSUNITS
 70
4
  0
ENDSEC
  0
SECTION
  2
CLASSES
  0
CLASS
  1
ACDBDICTIONARYWDFLT
  2
AcDbDictionaryWithDefault
  3
AutoCAD 2000
 90
0
 91
1
280
0
281
0
  0
CLASS
  1
ACDBPLACEHOLDER
  2
AcDbPlaceHolder
  3
AutoCAD 2000
 90
0
 91
1
280
0
281
0
  0
CLASS
  1
LAYOUT
  2
AcDbLayout
  3
AutoCAD 2000
 90
0
 91
0
280
0
281
0
  0
ENDSEC
  0
SECTION
  2
TABLES
  0
TABLE
  2
VPORT
  5
8
100
AcDbSymbolTable
 70
2
  0
VPORT
  5
1F4
100
AcDbSymbolTableRecord
100
AcDbViewportTableRecord
  2
*ACTIVE
 70
0
 10
0.0
 20
0.0
 11
1.0
 21
1.0
 12
19.6282113889
 22
27.7598989643
 13
0.0
 23
0.0
 14
1.0
 24
1.0
 15
0.0
 25
0.0
 16
0.0
 26
0.0
 36
1.0
 17
0.0
 27
0.0
 37
0.0
 40
55.5197979286
 41
0.7070707071
 42
50.0
 43
0.0
 44
0.0
 50
0.0
 51
0.0
 71
0
 72
100
 73
1
 74
1
 75
0
 76
0
 77
0
 78
0
  0
ENDTAB
  0
TABLE
  2
LTYPE
  5
5
100
AcDbSymbolTable
 70
6
  0
LTYPE
  5
14
100
AcDbSymbolTableRecord
100
AcDbLinetypeTableRecord
  2
BYBLOCK
 70
0
  3

 72
65
 73
0
 40
0.0
  0
LTYPE
  5
15
100
AcDbSymbolTableRecord
100
AcDbLinetypeTableRecord
  2
BYLAYER
 70
0
  3

 72
65
 73
0
 40
0.0
  0
LTYPE
  5
16
100
AcDbSymbolTableRecord
100
AcDbLinetypeTableRecord
  2
CONTINUOUS
 70
64
  3
Solid line
 72
65
 73
0
 40
0.0
  0
LTYPE
  5
1F5
100
AcDbSymbolTableRecord
100
AcDbLinetypeTableRecord
  2
CENTER
 70
64
  3
____ _ ____ _ ____ _ ____ _ ____ _ ____ _ ____
 72
65
 73
4
 40
0.6
 49
0.375
 74
0
 49
-0.075
 74
0
 49
0.075
 74
0
 49
-0.075
 74
0
  0
LTYPE
  5
1F6
100
AcDbSymbolTableRecord
100
AcDbLinetypeTableRecord
  2
HIDDEN
 70
64
  3
- - - - - - - - - - - - - - - - - - - -
 72
65
 73
2
 40
0.2
 49
0.1
 74
0
 49
-0.1
 74
0
  0
LTYPE
  5
1F7
100
AcDbSymbolTableRecord
100
AcDbLinetypeTableRecord
  2
PHANTOM
 70
64
  3
_____ _ _ _____ _ _ _____ _ _ _____
 72
65
 73
6
 40
0.8
 49
0.45
 74
0
 49
-0.05
 74
0
 49
0.1
 74
0
 49
-0.05
 74
0
 49
0.1
 74
0
 49
-0.05
 74
0
  0
LTYPE
  5
1F8
100
AcDbSymbolTableRecord
100
AcDbLinetypeTableRecord
  2
DOT
 70
64
  3
. . . . . . . . . . . . . . . . . . . .
 72
65
 73
2
 40
0.2
 49
0.1
 74
0
 49
-0.1
 74
0
  0
LTYPE
  5
1F9
100
AcDbSymbolTableRecord
100
AcDbLinetypeTableRecord
  2
DASHED
 70
64
  3
- - - - - - - - - - - - - - - - - - - -
 72
65
 73
2
 40
0.2
 49
0.1
 74
0
 49
-0.1
 74
0
  0
ENDTAB
  0
TABLE
  2
LAYER
  5
2
100
AcDbSymbolTable
 70
36
  0
LAYER
  5
10
100
AcDbSymbolTableRecord
100
AcDbLayerTableRecord
  2
0
 70
0
 62
7
  6
CONTINUOUS
370
-3
390
F
  0
LAYER
  5
1FA
100
AcDbSymbolTableRecord
100
AcDbLayerTableRecord
  2
DEFAULT_1
 70
0
 62
7
  6
CENTER
370
-3
390
F
  0
LAYER
  5
1FB
100
AcDbSymbolTableRecord
100
AcDbLayerTableRecord
  2
DEFAULT_2
 70
0
 62
7
  6
HIDDEN
370
-3
390
F
  0
LAYER
  5
1FC
100
AcDbSymbolTableRecord
100
AcDbLayerTableRecord
  2
DEFAULT_3
 70
0
 62
7
  6
PHANTOM
370
-3
390
F
  0
LAYER
  5
1FD
100
AcDbSymbolTableRecord
100
AcDbLayerTableRecord
  2
00_COMPONENTS
 70
0
 62
7
  6
CONTINUOUS
370
-3
390
F
  0
LAYER
  5
1FE
100
AcDbSymbolTableRecord
100
AcDbLayerTableRecord
  2
01_1_DEFAULT_DATUMS
 70
0
 62
7
  6
CONTINUOUS
370
-3
390
F
  0
LAYER
  5
1FF
100
AcDbSymbolTableRecord
100
AcDbLayerTableRecord
  2
01_PLANES
 70
0
 62
7
  6
CONTINUOUS
370
-3
390
F
  0
LAYER
  5
200
100
AcDbSymbolTableRecord
100
AcDbLayerTableRecord
  2
02_COORD_SYS
 70
0
 62
7
  6
CONTINUOUS
370
-3
390
F
  0
LAYER
  5
201
100
AcDbSymbolTableRecord
100
AcDbLayerTableRecord
  2
03_AXES
 70
0
 62
7
  6
CONTINUOUS
370
-3
390
F
  0
LAYER
  5
202
100
AcDbSymbolTableRecord
100
AcDbLayerTableRecord
  2
04_POINTS
 70
0
 62
7
  6
CONTINUOUS
370
-3
390
F
  0
LAYER
  5
203
100
AcDbSymbolTableRecord
100
AcDbLayerTableRecord
  2
05_CURVES
 70
0
 62
7
  6
CONTINUOUS
370
-3
390
F
  0
LAYER
  5
204
100
AcDbSymbolTableRecord
100
AcDbLayerTableRecord
  2
06_SURFS
 70
0
 62
7
  6
CONTINUOUS
370
-3
390
F
  0
LAYER
  5
205
100
AcDbSymbolTableRecord
100
AcDbLayerTableRecord
  2
07_COSMETICS
 70
0
 62
7
  6
CONTINUOUS
370
-3
390
F
  0
LAYER
  5
206
100
AcDbSymbolTableRecord
100
AcDbLayerTableRecord
  2
10_NOTES
 70
0
 62
7
  6
CONTINUOUS
370
-3
390
F
  0
LAYER
  5
207
100
AcDbSymbolTableRecord
100
AcDbLayerTableRecord
  2
11_NOTES_PUB
 70
0
 62
7
  6
CONTINUOUS
370
-3
390
F
  0
LAYER
  5
208
100
AcDbSymbolTableRecord
100
AcDbLayerTableRecord
  2
13_REF_GTOL
 70
0
 62
7
  6
CONTINUOUS
370
-3
390
F
  0
LAYER
  5
209
100
AcDbSymbolTableRecord
100
AcDbLayerTableRecord
  2
16_MISC
 70
0
 62
7
  6
CONTINUOUS
370
-3
390
F
  0
LAYER
  5
20A
100
AcDbSymbolTableRecord
100
AcDbLayerTableRecord
  2
17_NO_PRINT
 70
0
 62
7
  6
CONTINUOUS
370
-3
390
F
  0
LAYER
  5
20B
100
AcDbSymbolTableRecord
100
AcDbLayerTableRecord
  2
18_DATUM_CAMS_JOINTS
 70
0
 62
7
  6
CONTINUOUS
370
-3
390
F
  0
LAYER
  5
20C
100
AcDbSymbolTableRecord
100
AcDbLayerTableRecord
  2
19_DATUM_FUNCTIONAL
 70
0
 62
7
  6
CONTINUOUS
370
-3
390
F
  0
LAYER
  5
20D
100
AcDbSymbolTableRecord
100
AcDbLayerTableRecord
  2
20_DATUM_KINEMATIC_SCHEME
 70
0
 62
7
  6
CONTINUOUS
370
-3
390
F
  0
ENDTAB
  0
TABLE
  2
STYLE
  5
3
100
AcDbSymbolTable
 70
1
  0
STYLE
  5
11
100
AcDbSymbolTableRecord
100
AcDbTextStyleTableRecord
  2
STANDARD
 70
0
 40
0.0
 41
1.0
 50
0.0
 71
0
 42
0.2
  3
ARIAL.TTF
  4

  0
STYLE
  5
20E
100
AcDbSymbolTableRecord
100
AcDbTextStyleTableRecord
  2
TEXTSTYLE_1
 70
0
 40
0.0
 41
0.8
 50
0.0
 71
0
 42
0.2
  3
gdt
  4

  0
ENDTAB
  0
TABLE
  2
VIEW
  5
6
100
AcDbSymbolTable
 70
0
  0
ENDTAB
  0
TABLE
  2
UCS
  5
7
100
AcDbSymbolTable
 70
0
  0
ENDTAB
  0
TABLE
  2
APPID
  5
9
100
AcDbSymbolTable
 70
1
  0
APPID
  5
20F
100
AcDbSymbolTableRecord
100
AcDbRegAppTableRecord
  2
ACAD
 70
0
  0
ENDTAB
  0
TABLE
  2
BLOCK_RECORD
  5
1
100
AcDbSymbolTable
 70
0
  0
BLOCK_RECORD
  5
210
100
AcDbSymbolTableRecord
100
AcDbBlockTableRecord
  2
*Model_Space
  0
BLOCK_RECORD
  5
211
100
AcDbSymbolTableRecord
100
AcDbBlockTableRecord
  2
*Paper_Space
  0
BLOCK_RECORD
  5
212
100
AcDbSymbolTableRecord
100
AcDbBlockTableRecord
  2
_FILLED
  0
ENDTAB
  0
TABLE
  2
DIMSTYLE
  5
A
100
AcDbSymbolTable
 70
1
100
AcDbDimStyleTable
 71
0
  0
DIMSTYLE
105
213
100
AcDbSymbolTableRecord
100
AcDbDimStyleTableRecord
  2
STANDARD
 70
0
  3

  4

 40
1.0
 41
0.4673383664
 42
1.0
 43
0.38
 44
1.0
 45
0.0
 46
0.0
 47
0.01
 48
0.01
140
0.654273713
141
0.09
142
0.0
143
25.4
144
1.0
145
0.0
146
1.0
147
0.625
 71
1
 72
0
 73
0
 74
0
 75
0
 76
0
 77
1
 78
8
 79
2
170
0
171
1
172
0
173
0
174
0
175
0
176
0
177
0
178
0
270
2
179
2
271
2
272
2
273
2
274
2
275
0
280
0
281
0
282
0
283
1
284
8
285
0
286
0
287
3
288
0
340
11
278
46
341
212
342
212
343
212
344
212
  0
ENDTAB
  0
ENDSEC
  0
SECTION
  2
BLOCKS
  0
BLOCK
  5
20
100
AcDbEntity
  8
0
100
AcDbBlockBegin
  2
*Model_Space
 70
0
 10
0.0
 20
0.0
 30
0.0
  3
*Model_Space
  1

  0
ENDBLK
  5
21
100
AcDbEntity
  8
0
100
AcDbBlockEnd
  0
BLOCK
  5
1C
100
AcDbEntity
  8
0
100
AcDbBlockBegin
  2
*Paper_Space
 70
0
 10
0.0
 20
0.0
 30
0.0
  3
*Paper_Space
  1

  0
ENDBLK
  5
1D
100
AcDbEntity
  8
0
100
AcDbBlockEnd
  0
BLOCK
  5
214
100
AcDbEntity
  8
0
100
AcDbBlockBegin
  2
_FILLED
 70
64
 10
0.0
 20
0.0
  3
_FILLED
  1

  0
SOLID
  5
215
100
AcDbEntity
  8
0
  6
BYBLOCK
 62
0
100
AcDbTrace
 10
0.0
 20
0.0
 11
-1.0
 21
0.25
 12
-1.0
 22
-0.25
 13
-1.0
 23
-0.25
  0
ENDBLK
  5
216
100
AcDbEntity
  8
0
  6
BYBLOCK
 62
0
100
AcDbBlockEnd
  0
ENDSEC
  0
SECTION
  2
ENTITIES
  0
LINE
  5
217
100
AcDbEntity
  8
0
100
AcDbLine
 62
7
  6
BYLAYER
 10
32.2954690407
 20
37.4173662199
 11
32.6256974996
 21
37.5265186175
  0
LINE
  5
218
100
AcDbEntity
  8
0
100
AcDbLine
 62
7
  6
BYLAYER
 10
24.9242385227
 20
35.2770232499
 11
22.4144257364
 21
33.8279908116
  0
LINE
  5
219
100
AcDbEntity
  8
0
100
AcDbLine
 62
7
  6
BYLAYER
 10
26.6570484835
 20
36.2774555754
 11
29.1668618222
 21
37.7264883326
  0
LINE
  5
21A
100
AcDbEntity
  8
0
100
AcDbLine
 62
7
  6
BYLAYER
 10
27.1403027016
 20
35.474987601
 11
24.6304893882
 21
34.0259548585
  0
LINE
  5
21B
100
AcDbEntity
  8
0
100
AcDbLine
 62
7
  6
BYLAYER
 10
28.8731126829
 20
36.4754199384
 11
31.3829254535
 21
37.9244523675
  0
LINE
  5
21C
100
AcDbEntity
  8
0
100
AcDbLine
 62
7
  6
BYLAYER
 10
27.5950362154
 20
35.253497099
 11
25.1555558508
 21
33.845070861
  0
LINE
  5
21D
100
AcDbEntity
  8
0
100
AcDbLine
 62
7
  6
BYLAYER
 10
29.3981786881
 20
36.2945356768
 11
31.8376594247
 21
37.7029621296
  0
LINE
  5
21E
100
AcDbEntity
  8
0
100
AcDbLine
 62
7
  6
BYLAYER
 10
32.2954690407
 20
37.4173662199
 11
32.209996028
 21
37.3680186476
  0
LINE
  5
21F
100
AcDbEntity
  8
0
100
AcDbLine
 62
7
  6
BYLAYER
 10
16.0399486487
 20
27.5242256884
 11
13.1408229161
 21
25.8504246575
  0
LINE
  5
220
100
AcDbEntity
  8
0
100
AcDbLine
 62
7
  6
BYLAYER
 10
4.8855758398
 20
20.5531225308
 11
13.3708218864
 21
25.4520523773
  0
LINE
  5
221
100
AcDbEntity
  8
0
100
AcDbLine
 62
7
  6
BYLAYER
 10
30.0560503055
 20
32.1919814677
 11
27.6165695795
 21
30.783555021
  0
LINE
  5
222
100
AcDbEntity
  8
0
100
AcDbLine
 62
7
  6
BYLAYER
 10
31.8591927869
 20
33.2330200505
 11
34.2986731448
 21
34.6414462846
  0
LINE
  5
223
100
AcDbEntity
  8
0
100
AcDbLine
 62
7
  6
BYLAYER
 10
30.2749287461
 20
31.5754937839
 11
27.7651161301
 21
30.126461444
  0
LINE
  5
224
100
AcDbEntity
  8
0
100
AcDbLine
 62
7
  6
BYLAYER
 10
32.0077391522
 20
32.5759263665
 11
34.5175517706
 21
34.0249587078
  0
LINE
  5
225
100
AcDbEntity
  8
0
100
AcDbLine
 62
7
  6
BYLAYER
 10
6.4855686768
 20
17.7818371032
 11
14.9708147234
 21
22.6807669496
  0
LINE
  5
226
100
AcDbEntity
  8
0
100
AcDbLine
 62
7
  6
BYLAYER
 10
18.0999394263
 20
23.9561957003
 11
15.2008136937
 21
22.2823946694
  0
LINE
  5
227
100
AcDbEntity
  8
0
100
AcDbLine
 62
7
  6
BYLAYER
 10
34.7954578485
 20
33.0872327392
 11
34.6557627936
 21
33.006580243
  0
LINE
  5
228
100
AcDbEntity
  8
0
100
AcDbLine
 62
7
  6
BYLAYER
 10
30.2749287473
 20
28.6207330791
 11
27.7651161289
 21
27.1717007378
  0
LINE
  5
229
100
AcDbEntity
  8
0
100
AcDbLine
 62
7
  6
BYLAYER
 10
32.0077391534
 20
29.6211656617
 11
34.5175517694
 21
31.0701980016
  0
LINE
  5
22A
100
AcDbEntity
  8
0
100
AcDbLine
 62
7
  6
BYLAYER
 10
30.0560501249
 20
28.1757675156
 11
27.6165697602
 21
26.7673412776
  0
LINE
  5
22B
100
AcDbEntity
  8
0
100
AcDbLine
 62
7
  6
BYLAYER
 10
31.8591925975
 20
29.2168060934
 11
34.2986733342
 21
30.6252325462
  0
LINE
  5
22C
100
AcDbEntity
  8
0
100
AcDbLine
 62
7
  6
BYLAYER
 10
35.3132365798
 20
34.3950102127
 11
35.3132377574
 21
34.2317145908
  0
LINE
  5
22D
100
AcDbEntity
  8
0
100
AcDbLine
 62
7
  6
BYLAYER
 10
33.6869258586
 20
37.2118798249
 11
33.5455087127
 21
37.2935293867
  0
ARC
  5
22E
100
AcDbEntity
  8
0
100
AcDbCircle
 62
7
  6
BYLAYER
 10
34.8795345128
 20
27.1625862932
 40
12.2755903538
100
AcDbArc
 50
132.0534887544
 51
133.780866191
  0
ARC
  5
22F
100
AcDbEntity
  8
0
100
AcDbCircle
 62
7
  6
BYLAYER
 10
30.5358552551
 20
24.820787545
 40
12.1279586812
100
AcDbArc
 50
132.0396992559
 51
133.7881072307
  0
ARC
  5
230
100
AcDbEntity
  8
0
100
AcDbCircle
 62
7
  6
BYLAYER
 10
32.2473766012
 20
35.8433098253
 40
11.7536651218
100
AcDbArc
 50
228.1581111933
 51
229.6057436704
  0
ARC
  5
231
100
AcDbEntity
  8
0
100
AcDbCircle
 62
7
  6
BYLAYER
 10
40.9513038403
 20
34.9431001605
 40
9.2515329054
100
AcDbArc
 50
190.6519735471
 51
194.8250407875
  0
ARC
  5
232
100
AcDbEntity
  8
0
100
AcDbCircle
 62
7
  6
BYLAYER
 10
36.6961616427
 20
32.4906141986
 40
9.2386557464
100
AcDbArc
 50
190.6479120324
 51
194.826794555
  0
ARC
  5
233
100
AcDbEntity
  8
0
100
AcDbCircle
 62
7
  6
BYLAYER
 10
29.5855843942
 20
33.8787965355
 40
8.5657877058
100
AcDbArc
 50
234.6566516117
 51
238.8570150741
  0
ARC
  5
234
100
AcDbEntity
  8
0
100
AcDbCircle
 62
7
  6
BYLAYER
 10
22.1854215714
 20
29.0506646461
 40
8.4743593693
100
AcDbArc
 50
17.3337492925
 51
21.757877044
  0
ARC
  5
235
100
AcDbEntity
  8
0
100
AcDbCircle
 62
7
  6
BYLAYER
 10
26.4302872917
 20
31.5007469971
 40
8.4720417558
100
AcDbArc
 50
17.3342821796
 51
21.7596211558
  0
ARC
  5
236
100
AcDbEntity
  8
0
100
AcDbCircle
 62
7
  6
BYLAYER
 10
29.7922929589
 20
36.1665200902
 40
7.2005822882
100
AcDbArc
 50
274.2111729435
 51
275.1146623764
  0
ARC
  5
237
100
AcDbEntity
  8
0
100
AcDbCircle
 62
7
  6
BYLAYER
 10
28.2526136958
 20
31.8219170869
 40
6.3036768324
100
AcDbArc
 50
179.9898390875
 51
183.3892728426
  0
ARC
  5
238
100
AcDbEntity
  8
0
100
AcDbCircle
 62
7
  6
BYLAYER
 10
24.7164646757
 20
29.9202375053
 40
6.0605515935
100
AcDbArc
 50
61.6425041607
 51
66.4257523861
  0
ARC
  5
239
100
AcDbEntity
  8
0
100
AcDbCircle
 62
7
  6
BYLAYER
 10
28.981319513
 20
32.4162604099
 40
6.0089843372
100
AcDbArc
 50
61.6181927883
 51
66.4424972061
  0
ARC
  5
23A
100
AcDbEntity
  8
0
100
AcDbCircle
 62
7
  6
BYLAYER
 10
31.3139474581
 20
34.005878887
 40
3.9969029909
100
AcDbArc
 50
38.7935033422
 51
39.614268173
  0
ARC
  5
23B
100
AcDbEntity
  8
0
100
AcDbCircle
 62
7
  6
BYLAYER
 10
31.6753183094
 20
34.2216514918
 40
3.623295445
100
AcDbArc
 50
39.6128081006
 51
40.7303020562
  0
ARC
  5
23C
100
AcDbEntity
  8
0
100
AcDbCircle
 62
7
  6
BYLAYER
 10
32.2779246737
 20
34.5654767733
 40
3.0042298144
100
AcDbArc
 50
39.6041080851
 51
42.0492379911
  0
ARC
  5
23D
100
AcDbEntity
  8
0
100
AcDbCircle
 62
7
  6
BYLAYER
 10
12.6006747339
 20
23.1595490157
 40
2.7369905084
100
AcDbArc
 50
21.6492609983
 51
30.5501306868
  0
ARC
  5
23E
100
AcDbEntity
  8
0
100
AcDbCircle
 62
7
  6
BYLAYER
 10
12.6106293648
 20
23.1643687314
 40
2.7259671753
100
AcDbArc
 50
21.632227858
 51
30.5692493862
  0
ARC
  5
23F
100
AcDbEntity
  8
0
100
AcDbCircle
 62
7
  6
BYLAYER
 10
12.6296041429
 20
23.1798350998
 40
2.7017662166
100
AcDbArc
 50
30.491492647
 51
39.5374835842
  0
ARC
  5
240
100
AcDbEntity
  8
0
100
AcDbCircle
 62
7
  6
BYLAYER
 10
12.7931074812
 20
23.2391429444
 40
2.5287767899
100
AcDbArc
 50
17.2834699598
 51
21.581526836
  0
ARC
  5
241
100
AcDbEntity
  8
0
100
AcDbCircle
 62
7
  6
BYLAYER
 10
12.794893832
 20
23.2396778955
 40
2.5269118224
100
AcDbArc
 50
17.2839064979
 51
21.5852173793
  0
ARC
  5
242
100
AcDbEntity
  8
0
100
AcDbCircle
 62
7
  6
BYLAYER
 10
32.800908189
 20
34.2295063656
 40
2.512328268
100
AcDbArc
 50
0.050390368
 51
3.5246883791
  0
ARC
  5
243
100
AcDbEntity
  8
0
100
AcDbCircle
 62
7
  6
BYLAYER
 10
32.3083926629
 20
35.1525972414
 40
2.4726587104
100
AcDbArc
 50
56.2639771269
 51
59.978948647
  0
ARC
  5
244
100
AcDbEntity
  8
0
100
AcDbCircle
 62
7
  6
BYLAYER
 10
30.2871941509
 20
30.64823391
 40
1.6601489742
100
AcDbArc
 50
271.7124965953
 51
275.0808177507
  0
ARC
  5
245
100
AcDbEntity
  8
0
100
AcDbCircle
 62
7
  6
BYLAYER
 10
13.7253093877
 20
23.4123365327
 40
1.5768909699
100
AcDbArc
 50
1.1665968726
 51
1.7861954908
  0
ARC
  5
246
100
AcDbEntity
  8
0
100
AcDbCircle
 62
7
  6
BYLAYER
 10
13.7299080452
 20
23.412450941
 40
1.5722899571
100
AcDbArc
 50
1.165860956
 51
1.7872746482
  0
ARC
  5
247
100
AcDbEntity
  8
0
100
AcDbCircle
 62
7
  6
BYLAYER
 10
14.6978318337
 20
23.1520383932
 40
0.5446196251
100
AcDbArc
 50
300.0814686024
 51
312.8474419473
  0
ARC
  5
248
100
AcDbEntity
  8
0
100
AcDbCircle
 62
7
  6
BYLAYER
 10
14.6998219827
 20
23.1493860724
 40
0.5413274634
100
AcDbArc
 50
300.039906355
 51
312.8838605186
  0
SPLINE
  5
249
100
AcDbEntity
  8
0
100
AcDbSpline
 62
7
  6
BYLAYER
 70
0
 71
3
 72
15
 73
11
 74
0
 42
0.0000001
 43
0.0000001
 44
0.0000000001
 40
0.0
 40
0.0
 40
0.0
 40
0.0
 40
0.129055516
 40
0.2596758569
 40
0.390399805
 40
0.5198187543
 40
0.6465632616
 40
0.7694317216
 40
0.8874571585
 40
1.0
 40
1.0
 40
1.0
 40
1.0
 10
34.5925862216
 20
36.480610893
 30
0.0
 10
34.6475794848
 20
36.4141705141
 30
0.0
 10
34.7526639125
 20
36.2757773623
 30
0.0
 10
34.8935025693
 20
36.0558481199
 30
0.0
 10
35.0167153169
 20
35.8252849879
 30
0.0
 10
35.1201889239
 20
35.5880321212
 30
0.0
 10
35.2021127856
 20
35.3480239489
 30
0.0
 10
35.2610049097
 20
35.1091416329
 30
0.0
 10
35.2956832687
 20
34.8751373846
 30
0.0
 10
35.3021867466
 20
34.7208004725
 30
0.0
 10
35.3007729496
 20
34.6456018877
 30
0.0
  0
SPLINE
  5
24A
100
AcDbEntity
  8
0
100
AcDbSpline
 62
7
  6
BYLAYER
 70
0
 71
3
 72
13
 73
9
 74
0
 42
0.0000001
 43
0.0000001
 44
0.0000000001
 40
0.0
 40
0.0
 40
0.0
 40
0.0
 40
0.1199957894
 40
0.2418406162
 40
0.4901292416
 40
0.6161412389
 40
0.7431513945
 40
1.0
 40
1.0
 40
1.0
 40
1.0
 10
34.177228868
 20
36.8892551797
 30
0.0
 10
34.1680931541
 20
36.8964089776
 30
0.0
 10
34.1494371924
 20
36.9105170779
 30
0.0
 10
34.110880023
 20
36.9380846455
 30
0.0
 10
34.0708919197
 20
36.9646200764
 30
0.0
 10
34.0298701165
 20
36.9904495141
 30
0.0
 10
33.9878017822
 20
37.0161638059
 30
0.0
 10
33.9557534771
 20
37.0349002976
 30
0.0
 10
33.9341654005
 20
37.0471811883
 30
0.0
  0
SPLINE
  5
24B
100
AcDbEntity
  8
0
100
AcDbSpline
 62
7
  6
BYLAYER
 70
0
 71
3
 72
22
 73
18
 74
0
 42
0.0000001
 43
0.0000001
 44
0.0000000001
 40
0.0
 40
0.0
 40
0.0
 40
0.0
 40
0.0334313203
 40
0.0641184739
 40
0.0928367857
 40
0.1204807315
 40
0.1744248685
 40
0.2289317445
 40
0.2852222714
 40
0.3434233235
 40
0.4033798823
 40
0.4649981854
 40
0.5281204292
 40
0.5925387858
 40
0.7247257705
 40
0.8607759211
 40
1.0
 40
1.0
 40
1.0
 40
1.0
 10
34.2768589273
 20
36.7168063985
 30
0.0
 10
34.2787627654
 20
36.7183714504
 30
0.0
 10
34.282192862
 20
36.7216636094
 30
0.0
 10
34.2862067819
 20
36.7272564689
 30
0.0
 10
34.2888986683
 20
36.7331235532
 30
0.0
 10
34.2909727009
 20
36.7410181181
 30
0.0
 10
34.2913635728
 20
36.7511746492
 30
0.0
 10
34.2889245044
 20
36.7631557236
 30
0.0
 10
34.2843503398
 20
36.7747878486
 30
0.0
 10
34.2783170248
 20
36.7861656756
 30
0.0
 10
34.2711328709
 20
36.7973179083
 30
0.0
 10
34.2629865913
 20
36.8082384516
 30
0.0
 10
34.254045666
 20
36.8189467687
 30
0.0
 10
34.2411470379
 20
36.833103343
 30
0.0
 10
34.2236474536
 20
36.8503101442
 30
0.0
 10
34.2011030871
 20
36.8701759623
 30
0.0
 10
34.1853097034
 20
36.8829274134
 30
0.0
 10
34.177228868
 20
36.8892551797
 30
0.0
  0
SPLINE
  5
24C
100
AcDbEntity
  8
0
100
AcDbSpline
 62
7
  6
BYLAYER
 70
0
 71
3
 72
11
 73
7
 74
0
 42
0.0000001
 43
0.0000001
 44
0.0000000001
 40
0.0
 40
0.0
 40
0.0
 40
0.0
 40
0.2540639031
 40
0.5054301219
 40
0.7540248486
 40
1.0
 40
1.0
 40
1.0
 40
1.0
 10
33.2626330022
 20
36.2844788127
 30
0.0
 10
33.3658917194
 20
36.1560253004
 30
0.0
 10
33.5636232178
 20
35.8941868173
 30
0.0
 10
33.8345355879
 20
35.4866061882
 30
0.0
 10
34.0794914116
 20
35.0690408001
 30
0.0
 10
34.2279325582
 20
34.7844721161
 30
0.0
 10
34.2986731448
 20
34.6414462846
 30
0.0
  0
SPLINE
  5
24D
100
AcDbEntity
  8
0
100
AcDbSpline
 62
7
  6
BYLAYER
 70
0
 71
3
 72
11
 73
7
 74
0
 42
0.0000001
 43
0.0000001
 44
0.0000000001
 40
0.0
 40
0.0
 40
0.0
 40
0.0
 40
0.2382406496
 40
0.4837780008
 40
0.7375145352
 40
1.0
 40
1.0
 40
1.0
 40
1.0
 10
34.5175517694
 20
34.0249587071
 30
0.0
 10
34.5428273995
 20
33.9168959568
 30
0.0
 10
34.5884158846
 20
33.6960671612
 30
0.0
 10
34.6388455928
 20
33.3560425865
 30
0.0
 10
34.6700483176
 20
33.002361751
 30
0.0
 10
34.6768531358
 20
32.7618237716
 30
0.0
 10
34.6768531358
 20
32.6395504922
 30
0.0
  0
SPLINE
  5
24E
100
AcDbEntity
  8
0
100
AcDbSpline
 62
7
  6
BYLAYER
 70
0
 71
3
 72
11
 73
7
 74
0
 42
0.0000001
 43
0.0000001
 44
0.0000000001
 40
0.0
 40
0.0
 40
0.0
 40
0.0
 40
0.2838182685
 40
0.5441134718
 40
0.7821132734
 40
1.0
 40
1.0
 40
1.0
 40
1.0
 10
30.4341941014
 20
37.9174419302
 30
0.0
 10
30.5237155142
 20
37.9254392485
 30
0.0
 10
30.6956353627
 20
37.937735349
 30
0.0
 10
30.9432875202
 20
37.9449349004
 30
0.0
 10
31.1701332855
 20
37.9408655684
 30
0.0
 10
31.3142392212
 20
37.9310157207
 30
0.0
 10
31.3829254535
 20
37.9244523675
 30
0.0
  0
SPLINE
  5
24F
100
AcDbEntity
  8
0
100
AcDbSpline
 62
7
  6
BYLAYER
 70
0
 71
3
 72
9
 73
5
 74
0
 42
0.0000001
 43
0.0000001
 44
0.0000000001
 40
0.0
 40
0.0
 40
0.0
 40
0.0
 40
0.2424643805
 40
1.0
 40
1.0
 40
1.0
 40
1.0
 10
34.5175517706
 20
31.0701980023
 30
0.0
 10
34.500960922
 20
31.0337115606
 30
0.0
 10
34.4312995401
 20
30.8837925668
 30
0.0
 10
34.3569983279
 20
30.7360476128
 30
0.0
 10
34.2986733342
 20
30.6252325462
 30
0.0
  0
SPLINE
  5
250
100
AcDbEntity
  8
0
100
AcDbSpline
 62
7
  6
BYLAYER
 70
0
 71
3
 72
11
 73
7
 74
0
 42
0.0000001
 43
0.0000001
 44
0.0000000001
 40
0.0
 40
0.0
 40
0.0
 40
0.0
 40
0.2400091685
 40
0.4872767974
 40
0.7409421827
 40
1.0
 40
1.0
 40
1.0
 40
1.0
 10
34.6768531358
 20
32.6395504922
 30
0.0
 10
34.6768531358
 20
32.51318825
 30
0.0
 10
34.6693594568
 20
32.2565967332
 30
0.0
 10
34.6376216441
 20
31.867644458
 30
0.0
 10
34.5868776714
 20
31.4706289199
 30
0.0
 10
34.5422541403
 20
31.2043335257
 30
0.0
 10
34.5175517694
 20
31.0701980016
 30
0.0
  0
SPLINE
  5
251
100
AcDbEntity
  8
0
100
AcDbSpline
 62
7
  6
BYLAYER
 70
0
 71
3
 72
11
 73
7
 74
0
 42
0.0000001
 43
0.0000001
 44
0.0000000001
 40
0.0
 40
0.0
 40
0.0
 40
0.0
 40
0.251694617
 40
0.5025854198
 40
0.7522000199
 40
1.0
 40
1.0
 40
1.0
 40
1.0
 10
31.8376592387
 20
37.7029620223
 30
0.0
 10
31.9680294477
 20
37.5954727811
 30
0.0
 10
32.2243588713
 20
37.3759153579
 30
0.0
 10
32.592912444
 20
37.0304297735
 30
0.0
 10
32.9411869264
 20
36.6680624296
 30
0.0
 10
33.1584085688
 20
36.4141355735
 30
0.0
 10
33.2626330022
 20
36.2844788127
 30
0.0
  0
SPLINE
  5
252
100
AcDbEntity
  8
0
100
AcDbSpline
 62
7
  6
BYLAYER
 70
0
 71
3
 72
11
 73
7
 74
0
 42
0.0000001
 43
0.0000001
 44
0.0000000001
 40
0.0
 40
0.0
 40
0.0
 40
0.0
 40
0.2260254036
 40
0.4696668294
 40
0.7285597842
 40
1.0
 40
1.0
 40
1.0
 40
1.0
 10
30.43421902
 20
28.9946084747
 30
0.0
 10
30.542495022
 20
29.0042806612
 30
0.0
 10
30.7670702863
 20
29.0291690492
 30
0.0
 10
31.1139011259
 20
29.0793938034
 30
0.0
 10
31.4807873676
 20
29.1425267334
 30
0.0
 10
31.7312214293
 20
29.1909897219
 30
0.0
 10
31.8591927835
 20
29.2168062008
 30
0.0
  0
SPLINE
  5
253
100
AcDbEntity
  8
0
100
AcDbSpline
 62
7
  6
BYLAYER
 70
0
 71
3
 72
9
 73
5
 74
0
 42
0.0000001
 43
0.0000001
 44
0.0000000001
 40
0.0
 40
0.0
 40
0.0
 40
0.0
 40
0.252215653
 40
1.0
 40
1.0
 40
1.0
 40
1.0
 10
26.3860278308
 20
36.0254561414
 30
0.0
 10
26.3767838322
 20
35.9789329079
 30
0.0
 10
26.3410736173
 20
35.7942906065
 30
0.0
 10
26.309358586
 20
35.6088632095
 30
0.0
 10
26.2884153095
 20
35.4698000074
 30
0.0
  0
SPLINE
  5
254
100
AcDbEntity
  8
0
100
AcDbSpline
 62
7
  6
BYLAYER
 70
0
 71
3
 72
11
 73
7
 74
0
 42
0.0000001
 43
0.0000001
 44
0.0000000001
 40
0.0
 40
0.0
 40
0.0
 40
0.0
 40
0.2703282154
 40
0.5284969806
 40
0.7723445916
 40
1.0
 40
1.0
 40
1.0
 40
1.0
 10
29.166861546
 20
37.7264881731
 30
0.0
 10
29.2802701513
 20
37.7485481619
 30
0.0
 10
29.502334204
 20
37.7899222554
 30
0.0
 10
29.8280208558
 20
37.8438215182
 30
0.0
 10
30.1369028661
 20
37.8870130751
 30
0.0
 10
30.3372834893
 20
37.9087850277
 30
0.0
 10
30.4341941014
 20
37.9174419302
 30
0.0
  0
SPLINE
  5
255
100
AcDbEntity
  8
0
100
AcDbSpline
 62
7
  6
BYLAYER
 70
0
 71
3
 72
9
 73
5
 74
0
 42
0.0000001
 43
0.0000001
 44
0.0000000001
 40
0.0
 40
0.0
 40
0.0
 40
0.0
 40
0.2550575008
 40
1.0
 40
1.0
 40
1.0
 40
1.0
 10
29.3981786881
 20
36.2945356768
 30
0.0
 10
29.3530426772
 20
36.3084112472
 30
0.0
 10
29.1765074542
 20
36.3641894001
 30
0.0
 10
29.0017916667
 20
36.425794649
 30
0.0
 10
28.8731124115
 20
36.4754197817
 30
0.0
  0
SPLINE
  5
256
100
AcDbEntity
  8
0
100
AcDbSpline
 62
7
  6
BYLAYER
 70
0
 71
3
 72
11
 73
7
 74
0
 42
0.0000001
 43
0.0000001
 44
0.0000000001
 40
0.0
 40
0.0
 40
0.0
 40
0.0
 40
0.2540639021
 40
0.5054301221
 40
0.75402485
 40
1.0
 40
1.0
 40
1.0
 40
1.0
 10
30.4342191692
 20
34.6515030724
 30
0.0
 10
30.3309604361
 20
34.7799565969
 30
0.0
 10
30.1332289274
 20
35.0417951226
 30
0.0
 10
29.862316497
 20
35.4493757832
 30
0.0
 10
29.6173606221
 20
35.8669412115
 30
0.0
 10
29.4689194689
 20
36.1515099362
 30
0.0
 10
29.3981788741
 20
36.2945357842
 30
0.0
  0
SPLINE
  5
257
100
AcDbEntity
  8
0
100
AcDbSpline
 62
7
  6
BYLAYER
 70
0
 71
3
 72
11
 73
7
 74
0
 42
0.0000001
 43
0.0000001
 44
0.0000000001
 40
0.0
 40
0.0
 40
0.0
 40
0.0
 40
0.2703282122
 40
0.5284969816
 40
0.7723445961
 40
1.0
 40
1.0
 40
1.0
 40
1.0
 10
28.8731126829
 20
36.4754199384
 30
0.0
 10
28.7597040915
 20
36.4533599522
 30
0.0
 10
28.5376400629
 20
36.4119858628
 30
0.0
 10
28.2119534461
 20
36.3580865997
 30
0.0
 10
27.9030714694
 20
36.3148950398
 30
0.0
 10
27.7026908682
 20
36.2931230934
 30
0.0
 10
27.6057802688
 20
36.2844661901
 30
0.0
  0
SPLINE
  5
258
100
AcDbEntity
  8
0
100
AcDbSpline
 62
7
  6
BYLAYER
 70
0
 71
3
 72
11
 73
7
 74
0
 42
0.0000001
 43
0.0000001
 44
0.0000000001
 40
0.0
 40
0.0
 40
0.0
 40
0.0
 40
0.2838182595
 40
0.5441134674
 40
0.7821132765
 40
1.0
 40
1.0
 40
1.0
 40
1.0
 10
27.6057802688
 20
36.2844661901
 30
0.0
 10
27.5162588442
 20
36.2764688689
 30
0.0
 10
27.3443389683
 20
36.2641727704
 30
0.0
 10
27.0966867694
 20
36.2569732099
 30
0.0
 10
26.8698409634
 20
36.2610425326
 30
0.0
 10
26.7257350023
 20
36.270892381
 30
0.0
 10
26.6570487597
 20
36.2774557349
 30
0.0
  0
SPLINE
  5
259
100
AcDbEntity
  8
0
100
AcDbSpline
 62
7
  6
BYLAYER
 70
0
 71
3
 72
9
 73
5
 74
0
 42
0.0000001
 43
0.0000001
 44
0.0000000001
 40
0.0
 40
0.0
 40
0.0
 40
0.0
 40
0.2408791305
 40
1.0
 40
1.0
 40
1.0
 40
1.0
 10
31.8591925975
 20
29.2168060934
 30
0.0
 10
31.8698281651
 20
29.2497241575
 30
0.0
 10
31.9153619386
 20
29.3859343915
 30
0.0
 10
31.966405711
 20
29.5202847846
 30
0.0
 10
32.0077391522
 20
29.6211656611
 30
0.0
  0
SPLINE
  5
25A
100
AcDbEntity
  8
0
100
AcDbSpline
 62
7
  6
BYLAYER
 70
0
 71
3
 72
11
 73
7
 74
0
 42
0.0000001
 43
0.0000001
 44
0.0000000001
 40
0.0
 40
0.0
 40
0.0
 40
0.0
 40
0.2382406496
 40
0.4837780008
 40
0.7375145352
 40
1.0
 40
1.0
 40
1.0
 40
1.0
 10
32.0077391534
 20
29.6211656617
 30
0.0
 10
31.9824635233
 20
29.7292284121
 30
0.0
 10
31.9368750382
 20
29.9500572076
 30
0.0
 10
31.88644533
 20
30.2900817823
 30
0.0
 10
31.8552426052
 20
30.6437626179
 30
0.0
 10
31.848437787
 20
30.8843005972
 30
0.0
 10
31.848437787
 20
31.0065738767
 30
0.0
  0
SPLINE
  5
25B
100
AcDbEntity
  8
0
100
AcDbSpline
 62
7
  6
BYLAYER
 70
0
 71
3
 72
11
 73
7
 74
0
 42
0.0000001
 43
0.0000001
 44
0.0000000001
 40
0.0
 40
0.0
 40
0.0
 40
0.0
 40
0.2400091685
 40
0.4872767974
 40
0.7409421827
 40
1.0
 40
1.0
 40
1.0
 40
1.0
 10
31.848437787
 20
31.0065738767
 30
0.0
 10
31.848437787
 20
31.1329361188
 30
0.0
 10
31.855931466
 20
31.3895276357
 30
0.0
 10
31.8876692787
 20
31.7784799108
 30
0.0
 10
31.9384132514
 20
32.1754954489
 30
0.0
 10
31.9830367825
 20
32.4417908432
 30
0.0
 10
32.0077391534
 20
32.5759263672
 30
0.0
  0
SPLINE
  5
25C
100
AcDbEntity
  8
0
100
AcDbSpline
 62
7
  6
BYLAYER
 70
0
 71
3
 72
21
 73
17
 74
0
 42
0.0000001
 43
0.0000001
 44
0.0000000001
 40
0.0
 40
0.0
 40
0.0
 40
0.0
 40
0.149075768
 40
0.2931416342
 40
0.3628741554
 40
0.4308625424
 40
0.4969733797
 40
0.561101571
 40
0.6231652507
 40
0.6831138902
 40
0.7409259282
 40
0.7966173383
 40
0.8502427715
 40
0.9019121697
 40
0.9517747258
 40
1.0
 40
1.0
 40
1.0
 40
1.0
 10
30.4342183615
 20
34.6515026968
 30
0.0
 10
30.3287784743
 20
34.7826717584
 30
0.0
 10
30.1113010988
 20
35.0326512109
 30
0.0
 10
29.8172543233
 20
35.3186647711
 30
0.0
 10
29.5744962874
 20
35.5244062268
 30
0.0
 10
29.3920171736
 20
35.6647435373
 30
0.0
 10
29.2079299515
 20
35.7921579105
 30
0.0
 10
29.0230291863
 20
35.9061254203
 30
0.0
 10
28.838083213
 20
36.0061397063
 30
0.0
 10
28.6538845566
 20
36.0917935616
 30
0.0
 10
28.4711980303
 20
36.1626902358
 30
0.0
 10
28.290807567
 20
36.2185479449
 30
0.0
 10
28.1134578987
 20
36.2590911944
 30
0.0
 10
27.9398847852
 20
36.2841468932
 30
0.0
 10
27.7708645953
 20
36.2935531139
 30
0.0
 10
27.6600057372
 20
36.2893105505
 30
0.0
 10
27.6057794361
 20
36.2844657457
 30
0.0
  0
SPLINE
  5
25D
100
AcDbEntity
  8
0
100
AcDbSpline
 62
7
  6
BYLAYER
 70
0
 71
3
 72
15
 73
11
 74
0
 42
0.0000001
 43
0.0000001
 44
0.0000000001
 40
0.0
 40
0.0
 40
0.0
 40
0.0
 40
0.1270803854
 40
0.2509757336
 40
0.3728647694
 40
0.4941358055
 40
0.6161979334
 40
0.740398912
 40
0.8679754745
 40
1.0
 40
1.0
 40
1.0
 40
1.0
 10
27.6057794361
 20
36.2844657457
 30
0.0
 10
27.5446268628
 20
36.2790036822
 30
0.0
 10
27.4243330424
 20
36.2612598412
 30
0.0
 10
27.250277322
 20
36.2130661041
 30
0.0
 10
27.0864355114
 20
36.1438849563
 30
0.0
 10
26.9339077586
 20
36.0541552375
 30
0.0
 10
26.7936348513
 20
35.9444606703
 30
0.0
 10
26.6664992228
 20
35.8154950562
 30
0.0
 10
26.5532375945
 20
35.6681466001
 30
0.0
 10
26.4886280334
 20
35.5602944329
 30
0.0
 10
26.4587611224
 20
35.5039344133
 30
0.0
  0
SPLINE
  5
25E
100
AcDbEntity
  8
0
100
AcDbSpline
 62
7
  6
BYLAYER
 70
0
 71
3
 72
11
 73
7
 74
0
 42
0.0000001
 43
0.0000001
 44
0.0000000001
 40
0.0
 40
0.0
 40
0.0
 40
0.0
 40
0.2516946164
 40
0.5025854196
 40
0.7522000205
 40
1.0
 40
1.0
 40
1.0
 40
1.0
 10
31.8591927869
 20
33.2330200505
 30
0.0
 10
31.7288225934
 20
33.3405092787
 30
0.0
 10
31.4724932081
 20
33.5600666854
 30
0.0
 10
31.1039396637
 20
33.9055522128
 30
0.0
 10
30.7556651978
 20
34.2679194926
 30
0.0
 10
30.5384435939
 20
34.5218463302
 30
0.0
 10
30.4342191692
 20
34.6515030724
 30
0.0
  0
SPLINE
  5
25F
100
AcDbEntity
  8
0
100
AcDbSpline
 62
7
  6
BYLAYER
 70
0
 71
3
 72
23
 73
19
 74
0
 42
0.0000001
 43
0.0000001
 44
0.0000000001
 40
0.0
 40
0.0
 40
0.0
 40
0.0
 40
0.0583031266
 40
0.115294756
 40
0.1713530566
 40
0.2269333302
 40
0.2825161451
 40
0.3385720072
 40
0.3955510609
 40
0.4538676353
 40
0.5138886011
 40
0.575920851
 40
0.6402120602
 40
0.706941772
 40
0.7762362964
 40
0.8481770744
 40
0.9227900099
 40
1.0
 40
1.0
 40
1.0
 40
1.0
 10
30.4342183119
 20
28.9946080415
 30
0.0
 10
30.4869046434
 20
28.9993139764
 30
0.0
 10
30.5907191243
 20
29.0137873349
 30
0.0
 10
30.7418602815
 20
29.0513998509
 30
0.0
 10
30.8856677614
 20
29.1045422744
 30
0.0
 10
31.0214463849
 20
29.1729517781
 30
0.0
 10
31.1485726994
 20
29.2563432322
 30
0.0
 10
31.2664892655
 20
29.3543013902
 30
0.0
 10
31.3746428213
 20
29.4663936989
 30
0.0
 10
31.4725942007
 20
29.5920688883
 30
0.0
 10
31.5599128648
 20
29.7307715833
 30
0.0
 10
31.6362755764
 20
29.8818661103
 30
0.0
 10
31.7013501119
 20
30.0447023612
 30
0.0
 10
31.7549167232
 20
30.2185613741
 30
0.0
 10
31.7967413922
 20
30.4027155281
 30
0.0
 10
31.8266821715
 20
30.5963950559
 30
0.0
 10
31.8445947345
 20
30.7987431203
 30
0.0
 10
31.848437787
 20
30.9365243595
 30
0.0
 10
31.848437787
 20
31.0065738767
 30
0.0
  0
SPLINE
  5
260
100
AcDbEntity
  8
0
100
AcDbSpline
 62
7
  6
BYLAYER
 70
0
 71
3
 72
18
 73
14
 74
0
 42
0.0000001
 43
0.0000001
 44
0.0000000001
 40
0.0
 40
0.0
 40
0.0
 40
0.0
 40
0.0545788208
 40
0.1108690061
 40
0.1687478886
 40
0.2281070914
 40
0.2888301882
 40
0.3507751833
 40
0.4776788933
 40
0.6075135486
 40
0.7388396366
 40
0.8701656319
 40
1.0
 40
1.0
 40
1.0
 40
1.0
 10
31.848437787
 20
31.0065738767
 30
0.0
 10
31.848437787
 20
31.0789541728
 30
0.0
 10
31.8442005732
 20
31.226011134
 30
0.0
 10
31.8259041989
 20
31.449142064
 30
0.0
 10
31.7956066584
 20
31.6773592798
 30
0.0
 10
31.7534649665
 20
31.909656086
 30
0.0
 10
31.6996446329
 20
32.145061321
 30
0.0
 10
31.6119408072
 20
32.4642906455
 30
0.0
 10
31.4743304108
 20
32.8644262484
 30
0.0
 10
31.269035188
 20
33.3368778864
 30
0.0
 10
31.025679282
 20
33.7975578123
 30
0.0
 10
30.7484178054
 20
34.2386151802
 30
0.0
 10
30.5420948769
 20
34.5173049215
 30
0.0
 10
30.4342183615
 20
34.6515026968
 30
0.0
  0
SPLINE
  5
261
100
AcDbEntity
  8
0
100
AcDbSpline
 62
7
  6
BYLAYER
 70
0
 71
3
 72
11
 73
7
 74
0
 42
0.0000001
 43
0.0000001
 44
0.0000000001
 40
0.0
 40
0.0
 40
0.0
 40
0.0
 40
0.2382406496
 40
0.4837780008
 40
0.7375145352
 40
1.0
 40
1.0
 40
1.0
 40
1.0
 10
30.2749287461
 20
31.5754937839
 30
0.0
 10
30.3002043763
 20
31.4674310335
 30
0.0
 10
30.3457928613
 20
31.246602238
 30
0.0
 10
30.3962225695
 20
30.9065776633
 30
0.0
 10
30.4274252943
 20
30.5528968277
 30
0.0
 10
30.4342301125
 20
30.3123588484
 30
0.0
 10
30.4342301125
 20
30.1900855689
 30
0.0
  0
SPLINE
  5
262
100
AcDbEntity
  8
0
100
AcDbSpline
 62
7
  6
BYLAYER
 70
0
 71
3
 72
11
 73
7
 74
0
 42
0.0000001
 43
0.0000001
 44
0.0000000001
 40
0.0
 40
0.0
 40
0.0
 40
0.0
 40
0.2540639031
 40
0.5054301219
 40
0.7540248486
 40
1.0
 40
1.0
 40
1.0
 40
1.0
 10
29.020009979
 20
33.8350138895
 30
0.0
 10
29.1232686962
 20
33.7065603772
 30
0.0
 10
29.3210001945
 20
33.4447218941
 30
0.0
 10
29.5919125646
 20
33.037141265
 30
0.0
 10
29.8368683883
 20
32.6195758769
 30
0.0
 10
29.9853095349
 20
32.3350071929
 30
0.0
 10
30.0560501215
 20
32.1919813614
 30
0.0
  0
SPLINE
  5
263
100
AcDbEntity
  8
0
100
AcDbSpline
 62
7
  6
BYLAYER
 70
0
 71
3
 72
11
 73
7
 74
0
 42
0.0000001
 43
0.0000001
 44
0.0000000001
 40
0.0
 40
0.0
 40
0.0
 40
0.0
 40
0.2400091685
 40
0.4872767974
 40
0.7409421827
 40
1.0
 40
1.0
 40
1.0
 40
1.0
 10
30.4342301125
 20
30.1900855689
 30
0.0
 10
30.4342301125
 20
30.0637233268
 30
0.0
 10
30.4267364335
 20
29.8071318099
 30
0.0
 10
30.3949986209
 20
29.4181795348
 30
0.0
 10
30.3442546481
 20
29.0211639967
 30
0.0
 10
30.299631117
 20
28.7548686024
 30
0.0
 10
30.2749287461
 20
28.6207330784
 30
0.0
  0
SPLINE
  5
264
100
AcDbEntity
  8
0
100
AcDbSpline
 62
7
  6
BYLAYER
 70
0
 71
3
 72
10
 73
6
 74
0
 42
0.0000001
 43
0.0000001
 44
0.0000000001
 40
0.0
 40
0.0
 40
0.0
 40
0.0
 40
0.2574210413
 40
0.6343596211
 40
1.0
 40
1.0
 40
1.0
 40
1.0
 10
30.0560503109
 20
28.175767623
 30
0.0
 10
30.0758707593
 20
28.2134256521
 30
0.0
 10
30.1241541368
 20
28.306522196
 30
0.0
 10
30.1976913965
 20
28.4545941825
 30
0.0
 10
30.2499084426
 20
28.565708655
 30
0.0
 10
30.2749287473
 20
28.6207330791
 30
0.0
  0
SPLINE
  5
265
100
AcDbEntity
  8
0
100
AcDbSpline
 62
7
  6
BYLAYER
 70
0
 71
3
 72
11
 73
7
 74
0
 42
0.0000001
 43
0.0000001
 44
0.0000000001
 40
0.0
 40
0.0
 40
0.0
 40
0.0
 40
0.2260254036
 40
0.4696668294
 40
0.7285597843
 40
1.0
 40
1.0
 40
1.0
 40
1.0
 10
26.1915959967
 20
26.5451435514
 30
0.0
 10
26.2998719987
 20
26.554815738
 30
0.0
 10
26.524447263
 20
26.579704126
 30
0.0
 10
26.8712781026
 20
26.6299288801
 30
0.0
 10
27.2381643443
 20
26.6930618102
 30
0.0
 10
27.488598406
 20
26.7415247987
 30
0.0
 10
27.6165697602
 20
26.7673412776
 30
0.0
  0
SPLINE
  5
266
100
AcDbEntity
  8
0
100
AcDbSpline
 62
7
  6
BYLAYER
 70
0
 71
3
 72
11
 73
7
 74
0
 42
0.0000001
 43
0.0000001
 44
0.0000000001
 40
0.0
 40
0.0
 40
0.0
 40
0.0
 40
0.2146270183
 40
0.4510208667
 40
0.712225535
 40
1.0
 40
1.0
 40
1.0
 40
1.0
 10
25.1555558541
 20
26.5474953429
 30
0.0
 10
25.2292818638
 20
26.5387159652
 30
0.0
 10
25.3847975218
 20
26.5249388131
 30
0.0
 10
25.6311780874
 20
26.5171457396
 30
0.0
 10
25.9029167265
 20
26.5230735958
 30
0.0
 10
26.0924397437
 20
26.5362855384
 30
0.0
 10
26.1915959967
 20
26.5451435514
 30
0.0
  0
SPLINE
  5
267
100
AcDbEntity
  8
0
100
AcDbSpline
 62
7
  6
BYLAYER
 70
0
 71
3
 72
11
 73
7
 74
0
 42
0.0000001
 43
0.0000001
 44
0.0000000001
 40
0.0
 40
0.0
 40
0.0
 40
0.0
 40
0.2703282154
 40
0.5284969806
 40
0.7723445916
 40
1.0
 40
1.0
 40
1.0
 40
1.0
 10
24.9242385227
 20
35.2770232499
 30
0.0
 10
25.037647128
 20
35.2990832386
 30
0.0
 10
25.2597111807
 20
35.3404573322
 30
0.0
 10
25.5853978325
 20
35.394356595
 30
0.0
 10
25.8942798428
 20
35.4375481519
 30
0.0
 10
26.0946604661
 20
35.4593201044
 30
0.0
 10
26.1915710782
 20
35.467977007
 30
0.0
  0
SPLINE
  5
268
100
AcDbEntity
  8
0
100
AcDbSpline
 62
7
  6
BYLAYER
 70
0
 71
3
 72
11
 73
7
 74
0
 42
0.0000001
 43
0.0000001
 44
0.0000000001
 40
0.0
 40
0.0
 40
0.0
 40
0.0
 40
0.2595957961
 40
0.5136102645
 40
0.7607776201
 40
1.0
 40
1.0
 40
1.0
 40
1.0
 10
22.1434048075
 20
33.5759912182
 30
0.0
 10
22.1136168845
 20
33.4260744383
 30
0.0
 10
22.0595257439
 20
33.1284644252
 30
0.0
 10
21.9973853571
 20
32.6847059875
 30
0.0
 10
21.9582321423
 20
32.2503294769
 30
0.0
 10
21.9489369625
 20
31.9638868278
 30
0.0
 10
21.9489369625
 20
31.8230349896
 30
0.0
  0
SPLINE
  5
269
100
AcDbEntity
  8
0
100
AcDbSpline
 62
7
  6
BYLAYER
 70
0
 71
3
 72
11
 73
7
 74
0
 42
0.0000001
 43
0.0000001
 44
0.0000000001
 40
0.0
 40
0.0
 40
0.0
 40
0.0
 40
0.251694617
 40
0.5025854198
 40
0.7522000199
 40
1.0
 40
1.0
 40
1.0
 40
1.0
 10
27.5950362154
 20
35.253497099
 30
0.0
 10
27.7254064244
 20
35.1460078579
 30
0.0
 10
27.981735848
 20
34.9264504346
 30
0.0
 10
28.3502894207
 20
34.5809648502
 30
0.0
 10
28.6985639031
 20
34.2185975064
 30
0.0
 10
28.9157855456
 20
33.9646706503
 30
0.0
 10
29.020009979
 20
33.8350138895
 30
0.0
  0
SPLINE
  5
26A
100
AcDbEntity
  8
0
100
AcDbSpline
 62
7
  6
BYLAYER
 70
0
 71
3
 72
11
 73
7
 74
0
 42
0.0000001
 43
0.0000001
 44
0.0000000001
 40
0.0
 40
0.0
 40
0.0
 40
0.0
 40
0.2838182685
 40
0.5441134718
 40
0.7821132734
 40
1.0
 40
1.0
 40
1.0
 40
1.0
 10
26.1915710782
 20
35.467977007
 30
0.0
 10
26.2810924909
 20
35.4759743253
 30
0.0
 10
26.4530123395
 20
35.4882704258
 30
0.0
 10
26.7006644969
 20
35.4954699772
 30
0.0
 10
26.9275102622
 20
35.4914006451
 30
0.0
 10
27.071616198
 20
35.4815507975
 30
0.0
 10
27.1403024302
 20
35.4749874443
 30
0.0
  0
SPLINE
  5
26B
100
AcDbEntity
  8
0
100
AcDbSpline
 62
7
  6
BYLAYER
 70
0
 71
3
 72
11
 73
7
 74
0
 42
0.0000001
 43
0.0000001
 44
0.0000000001
 40
0.0
 40
0.0
 40
0.0
 40
0.0
 40
0.2400091685
 40
0.4872767974
 40
0.7409421828
 40
1.0
 40
1.0
 40
1.0
 40
1.0
 10
27.6058147637
 20
28.5571089534
 30
0.0
 10
27.6058147637
 20
28.6834711955
 30
0.0
 10
27.6133084428
 20
28.9400627124
 30
0.0
 10
27.6450462554
 20
29.3290149876
 30
0.0
 10
27.6957902281
 20
29.7260305257
 30
0.0
 10
27.7404137592
 20
29.9923259199
 30
0.0
 10
27.7651161301
 20
30.126461444
 30
0.0
  0
SPLINE
  5
26C
100
AcDbEntity
  8
0
100
AcDbSpline
 62
7
  6
BYLAYER
 70
0
 71
3
 72
11
 73
7
 74
0
 42
0.0000001
 43
0.0000001
 44
0.0000000001
 40
0.0
 40
0.0
 40
0.0
 40
0.0
 40
0.2516946164
 40
0.5025854196
 40
0.7522000205
 40
1.0
 40
1.0
 40
1.0
 40
1.0
 10
27.6165697636
 20
30.7835551272
 30
0.0
 10
27.4861995701
 20
30.8910443555
 30
0.0
 10
27.2298701848
 20
31.1106017622
 30
0.0
 10
26.8613166404
 20
31.4560872896
 30
0.0
 10
26.5130421746
 20
31.8184545694
 30
0.0
 10
26.2958205705
 20
32.0723814069
 30
0.0
 10
26.1915961459
 20
32.2020381492
 30
0.0
  0
SPLINE
  5
26D
100
AcDbEntity
  8
0
100
AcDbSpline
 62
7
  6
BYLAYER
 70
0
 71
3
 72
18
 73
14
 74
0
 42
0.0000001
 43
0.0000001
 44
0.0000000001
 40
0.0
 40
0.0
 40
0.0
 40
0.0
 40
0.0545788208
 40
0.1108690061
 40
0.1687478886
 40
0.2281070914
 40
0.2888301882
 40
0.3507751833
 40
0.4776788933
 40
0.6075135486
 40
0.7388396366
 40
0.8701656319
 40
1.0
 40
1.0
 40
1.0
 40
1.0
 10
27.6058147637
 20
28.5571089534
 30
0.0
 10
27.6058147637
 20
28.6294892496
 30
0.0
 10
27.6015775499
 20
28.7765462108
 30
0.0
 10
27.5832811756
 20
28.9996771407
 30
0.0
 10
27.5529836351
 20
29.2278943566
 30
0.0
 10
27.5108419432
 20
29.4601911628
 30
0.0
 10
27.4570216096
 20
29.6955963978
 30
0.0
 10
27.369317784
 20
30.0148257222
 30
0.0
 10
27.2317073875
 20
30.4149613252
 30
0.0
 10
27.0264121647
 20
30.8874129632
 30
0.0
 10
26.7830562587
 20
31.3480928891
 30
0.0
 10
26.5057947821
 20
31.789150257
 30
0.0
 10
26.2994718536
 20
32.0678399983
 30
0.0
 10
26.1915953382
 20
32.2020377736
 30
0.0
  0
SPLINE
  5
26E
100
AcDbEntity
  8
0
100
AcDbSpline
 62
7
  6
BYLAYER
 70
0
 71
3
 72
23
 73
19
 74
0
 42
0.0000001
 43
0.0000001
 44
0.0000000001
 40
0.0
 40
0.0
 40
0.0
 40
0.0
 40
0.0583031266
 40
0.115294756
 40
0.1713530566
 40
0.2269333302
 40
0.2825161451
 40
0.3385720072
 40
0.3955510609
 40
0.4538676353
 40
0.5138886011
 40
0.575920851
 40
0.6402120602
 40
0.706941772
 40
0.7762362964
 40
0.8481770744
 40
0.9227900099
 40
1.0
 40
1.0
 40
1.0
 40
1.0
 10
26.1915952886
 20
26.5451431183
 30
0.0
 10
26.2442816201
 20
26.5498490532
 30
0.0
 10
26.348096101
 20
26.5643224117
 30
0.0
 10
26.4992372582
 20
26.6019349276
 30
0.0
 10
26.6430447381
 20
26.6550773511
 30
0.0
 10
26.7788233616
 20
26.7234868548
 30
0.0
 10
26.9059496761
 20
26.806878309
 30
0.0
 10
27.0238662423
 20
26.904836467
 30
0.0
 10
27.132019798
 20
27.0169287757
 30
0.0
 10
27.2299711775
 20
27.1426039651
 30
0.0
 10
27.3172898415
 20
27.2813066601
 30
0.0
 10
27.3936525531
 20
27.4324011871
 30
0.0
 10
27.4587270886
 20
27.5952374379
 30
0.0
 10
27.5122936999
 20
27.7690964509
 30
0.0
 10
27.5541183689
 20
27.9532506048
 30
0.0
 10
27.5840591482
 20
28.1469301327
 30
0.0
 10
27.6019717112
 20
28.3492781971
 30
0.0
 10
27.6058147637
 20
28.4870594363
 30
0.0
 10
27.6058147637
 20
28.5571089534
 30
0.0
  0
SPLINE
  5
26F
100
AcDbEntity
  8
0
100
AcDbSpline
 62
7
  6
BYLAYER
 70
0
 71
3
 72
15
 73
11
 74
0
 42
0.0000001
 43
0.0000001
 44
0.0000000001
 40
0.0
 40
0.0
 40
0.0
 40
0.0
 40
0.1440573557
 40
0.2827183665
 40
0.4157930104
 40
0.5432059424
 40
0.6650191802
 40
0.7814604995
 40
0.8929472334
 40
1.0
 40
1.0
 40
1.0
 40
1.0
 10
24.4847378742
 20
27.1105425471
 30
0.0
 10
24.5569458862
 20
27.060182454
 30
0.0
 10
24.7016856293
 20
26.9655891814
 30
0.0
 10
24.9232693774
 20
26.8408396628
 30
0.0
 10
25.1440322049
 20
26.7365627662
 30
0.0
 10
25.362647103
 20
26.6534371542
 30
0.0
 10
25.5777929863
 20
26.5919644146
 30
0.0
 10
25.7882133058
 20
26.552570809
 30
0.0
 10
25.9925801128
 20
26.53556859
 30
0.0
 10
26.1264338456
 20
26.5393214017
 30
0.0
 10
26.1915952886
 20
26.5451431183
 30
0.0
  0
SPLINE
  5
270
100
AcDbEntity
  8
0
100
AcDbSpline
 62
7
  6
BYLAYER
 70
0
 71
3
 72
9
 73
5
 74
0
 42
0.0000001
 43
0.0000001
 44
0.0000000001
 40
0.0
 40
0.0
 40
0.0
 40
0.0
 40
0.2453056789
 40
1.0
 40
1.0
 40
1.0
 40
1.0
 10
21.9489369625
 20
31.8230349896
 30
0.0
 10
21.9489369625
 20
31.7946604302
 30
0.0
 10
21.9502464582
 20
31.6789925086
 30
0.0
 10
21.9566701109
 20
31.5633940628
 30
0.0
 10
21.9641143485
 20
31.4764163992
 30
0.0
  0
SPLINE
  5
271
100
AcDbEntity
  8
0
100
AcDbSpline
 62
7
  6
BYLAYER
 70
0
 71
3
 72
23
 73
19
 74
0
 42
0.0000001
 43
0.0000001
 44
0.0000000001
 40
0.0
 40
0.0
 40
0.0
 40
0.0
 40
0.0583031317
 40
0.1152947578
 40
0.171353058
 40
0.2269333309
 40
0.2825161454
 40
0.3385720079
 40
0.3955510617
 40
0.4538676359
 40
0.5138886016
 40
0.5759208516
 40
0.6402120608
 40
0.7069417725
 40
0.7762362968
 40
0.8481770748
 40
0.9227900101
 40
1.0
 40
1.0
 40
1.0
 40
1.0
 10
23.3631564128
 20
33.8350008225
 30
0.0
 10
23.3104700713
 20
33.8302949511
 30
0.0
 10
23.2066555798
 20
33.8158216115
 30
0.0
 10
23.0555144486
 20
33.7782089933
 30
0.0
 10
22.9117069804
 20
33.7250665628
 30
0.0
 10
22.7759283473
 20
33.6566570832
 30
0.0
 10
22.6488020337
 20
33.5732656292
 30
0.0
 10
22.530885474
 20
33.4753074652
 30
0.0
 10
22.4227319203
 20
33.3632151559
 30
0.0
 10
22.3247805413
 20
33.2375399678
 30
0.0
 10
22.237461879
 20
33.0988372733
 30
0.0
 10
22.1610991692
 20
32.9477427469
 30
0.0
 10
22.0960246348
 20
32.7849064969
 30
0.0
 10
22.0424580245
 20
32.6110474852
 30
0.0
 10
22.0006333563
 20
32.4268933328
 30
0.0
 10
21.9706925776
 20
32.2332138066
 30
0.0
 10
21.952780015
 20
32.030865744
 30
0.0
 10
21.9489369625
 20
31.8930845061
 30
0.0
 10
21.9489369625
 20
31.8230349896
 30
0.0
  0
SPLINE
  5
272
100
AcDbEntity
  8
0
100
AcDbSpline
 62
7
  6
BYLAYER
 70
0
 71
3
 72
21
 73
17
 74
0
 42
0.0000001
 43
0.0000001
 44
0.0000000001
 40
0.0
 40
0.0
 40
0.0
 40
0.0
 40
0.149075768
 40
0.2931416342
 40
0.3628741554
 40
0.4308625424
 40
0.4969733797
 40
0.561101571
 40
0.6231652507
 40
0.6831138902
 40
0.7409259282
 40
0.7966173383
 40
0.8502427715
 40
0.9019121697
 40
0.9517747258
 40
1.0
 40
1.0
 40
1.0
 40
1.0
 10
26.1915953382
 20
32.2020377736
 30
0.0
 10
26.086155451
 20
32.3332068352
 30
0.0
 10
25.8686780755
 20
32.5831862877
 30
0.0
 10
25.5746313
 20
32.8691998479
 30
0.0
 10
25.3318732641
 20
33.0749413036
 30
0.0
 10
25.1493941504
 20
33.2152786141
 30
0.0
 10
24.9653069282
 20
33.3426929873
 30
0.0
 10
24.780406163
 20
33.4566604971
 30
0.0
 10
24.5954601897
 20
33.5566747831
 30
0.0
 10
24.4112615333
 20
33.6423286384
 30
0.0
 10
24.2285750071
 20
33.7132253126
 30
0.0
 10
24.0481845437
 20
33.7690830217
 30
0.0
 10
23.8708348755
 20
33.8096262711
 30
0.0
 10
23.6972617619
 20
33.83468197
 30
0.0
 10
23.528241572
 20
33.8440881907
 30
0.0
 10
23.4173827139
 20
33.8398456273
 30
0.0
 10
23.3631564128
 20
33.8350008225
 30
0.0
  0
SPLINE
  5
273
100
AcDbEntity
  8
0
100
AcDbSpline
 62
7
  6
BYLAYER
 70
0
 71
3
 72
11
 73
7
 74
0
 42
0.0000001
 43
0.0000001
 44
0.0000000001
 40
0.0
 40
0.0
 40
0.0
 40
0.0
 40
0.2703282122
 40
0.5284969815
 40
0.772344596
 40
1.0
 40
1.0
 40
1.0
 40
1.0
 10
24.6304896596
 20
34.0259550151
 30
0.0
 10
24.5170810682
 20
34.003895029
 30
0.0
 10
24.2950170396
 20
33.9625209396
 30
0.0
 10
23.9693304228
 20
33.9086216765
 30
0.0
 10
23.6604484461
 20
33.8654301165
 30
0.0
 10
23.4600678449
 20
33.8436581702
 30
0.0
 10
23.3631572455
 20
33.8350012668
 30
0.0
  0
SPLINE
  5
274
100
AcDbEntity
  8
0
100
AcDbSpline
 62
7
  6
BYLAYER
 70
0
 71
3
 72
11
 73
7
 74
0
 42
0.0000001
 43
0.0000001
 44
0.0000000001
 40
0.0
 40
0.0
 40
0.0
 40
0.0
 40
0.2838182595
 40
0.5441134673
 40
0.7821132765
 40
1.0
 40
1.0
 40
1.0
 40
1.0
 10
23.3631572455
 20
33.8350012668
 30
0.0
 10
23.2736358209
 20
33.8270039457
 30
0.0
 10
23.1017159451
 20
33.8147078472
 30
0.0
 10
22.8540637461
 20
33.8075082866
 30
0.0
 10
22.6272179401
 20
33.8115776094
 30
0.0
 10
22.483111979
 20
33.8214274577
 30
0.0
 10
22.4144257364
 20
33.8279908116
 30
0.0
  0
SPLINE
  5
275
100
AcDbEntity
  8
0
100
AcDbSpline
 62
7
  6
BYLAYER
 70
0
 71
3
 72
10
 73
6
 74
0
 42
0.0000001
 43
0.0000001
 44
0.0000000001
 40
0.0
 40
0.0
 40
0.0
 40
0.0
 40
0.259172928
 40
0.636485642
 40
1.0
 40
1.0
 40
1.0
 40
1.0
 10
27.7651161289
 20
27.1717007378
 30
0.0
 10
27.7510033411
 20
27.1372562212
 30
0.0
 10
27.7171220078
 20
27.0523463784
 30
0.0
 10
27.6668594538
 20
26.9177837361
 30
0.0
 10
27.6326210737
 20
26.8170220438
 30
0.0
 10
27.6165695742
 20
26.7673411702
 30
0.0
  0
SPLINE
  5
276
100
AcDbEntity
  8
0
100
AcDbSpline
 62
7
  6
BYLAYER
 70
0
 71
3
 72
11
 73
7
 74
0
 42
0.0000001
 43
0.0000001
 44
0.0000000001
 40
0.0
 40
0.0
 40
0.0
 40
0.0
 40
0.2382406496
 40
0.4837780008
 40
0.7375145352
 40
1.0
 40
1.0
 40
1.0
 40
1.0
 10
27.7651161301
 20
27.1717007385
 30
0.0
 10
27.7398405
 20
27.2797634888
 30
0.0
 10
27.6942520149
 20
27.5005922844
 30
0.0
 10
27.6438223067
 20
27.840616859
 30
0.0
 10
27.6126195819
 20
28.1942976946
 30
0.0
 10
27.6058147637
 20
28.434835674
 30
0.0
 10
27.6058147637
 20
28.5571089534
 30
0.0
  0
SPLINE
  5
277
100
AcDbEntity
  8
0
100
AcDbSpline
 62
7
  6
BYLAYER
 70
0
 71
3
 72
10
 73
6
 74
0
 42
0.0000001
 43
0.0000001
 44
0.0000000001
 40
0.0
 40
0.0
 40
0.0
 40
0.0
 40
0.2448804722
 40
0.6186525351
 40
1.0
 40
1.0
 40
1.0
 40
1.0
 10
24.6304893882
 20
34.0259548585
 30
0.0
 10
24.6727922036
 20
34.009640785
 30
0.0
 10
24.7800748749
 20
33.9694878979
 30
0.0
 10
24.9548909926
 20
33.9084323374
 30
0.0
 10
25.0880663111
 20
33.8658181182
 30
0.0
 10
25.1555556648
 20
33.8450707536
 30
0.0
  0
SPLINE
  5
278
100
AcDbEntity
  8
0
100
AcDbSpline
 62
7
  6
BYLAYER
 70
0
 71
3
 72
11
 73
7
 74
0
 42
0.0000001
 43
0.0000001
 44
0.0000000001
 40
0.0
 40
0.0
 40
0.0
 40
0.0
 40
0.2540639021
 40
0.5054301221
 40
0.75402485
 40
1.0
 40
1.0
 40
1.0
 40
1.0
 10
26.1915961459
 20
32.2020381492
 30
0.0
 10
26.0883374127
 20
32.3304916737
 30
0.0
 10
25.8906059041
 20
32.5923301993
 30
0.0
 10
25.6196934737
 20
32.99991086
 30
0.0
 10
25.3747375988
 20
33.4174762882
 30
0.0
 10
25.2262964456
 20
33.7020450129
 30
0.0
 10
25.1555558508
 20
33.845070861
 30
0.0
  0
SPLINE
  5
279
100
AcDbEntity
  8
0
100
AcDbSpline
 62
7
  6
BYLAYER
 70
0
 71
3
 72
21
 73
17
 74
0
 42
0.0000001
 43
0.0000001
 44
0.0000000001
 40
0.0
 40
0.0
 40
0.0
 40
0.0
 40
0.1569644743
 40
0.3066499564
 40
0.3781385577
 40
0.4471151762
 40
0.5134255203
 40
0.5769764682
 40
0.6377428057
 40
0.6957692501
 40
0.751184187
 40
0.8042020694
 40
0.8551406723
 40
0.9044085042
 40
0.9525065707
 40
1.0
 40
1.0
 40
1.0
 40
1.0
 10
5.143161921
 20
18.334156234
 30
0.0
 10
5.1953618121
 20
18.2710906814
 30
0.0
 10
5.30331882
 20
18.1526767248
 30
0.0
 10
5.4510535051
 20
18.0213589394
 30
0.0
 10
5.5727765803
 20
17.9313012081
 30
0.0
 10
5.6634169703
 20
17.8727178189
 30
0.0
 10
5.7542213588
 20
17.8224441708
 30
0.0
 10
5.8446174488
 20
17.7808118065
 30
0.0
 10
5.9340319371
 20
17.7480825466
 30
0.0
 10
6.0219102344
 20
17.7244924968
 30
0.0
 10
6.1076937299
 20
17.7101859624
 30
0.0
 10
6.1908443603
 20
17.7053153104
 30
0.0
 10
6.270821708
 20
17.7099065278
 30
0.0
 10
6.3470969579
 20
17.7240099713
 30
0.0
 10
6.419131912
 20
17.7475169503
 30
0.0
 10
6.4641147157
 20
17.7694551486
 30
0.0
 10
6.4855661121
 20
17.7818415362
 30
0.0
  0
SPLINE
  5
27A
100
AcDbEntity
  8
0
100
AcDbSpline
 62
7
  6
BYLAYER
 70
0
 71
3
 72
15
 73
11
 74
0
 42
0.0000001
 43
0.0000001
 44
0.0000000001
 40
0.0
 40
0.0
 40
0.0
 40
0.0
 40
0.1108455866
 40
0.2281992816
 40
0.3510455372
 40
0.47816644
 40
0.6081539101
 40
0.7394900827
 40
0.8706327229
 40
1.0
 40
1.0
 40
1.0
 40
1.0
 10
4.5541966981
 20
19.8206650242
 30
0.0
 10
4.5541966981
 20
19.7605118365
 30
0.0
 10
4.5615739842
 20
19.6366013498
 30
0.0
 10
4.5921775342
 20
19.4482959387
 30
0.0
 10
4.6421172806
 20
19.2550453612
 30
0.0
 10
4.7104901161
 20
19.0602750245
 30
0.0
 10
4.7961032561
 20
18.8674063883
 30
0.0
 10
4.8974369566
 20
18.6798326894
 30
0.0
 10
5.0126990824
 20
18.5008974359
 30
0.0
 10
5.0983979027
 20
18.3882381007
 30
0.0
 10
5.143161921
 20
18.334156234
 30
0.0
  0
SPLINE
  5
27B
100
AcDbEntity
  8
0
100
AcDbSpline
 62
7
  6
BYLAYER
 70
0
 71
3
 72
11
 73
7
 74
0
 42
0.0000001
 43
0.0000001
 44
0.0000000001
 40
0.0
 40
0.0
 40
0.0
 40
0.0
 40
0.2624016524
 40
0.5172918994
 40
0.7634827257
 40
1.0
 40
1.0
 40
1.0
 40
1.0
 10
15.2077012836
 20
23.9904410361
 30
0.0
 10
15.221667178
 20
23.9454396229
 30
0.0
 10
15.2466035373
 20
23.8558913995
 30
0.0
 10
15.275100763
 20
23.7216948562
 30
0.0
 10
15.2939491244
 20
23.5904943032
 30
0.0
 10
15.3001107107
 20
23.5039382415
 30
0.0
 10
15.3014341452
 20
23.4614881342
 30
0.0
  0
SPLINE
  5
27C
100
AcDbEntity
  8
0
100
AcDbSpline
 62
7
  6
BYLAYER
 70
0
 71
3
 72
10
 73
6
 74
0
 42
0.0000001
 43
0.0000001
 44
0.0000000001
 40
0.0
 40
0.0
 40
0.0
 40
0.0
 40
0.2705845298
 40
0.527528081
 40
1.0
 40
1.0
 40
1.0
 40
1.0
 10
15.3018735043
 20
23.4444413227
 30
0.0
 10
15.3027220209
 20
23.4027184413
 30
0.0
 10
15.3011155997
 20
23.3212304494
 30
0.0
 10
15.2842060838
 20
23.1678623069
 30
0.0
 10
15.255391971
 20
23.0578236748
 30
0.0
 10
15.2278365323
 20
22.990366652
 30
0.0
  0
SPLINE
  5
27D
100
AcDbEntity
  8
0
100
AcDbSpline
 62
7
  6
BYLAYER
 70
0
 71
3
 72
10
 73
6
 74
0
 42
0.0000001
 43
0.0000001
 44
0.0000000001
 40
0.0
 40
0.0
 40
0.0
 40
0.0
 40
0.5159655163
 40
0.7611796054
 40
1.0
 40
1.0
 40
1.0
 40
1.0
 10
15.2278365323
 20
22.990366652
 30
0.0
 10
15.2090910022
 20
22.9444767041
 30
0.0
 10
15.1751247189
 20
22.8789395387
 30
0.0
 10
15.1172253883
 20
22.8020804433
 30
0.0
 10
15.0850321462
 20
22.7683326835
 30
0.0
 10
15.0682031676
 20
22.7527366992
 30
0.0
  0
SPLINE
  5
27E
100
AcDbEntity
  8
0
100
AcDbSpline
 62
7
  6
BYLAYER
 70
0
 71
3
 72
15
 73
11
 74
0
 42
0.0000001
 43
0.0000001
 44
0.0000000001
 40
0.0
 40
0.0
 40
0.0
 40
0.0
 40
0.1080122843
 40
0.2180613419
 40
0.3319999985
 40
0.4513611937
 40
0.5772689404
 40
0.7104910164
 40
0.8514434359
 40
1.0
 40
1.0
 40
1.0
 40
1.0
 10
4.8855785352
 20
20.553117865
 30
0.0
 10
4.8593460523
 20
20.5379719796
 30
0.0
 10
4.8089051964
 20
20.5027844505
 30
0.0
 10
4.7422684236
 20
20.4371918175
 30
0.0
 10
4.6849483597
 20
20.3593523818
 30
0.0
 10
4.6374978102
 20
20.2701277578
 30
0.0
 10
4.6002649726
 20
20.1704376436
 30
0.0
 10
4.573544637
 20
20.0612281085
 30
0.0
 10
4.557563661
 20
19.943571451
 30
0.0
 10
4.5541966981
 20
19.8623261916
 30
0.0
 10
4.5541966981
 20
19.8206650242
 30
0.0
  0
SPLINE
  5
27F
100
AcDbEntity
  8
0
100
AcDbSpline
 62
7
  6
BYLAYER
 70
0
 71
3
 72
11
 73
7
 74
0
 42
0.0000001
 43
0.0000001
 44
0.0000000001
 40
0.0
 40
0.0
 40
0.0
 40
0.0
 40
0.2458248724
 40
0.4933556043
 40
0.7442369691
 40
1.0
 40
1.0
 40
1.0
 40
1.0
 10
13.3708244408
 20
25.4520479593
 30
0.0
 10
13.386599632
 20
25.4611567324
 30
0.0
 10
13.4192216507
 20
25.4778259022
 30
0.0
 10
13.470720049
 20
25.4978100227
 30
0.0
 10
13.5246587722
 20
25.5127630477
 30
0.0
 10
13.5617000842
 20
25.5192718975
 30
0.0
 10
13.5804970525
 20
25.5216952729
 30
0.0
  0
SPLINE
  5
280
100
AcDbEntity
  8
0
100
AcDbSpline
 62
7
  6
BYLAYER
 70
0
 71
3
 72
11
 73
7
 74
0
 42
0.0000001
 43
0.0000001
 44
0.0000000001
 40
0.0
 40
0.0
 40
0.0
 40
0.0
 40
0.2308457529
 40
0.4733118056
 40
0.729316986
 40
1.0
 40
1.0
 40
1.0
 40
1.0
 10
13.5804970525
 20
25.5216952729
 30
0.0
 10
13.6123082555
 20
25.5257964921
 30
0.0
 10
13.6782612385
 20
25.5291539267
 30
0.0
 10
13.779481393
 20
25.5202877455
 30
0.0
 10
13.8842004621
 20
25.4977774675
 30
0.0
 10
13.9537502845
 20
25.4745196119
 30
0.0
 10
13.9887994818
 20
25.460880094
 30
0.0
  0
SPLINE
  5
281
100
AcDbEntity
  8
0
100
AcDbSpline
 62
7
  6
BYLAYER
 70
0
 71
3
 72
9
 73
5
 74
0
 42
0.0000001
 43
0.0000001
 44
0.0000000001
 40
0.0
 40
0.0
 40
0.0
 40
0.0
 40
0.2439239456
 40
1.0
 40
1.0
 40
1.0
 40
1.0
 10
13.9887994818
 20
25.460880094
 30
0.0
 10
14.0000617266
 20
25.4564973521
 30
0.0
 10
14.0459515252
 20
25.4378110557
 30
0.0
 10
14.0906985784
 20
25.4163499125
 30
0.0
 10
14.1238060799
 20
25.3988263938
 30
0.0
  0
SPLINE
  5
282
100
AcDbEntity
  8
0
100
AcDbSpline
 62
7
  6
BYLAYER
 70
0
 71
3
 72
9
 73
5
 74
0
 42
0.0000001
 43
0.0000001
 44
0.0000000001
 40
0.0
 40
0.0
 40
0.0
 40
0.0
 40
0.4848205093
 40
1.0
 40
1.0
 40
1.0
 40
1.0
 10
14.1238060799
 20
25.3988263938
 30
0.0
 10
14.176638907
 20
25.3708624283
 30
0.0
 10
14.2820318104
 20
25.3062742256
 30
0.0
 10
14.3798869161
 20
25.2308963126
 30
0.0
 10
14.4283508854
 20
25.1898346768
 30
0.0
  0
SPLINE
  5
283
100
AcDbEntity
  8
0
100
AcDbSpline
 62
7
  6
BYLAYER
 70
0
 71
3
 72
21
 73
17
 74
0
 42
0.0000001
 43
0.0000001
 44
0.0000000001
 40
0.0
 40
0.0
 40
0.0
 40
0.0
 40
0.156966836
 40
0.3066515545
 40
0.3781404247
 40
0.4471173127
 40
0.5134277995
 40
0.5769797081
 40
0.6377460864
 40
0.6957721137
 40
0.7511857459
 40
0.804203163
 40
0.8551411156
 40
0.9044087001
 40
0.952506517
 40
1.0
 40
1.0
 40
1.0
 40
1.0
 10
6.2279825957
 20
20.0008034
 30
0.0
 10
6.1757819228
 20
20.0638698972
 30
0.0
 10
6.0678243962
 20
20.182284499
 30
0.0
 10
5.920088654
 20
20.3136026171
 30
0.0
 10
5.79836529
 20
20.4036596602
 30
0.0
 10
5.7077251501
 20
20.4622441692
 30
0.0
 10
5.6169190691
 20
20.5125161646
 30
0.0
 10
5.5265229376
 20
20.5541499184
 30
0.0
 10
5.4371074745
 20
20.5868772404
 30
0.0
 10
5.349230522
 20
20.6104690884
 30
0.0
 10
5.2634476689
 20
20.6247724131
 30
0.0
 10
5.1802984748
 20
20.6296449386
 30
0.0
 10
5.1003218267
 20
20.6250524094
 30
0.0
 10
5.0240472675
 20
20.6109495309
 30
0.0
 10
4.9520118062
 20
20.5874441292
 30
0.0
 10
4.9070303721
 20
20.5655035422
 30
0.0
 10
4.8855785352
 20
20.553117865
 30
0.0
  0
SPLINE
  5
284
100
AcDbEntity
  8
0
100
AcDbSpline
 62
7
  6
BYLAYER
 70
0
 71
3
 72
24
 73
20
 74
0
 42
0.0000001
 43
0.0000001
 44
0.0000000001
 40
0.0
 40
0.0
 40
0.0
 40
0.0
 40
0.0217149917
 40
0.0435747051
 40
0.0882312499
 40
0.1350190222
 40
0.1847012047
 40
0.2377770759
 40
0.2944895249
 40
0.3548621898
 40
0.4187363953
 40
0.4858022319
 40
0.5556325249
 40
0.6277088488
 40
0.701447343
 40
0.7762099963
 40
0.8513314651
 40
0.9261717276
 40
1.0
 40
1.0
 40
1.0
 40
1.0
 10
6.4855661121
 20
17.7818415362
 30
0.0
 10
6.5010450821
 20
17.790779347
 30
0.0
 10
6.531226243
 20
17.8102945583
 30
0.0
 10
6.5880538036
 20
17.8556738617
 30
0.0
 10
6.651923685
 20
17.9244896486
 30
0.0
 10
6.7144407904
 20
18.0230615751
 30
0.0
 10
6.7628176042
 20
18.1367772623
 30
0.0
 10
6.7965390016
 20
18.264037689
 30
0.0
 10
6.8153124995
 20
18.403158077
 30
0.0
 10
6.8189677487
 20
18.55232836
 30
0.0
 10
6.8074874987
 20
18.7096062838
 30
0.0
 10
6.7810553766
 20
18.8729319245
 30
0.0
 10
6.7400322878
 20
19.0401540458
 30
0.0
 10
6.6849553836
 20
19.2090587256
 30
0.0
 10
6.6165634409
 20
19.3774039912
 30
0.0
 10
6.5357758336
 20
19.5429507614
 30
0.0
 10
6.4436475907
 20
19.7035125771
 30
0.0
 10
6.3414180311
 20
19.8569060088
 30
0.0
 10
6.2667307734
 20
19.9539896004
 30
0.0
 10
6.2279825957
 20
20.0008034
 30
0.0
  0
SPLINE
  5
285
100
AcDbEntity
  8
0
100
AcDbSpline
 62
7
  6
BYLAYER
 70
0
 71
3
 72
11
 73
7
 74
0
 42
0.0000001
 43
0.0000001
 44
0.0000000001
 40
0.0
 40
0.0
 40
0.0
 40
0.0
 40
0.2224420291
 40
0.4618007538
 40
0.720675398
 40
1.0
 40
1.0
 40
1.0
 40
1.0
 10
32.6256974996
 20
37.5265186175
 30
0.0
 10
32.6966377467
 20
37.5354693645
 30
0.0
 10
32.8462561573
 20
37.5377696055
 30
0.0
 10
33.0755650916
 20
37.4980182594
 30
0.0
 10
33.3127908144
 20
37.4165265373
 30
0.0
 10
33.4677529799
 20
37.338425747
 30
0.0
 10
33.5455087126
 20
37.2935281085
 30
0.0
  0
SPLINE
  5
286
100
AcDbEntity
  8
0
100
AcDbSpline
 62
7
  6
BYLAYER
 70
0
 71
3
 72
15
 73
11
 74
0
 42
0.0000001
 43
0.0000001
 44
0.0000000001
 40
0.0
 40
0.0
 40
0.0
 40
0.0
 40
0.1293401514
 40
0.2605193122
 40
0.3918469512
 40
0.5218332695
 40
0.6489544617
 40
0.771802679
 40
0.8891497382
 40
1.0
 40
1.0
 40
1.0
 40
1.0
 10
34.4665990719
 20
36.5318509609
 30
0.0
 10
34.5309332357
 20
36.4541253276
 30
0.0
 10
34.6541173941
 20
36.2921651919
 30
0.0
 10
34.8198232165
 20
36.0349595453
 30
0.0
 10
34.9654988109
 20
35.7653056118
 30
0.0
 10
35.0885547876
 20
35.4880627765
 30
0.0
 10
35.1868467253
 20
35.2080847574
 30
0.0
 10
35.258632576
 20
34.9302926721
 30
0.0
 10
35.3026272729
 20
34.6596066373
 30
0.0
 10
35.3132285471
 20
34.4814882517
 30
0.0
 10
35.3132279143
 20
34.3950152305
 30
0.0
  0
SPLINE
  5
287
100
AcDbEntity
  8
0
100
AcDbSpline
 62
7
  6
BYLAYER
 70
0
 71
3
 72
14
 73
10
 74
0
 42
0.0000001
 43
0.0000001
 44
0.0000000001
 40
0.0
 40
0.0
 40
0.0
 40
0.0
 40
0.1111729273
 40
0.2239284765
 40
0.3397361345
 40
0.459875991
 40
0.5853742189
 40
0.7169859142
 40
1.0
 40
1.0
 40
1.0
 40
1.0
 10
13.1408287672
 20
25.8504145224
 30
0.0
 10
13.1115832465
 20
25.8335306411
 30
0.0
 10
13.0551058731
 20
25.7951029423
 30
0.0
 10
12.9789269269
 20
25.7249900916
 30
0.0
 10
12.911515732
 20
25.6428637565
 30
0.0
 10
12.8534079236
 20
25.549372699
 30
0.0
 10
12.8049412723
 20
25.445246145
 30
0.0
 10
12.752345086
 20
25.2895803317
 30
0.0
 10
12.7304403774
 20
25.1646063742
 30
0.0
 10
12.7221970595
 20
25.0790356383
 30
0.0
  0
SPLINE
  5
288
100
AcDbEntity
  8
0
100
AcDbSpline
 62
7
  6
BYLAYER
 70
0
 71
3
 72
14
 73
10
 74
0
 42
0.0000001
 43
0.0000001
 44
0.0000000001
 40
0.0
 40
0.0
 40
0.0
 40
0.0
 40
0.281592561
 40
0.4128540348
 40
0.5382760038
 40
0.6585961377
 40
0.7748164189
 40
0.8881531593
 40
1.0
 40
1.0
 40
1.0
 40
1.0
 10
14.3559673448
 20
22.2911666838
 30
0.0
 10
14.4315046093
 20
22.2587380336
 30
0.0
 10
14.5464008816
 20
22.2195453267
 30
0.0
 10
14.7012689293
 20
22.1916317423
 30
0.0
 10
14.8112927893
 20
22.183838651
 30
0.0
 10
14.9171025629
 20
22.1888626188
 30
0.0
 10
15.0179765461
 20
22.2066939193
 30
0.0
 10
15.1131646225
 20
22.2372423684
 30
0.0
 10
15.1725308854
 20
22.2660800896
 30
0.0
 10
15.2008078426
 20
22.2824048045
 30
0.0
  0
SPLINE
  5
289
100
AcDbEntity
  8
0
100
AcDbSpline
 62
7
  6
BYLAYER
 70
0
 71
3
 72
9
 73
5
 74
0
 42
0.0000001
 43
0.0000001
 44
0.0000000001
 40
0.0
 40
0.0
 40
0.0
 40
0.0
 40
0.4964222168
 40
1.0
 40
1.0
 40
1.0
 40
1.0
 10
14.7132286422
 20
24.8997332465
 30
0.0
 10
14.7582234879
 20
24.8453725046
 30
0.0
 10
14.8443520201
 20
24.7320702638
 30
0.0
 10
14.9213587624
 20
24.6123950493
 30
0.0
 10
14.9577292542
 20
24.5507395244
 30
0.0
  0
SPLINE
  5
28A
100
AcDbEntity
  8
0
100
AcDbSpline
 62
7
  6
BYLAYER
 70
0
 71
3
 72
9
 73
5
 74
0
 42
0.0000001
 43
0.0000001
 44
0.0000000001
 40
0.0
 40
0.0
 40
0.0
 40
0.0
 40
0.5173256175
 40
1.0
 40
1.0
 40
1.0
 40
1.0
 10
15.2077011566
 20
23.9904402897
 30
0.0
 10
15.2352143378
 20
23.9017687469
 30
0.0
 10
15.2786362374
 20
23.7271304849
 30
0.0
 10
15.2987329917
 20
23.5480698447
 30
0.0
 10
15.3014331022
 20
23.4614887287
 30
0.0
  0
SPLINE
  5
28B
100
AcDbEntity
  8
0
100
AcDbSpline
 62
7
  6
BYLAYER
 70
0
 71
3
 72
10
 73
6
 74
0
 42
0.0000001
 43
0.0000001
 44
0.0000000001
 40
0.0
 40
0.0
 40
0.0
 40
0.0
 40
0.2705799909
 40
0.5275276559
 40
1.0
 40
1.0
 40
1.0
 40
1.0
 10
15.3018725136
 20
23.4444418659
 30
0.0
 10
15.3027208396
 20
23.402719839
 30
0.0
 10
15.3011086937
 20
23.3212326721
 30
0.0
 10
15.2842103539
 20
23.1678631443
 30
0.0
 10
15.2553810564
 20
23.057829504
 30
0.0
 10
15.2278353926
 20
22.9903687166
 30
0.0
  0
SPLINE
  5
28C
100
AcDbEntity
  8
0
100
AcDbSpline
 62
7
  6
BYLAYER
 70
0
 71
3
 72
10
 73
6
 74
0
 42
0.0000001
 43
0.0000001
 44
0.0000000001
 40
0.0
 40
0.0
 40
0.0
 40
0.0
 40
0.5159590051
 40
0.7611840428
 40
1.0
 40
1.0
 40
1.0
 40
1.0
 10
15.2278353926
 20
22.9903687166
 30
0.0
 10
15.2090967544
 20
22.944476801
 30
0.0
 10
15.175107695
 20
22.8789521795
 30
0.0
 10
15.1172305696
 20
22.8020776005
 30
0.0
 10
15.0850310861
 20
22.7683338451
 30
0.0
 10
15.0681996543
 20
22.7527412438
 30
0.0
  0
SPLINE
  5
28D
100
AcDbEntity
  8
0
100
AcDbSpline
 62
7
  6
BYLAYER
 70
0
 71
3
 72
13
 73
9
 74
0
 42
0.0000001
 43
0.0000001
 44
0.0000000001
 40
0.0
 40
0.0
 40
0.0
 40
0.0
 40
0.2776420251
 40
0.5329360607
 40
0.6538337177
 40
0.7712522431
 40
0.8862479158
 40
1.0
 40
1.0
 40
1.0
 40
1.0
 10
17.5450644506
 20
23.6246479357
 30
0.0
 10
17.6275230515
 20
23.5953400179
 30
0.0
 10
17.7904484264
 20
23.550868571
 30
0.0
 10
17.9974539749
 20
23.5344940724
 30
0.0
 10
18.1527311166
 20
23.5483804245
 30
0.0
 10
18.2619964747
 20
23.571301006
 30
0.0
 10
18.3654486611
 20
23.6068368221
 30
0.0
 10
18.4303075885
 20
23.638866967
 30
0.0
 10
18.4613590972
 20
23.656792978
 30
0.0
  0
SPLINE
  5
28E
100
AcDbEntity
  8
0
100
AcDbSpline
 62
7
  6
BYLAYER
 70
0
 71
3
 72
9
 73
5
 74
0
 42
0.0000001
 43
0.0000001
 44
0.0000000001
 40
0.0
 40
0.0
 40
0.0
 40
0.0
 40
0.4850247003
 40
1.0
 40
1.0
 40
1.0
 40
1.0
 10
33.6869258557
 20
37.2118768061
 30
0.0
 10
33.7669677202
 20
37.165659144
 30
0.0
 10
33.9260336852
 20
37.0598341088
 30
0.0
 10
34.0727057799
 20
36.9376206819
 30
0.0
 10
34.1450574595
 20
36.8713211687
 30
0.0
  0
SPLINE
  5
28F
100
AcDbEntity
  8
0
100
AcDbSpline
 62
7
  6
BYLAYER
 70
0
 71
3
 72
9
 73
5
 74
0
 42
0.0000001
 43
0.0000001
 44
0.0000000001
 40
0.0
 40
0.0
 40
0.0
 40
0.0
 40
0.2452595224
 40
1.0
 40
1.0
 40
1.0
 40
1.0
 10
34.1450574595
 20
36.8713211687
 30
0.0
 10
34.1689970043
 20
36.8493841497
 30
0.0
 10
34.2651960635
 20
36.7584088455
 30
0.0
 10
34.3558130567
 20
36.6615680995
 30
0.0
 10
34.4210130258
 20
36.5858491161
 30
0.0
  0
SPLINE
  5
290
100
AcDbEntity
  8
0
100
AcDbSpline
 62
7
  6
BYLAYER
 70
0
 71
3
 72
13
 73
9
 74
0
 42
0.0000001
 43
0.0000001
 44
0.0000000001
 40
0.0
 40
0.0
 40
0.0
 40
0.0
 40
0.1144756958
 40
0.2301042413
 40
0.347979824
 40
0.4690979866
 40
0.7239771957
 40
1.0
 40
1.0
 40
1.0
 40
1.0
 10
15.9613705126
 20
27.9869260722
 30
0.0
 10
15.9315989983
 20
27.9697390009
 30
0.0
 10
15.8738470156
 20
27.9314212604
 30
0.0
 10
15.7943161958
 20
27.8632673757
 30
0.0
 10
15.7220981249
 20
27.784666594
 30
0.0
 10
15.6346376396
 20
27.6645492364
 30
0.0
 10
15.5459346967
 20
27.488418025
 30
0.0
 10
15.5012313883
 20
27.3345166612
 30
0.0
 10
15.4840716265
 20
27.2534242123
 30
0.0
  0
SPLINE
  5
291
100
AcDbEntity
  8
0
100
AcDbSpline
 62
7
  6
BYLAYER
 70
0
 71
3
 72
9
 73
5
 74
0
 42
0.0000001
 43
0.0000001
 44
0.0000000001
 40
0.0
 40
0.0
 40
0.0
 40
0.0
 40
0.4933242959
 40
1.0
 40
1.0
 40
1.0
 40
1.0
 10
13.3708245958
 20
25.4520476918
 30
0.0
 10
13.402442329
 20
25.4703068366
 30
0.0
 10
13.4705594127
 20
25.5007212232
 30
0.0
 10
13.5433059705
 20
25.5168992863
 30
0.0
 10
13.580497703
 20
25.5216936723
 30
0.0
  0
SPLINE
  5
292
100
AcDbEntity
  8
0
100
AcDbSpline
 62
7
  6
BYLAYER
 70
0
 71
3
 72
11
 73
7
 74
0
 42
0.0000001
 43
0.0000001
 44
0.0000000001
 40
0.0
 40
0.0
 40
0.0
 40
0.0
 40
0.230852284
 40
0.4733156547
 40
0.7293163501
 40
1.0
 40
1.0
 40
1.0
 40
1.0
 10
13.580497703
 20
25.5216936723
 30
0.0
 10
13.6123096956
 20
25.525794556
 30
0.0
 10
13.6782630034
 20
25.5291443178
 30
0.0
 10
13.7794831386
 20
25.5202888066
 30
0.0
 10
13.8842002507
 20
25.4977733704
 30
0.0
 10
13.9537486784
 20
25.4745158673
 30
0.0
 10
13.9887990088
 20
25.4608795588
 30
0.0
  0
SPLINE
  5
293
100
AcDbEntity
  8
0
100
AcDbSpline
 62
7
  6
BYLAYER
 70
0
 71
3
 72
9
 73
5
 74
0
 42
0.0000001
 43
0.0000001
 44
0.0000000001
 40
0.0
 40
0.0
 40
0.0
 40
0.0
 40
0.2439044524
 40
1.0
 40
1.0
 40
1.0
 40
1.0
 10
13.9887990088
 20
25.4608795588
 30
0.0
 10
14.0000612168
 20
25.4564980041
 30
0.0
 10
14.0459542428
 20
25.4378139057
 30
0.0
 10
14.0906986543
 20
25.4163421171
 30
0.0
 10
14.1238074434
 20
25.398815647
 30
0.0
  0
SPLINE
  5
294
100
AcDbEntity
  8
0
100
AcDbSpline
 62
7
  6
BYLAYER
 70
0
 71
3
 72
9
 73
5
 74
0
 42
0.0000001
 43
0.0000001
 44
0.0000000001
 40
0.0
 40
0.0
 40
0.0
 40
0.0
 40
0.4907700998
 40
1.0
 40
1.0
 40
1.0
 40
1.0
 10
14.428350806
 20
25.1898359524
 30
0.0
 10
14.4791486682
 20
25.1467985071
 30
0.0
 10
14.5783956262
 20
25.0539938197
 30
0.0
 10
14.6691800901
 20
24.9529507192
 30
0.0
 10
14.7132286422
 20
24.8997332465
 30
0.0
  0
SPLINE
  5
295
100
AcDbEntity
  8
0
100
AcDbSpline
 62
7
  6
BYLAYER
 70
0
 71
3
 72
15
 73
11
 74
0
 42
0.0000001
 43
0.0000001
 44
0.0000000001
 40
0.0
 40
0.0
 40
0.0
 40
0.0
 40
0.1486040989
 40
0.2895002429
 40
0.422721321
 40
0.5486433892
 40
0.6679996805
 40
0.781939048
 40
0.8919871057
 40
1.0
 40
1.0
 40
1.0
 40
1.0
 10
35.3132354854
 20
34.2317159023
 30
0.0
 10
35.3132387966
 20
34.1665985656
 30
0.0
 10
35.3079868899
 20
34.0396540459
 30
0.0
 10
35.2830022622
 20
33.8558184872
 30
0.0
 10
35.241250858
 20
33.6851974223
 30
0.0
 10
35.1830972069
 20
33.5294149782
 30
0.0
 10
35.1089298874
 20
33.3900088456
 30
0.0
 10
35.0193908466
 20
33.2683662244
 30
0.0
 10
34.9152455384
 20
33.1659013776
 30
0.0
 10
34.836448092
 20
33.1108966315
 30
0.0
 10
34.7954577369
 20
33.0872329325
 30
0.0
  0
SPLINE
  5
296
100
AcDbEntity
  8
0
100
AcDbSpline
 62
7
  6
BYLAYER
 70
0
 71
3
 72
23
 73
19
 74
0
 42
0.0000001
 43
0.0000001
 44
0.0000000001
 40
0.0
 40
0.0
 40
0.0
 40
0.0
 40
0.0831296993
 40
0.1640538725
 40
0.24213294
 40
0.3169500947
 40
0.3881821177
 40
0.4555960258
 40
0.5191143353
 40
0.5788441031
 40
0.6351046509
 40
0.6884400813
 40
0.7396398724
 40
0.7896907956
 40
0.839703516
 40
0.890792945
 40
0.9439570569
 40
1.0
 40
1.0
 40
1.0
 40
1.0
 10
17.8496588974
 20
26.9381133449
 30
0.0
 10
17.7994480621
 20
26.9987758101
 30
0.0
 10
17.6964621671
 20
27.115335112
 30
0.0
 10
17.5331701275
 20
27.2766651395
 30
0.0
 10
17.364558495
 20
27.4206194164
 30
0.0
 10
17.192610214
 20
27.5455603752
 30
0.0
 10
17.0192009629
 20
27.6501006388
 30
0.0
 10
16.846240057
 20
27.7330636326
 30
0.0
 10
16.675619084
 20
27.7934700511
 30
0.0
 10
16.5091888129
 20
27.8305533009
 30
0.0
 10
16.3487721804
 20
27.8438127819
 30
0.0
 10
16.1961806831
 20
27.8328348651
 30
0.0
 10
16.0532586759
 20
27.7976059254
 30
0.0
 10
15.9219168048
 20
27.7382993065
 30
0.0
 10
15.8039309555
 20
27.655732733
 30
0.0
 10
15.7009088299
 20
27.551002843
 30
0.0
 10
15.6140032663
 20
27.4256925178
 30
0.0
 10
15.5687350172
 20
27.3321929175
 30
0.0
 10
15.5488401365
 20
27.2829735322
 30
0.0
  0
SPLINE
  5
297
100
AcDbEntity
  8
0
100
AcDbSpline
 62
7
  6
BYLAYER
 70
0
 71
3
 72
21
 73
17
 74
0
 42
0.0000001
 43
0.0000001
 44
0.0000000001
 40
0.0
 40
0.0
 40
0.0
 40
0.0
 40
0.0738337214
 40
0.1487015965
 40
0.2985333884
 40
0.4442920228
 40
0.5141376983
 40
0.5812192033
 40
0.6451083547
 40
0.7054972203
 40
0.7622224771
 40
0.81531132
 40
0.8650050242
 40
0.9118033852
 40
0.9564700036
 40
1.0
 40
1.0
 40
1.0
 40
1.0
 10
17.7682973468
 20
26.8131148075
 30
0.0
 10
17.8181777282
 20
26.7528515817
 30
0.0
 10
17.9143357241
 20
26.627849408
 30
0.0
 10
18.0898582022
 20
26.3644886408
 30
0.0
 10
18.2744465053
 20
26.0167047918
 30
0.0
 10
18.408928169
 20
25.6521313371
 30
0.0
 10
18.4803816496
 20
25.3609929586
 30
0.0
 10
18.5144075539
 20
25.1507042974
 30
0.0
 10
18.5291819718
 20
24.9482083181
 30
0.0
 10
18.5244912884
 20
24.7561480864
 30
0.0
 10
18.5003060088
 20
24.5770305436
 30
0.0
 10
18.4568949986
 20
24.4131789183
 30
0.0
 10
18.3946157187
 20
24.266776562
 30
0.0
 10
18.3140918481
 20
24.1398461555
 30
0.0
 10
18.2162596399
 20
24.0343759384
 30
0.0
 10
18.1398761329
 20
23.9792654131
 30
0.0
 10
18.099933593
 20
23.9562058075
 30
0.0
  0
SPLINE
  5
298
100
AcDbEntity
  8
0
100
AcDbSpline
 62
7
  6
BYLAYER
 70
0
 71
3
 72
18
 73
14
 74
0
 42
0.0000001
 43
0.0000001
 44
0.0000000001
 40
0.0
 40
0.0
 40
0.0
 40
0.0
 40
0.0475069379
 40
0.0956172807
 40
0.1448996412
 40
0.1958505083
 40
0.2488836525
 40
0.3043121678
 40
0.4230205026
 40
0.5528314931
 40
0.6932586892
 40
0.8429980416
 40
1.0
 40
1.0
 40
1.0
 40
1.0
 10
16.0399512732
 20
27.5242211329
 30
0.0
 10
16.0675724941
 20
27.5401645742
 30
0.0
 10
16.1254903943
 20
27.568400264
 30
0.0
 10
16.2182279795
 20
27.5986909893
 30
0.0
 10
16.3164365687
 20
27.616819691
 30
0.0
 10
16.4194038873
 20
27.6227580287
 30
0.0
 10
16.5264613001
 20
27.6164652933
 30
0.0
 10
16.6771299375
 20
27.5913538633
 30
0.0
 10
16.8723655883
 20
27.5280107488
 30
0.0
 10
17.1054397245
 20
27.4083804561
 30
0.0
 10
17.3372724343
 20
27.246602654
 30
0.0
 10
17.5620782765
 20
27.0467813111
 30
0.0
 10
17.7010926513
 20
26.8943084876
 30
0.0
 10
17.7682973468
 20
26.8131148075
 30
0.0
  0
SPLINE
  5
299
100
AcDbEntity
  8
0
100
AcDbSpline
 62
7
  6
BYLAYER
 70
0
 71
3
 72
18
 73
14
 74
0
 42
0.0000001
 43
0.0000001
 44
0.0000000001
 40
0.0
 40
0.0
 40
0.0
 40
0.0
 40
0.1570032891
 40
0.3067386146
 40
0.4471675584
 40
0.576978252
 40
0.6956867744
 40
0.7511160783
 40
0.8041487399
 40
0.8551002713
 40
0.9043824304
 40
0.952493028
 40
1.0
 40
1.0
 40
1.0
 40
1.0
 10
18.058880957
 20
27.1239276236
 30
0.0
 10
17.9773210376
 20
27.2224646374
 30
0.0
 10
17.8086168199
 20
27.4075044419
 30
0.0
 10
17.5357930559
 20
27.6500045117
 30
0.0
 10
17.254446046
 20
27.846338415
 30
0.0
 10
16.971587082
 20
27.9915227884
 30
0.0
 10
16.734649066
 20
28.0683900973
 30
0.0
 10
16.5517994016
 20
28.0988759193
 30
0.0
 10
16.4218739043
 20
28.1065027953
 30
0.0
 10
16.2969130265
 20
28.0993051154
 30
0.0
 10
16.1777276188
 20
28.0772985673
 30
0.0
 10
16.0651823274
 20
28.0405385718
 30
0.0
 10
15.9948902986
 20
28.0062770177
 30
0.0
 10
15.9613705126
 20
27.9869260722
 30
0.0
  0
SPLINE
  5
29A
100
AcDbEntity
  8
0
100
AcDbSpline
 62
7
  6
BYLAYER
 70
0
 71
3
 72
27
 73
23
 74
0
 42
0.0000001
 43
0.0000001
 44
0.0000000001
 40
0.0
 40
0.0
 40
0.0
 40
0.0
 40
0.0512619236
 40
0.0755881677
 40
0.09923744
 40
0.1224051473
 40
0.1453106518
 40
0.1681859585
 40
0.1912644545
 40
0.2147698989
 40
0.2389042468
 40
0.289668593
 40
0.3446458541
 40
0.4043301164
 40
0.4687678916
 40
0.537645558
 40
0.6103710003
 40
0.6861546228
 40
0.7640607851
 40
0.8430458494
 40
0.9220748993
 40
1.0
 40
1.0
 40
1.0
 40
1.0
 10
17.6210090176
 20
23.6552024428
 30
0.0
 10
17.6913021064
 20
23.6438565489
 30
0.0
 10
17.7969336452
 20
23.6361556492
 30
0.0
 10
17.9344406704
 20
23.6485383445
 30
0.0
 10
18.0314616646
 20
23.6684859344
 30
0.0
 10
18.1235536771
 20
23.6992075101
 30
0.0
 10
18.2102043098
 20
23.7405693126
 30
0.0
 10
18.2909463566
 20
23.7923011385
 30
0.0
 10
18.365304091
 20
23.8541529959
 30
0.0
 10
18.4328861014
 20
23.9257548809
 30
0.0
 10
18.51487381
 20
24.0354420261
 30
0.0
 10
18.5982559496
 20
24.19695782
 30
0.0
 10
18.6643722487
 20
24.4181226941
 30
0.0
 10
18.6976624424
 20
24.6655375862
 30
0.0
 10
18.697717136
 20
24.934294207
 30
0.0
 10
18.664703631
 20
25.2191394482
 30
0.0
 10
18.5993618354
 20
25.5144226036
 30
0.0
 10
18.5030158306
 20
25.8142364861
 30
0.0
 10
18.3776093834
 20
26.112519592
 30
0.0
 10
18.2256891518
 20
26.4032984007
 30
0.0
 10
18.0503280285
 20
26.6805709574
 30
0.0
 10
17.918674028
 20
26.8547323788
 30
0.0
 10
17.8496588974
 20
26.9381133449
 30
0.0
  0
SPLINE
  5
29B
100
AcDbEntity
  8
0
100
AcDbSpline
 62
7
  6
BYLAYER
 70
0
 71
3
 72
21
 73
17
 74
0
 42
0.0000001
 43
0.0000001
 44
0.0000000001
 40
0.0
 40
0.0
 40
0.0
 40
0.0
 40
0.0435303063
 40
0.0881970375
 40
0.1349953196
 40
0.1846886647
 40
0.2377768554
 40
0.2945012081
 40
0.3548889231
 40
0.4187771259
 40
0.4858577665
 40
0.5557031798
 40
0.701462576
 40
0.8512963083
 40
0.9261658009
 40
1.0
 40
1.0
 40
1.0
 40
1.0
 10
15.2008078426
 20
22.2824048045
 30
0.0
 10
15.2407507404
 20
22.3054644434
 30
0.0
 10
15.3171343909
 20
22.3605755682
 30
0.0
 10
15.4149669551
 20
22.4660459199
 30
0.0
 10
15.4954902021
 20
22.592976331
 30
0.0
 10
15.5577691186
 20
22.7393775262
 30
0.0
 10
15.6011798774
 20
22.9032271366
 30
0.0
 10
15.6253645958
 20
23.0823418055
 30
0.0
 10
15.6300568212
 20
23.2743988101
 30
0.0
 10
15.6152823595
 20
23.476891627
 30
0.0
 10
15.5812589809
 20
23.6871784314
 30
0.0
 10
15.509806124
 20
23.978316599
 30
0.0
 10
15.3753257142
 20
24.3428931805
 30
0.0
 10
15.1907363514
 20
24.6906817889
 30
0.0
 10
15.0152112857
 20
24.9540459445
 30
0.0
 10
14.9190523166
 20
25.0790501632
 30
0.0
 10
14.8691716142
 20
25.1393137766
 30
0.0
  0
SPLINE
  5
29C
100
AcDbEntity
  8
0
100
AcDbSpline
 62
7
  6
BYLAYER
 70
0
 71
3
 72
15
 73
11
 74
0
 42
0.0000001
 43
0.0000001
 44
0.0000000001
 40
0.0
 40
0.0
 40
0.0
 40
0.0
 40
0.1285684082
 40
0.2586301762
 40
0.3888415678
 40
0.517979228
 40
0.6447811339
 40
0.7680667073
 40
0.8867743299
 40
1.0
 40
1.0
 40
1.0
 40
1.0
 10
34.4291696585
 20
36.5100003218
 30
0.0
 10
34.4918503467
 20
36.4320278248
 30
0.0
 10
34.6121805612
 20
36.2704586494
 30
0.0
 10
34.7753898053
 20
36.0154021122
 30
0.0
 10
34.9205618747
 20
35.749142541
 30
0.0
 10
35.0455675484
 20
35.4756249875
 30
0.0
 10
35.14858904
 20
35.1988214978
 30
0.0
 10
35.2281218281
 20
34.9227817847
 30
0.0
 10
35.2829771155
 20
34.6515632362
 30
0.0
 10
35.3030906849
 20
34.4718998567
 30
0.0
 10
35.3084841377
 20
34.3839608497
 30
0.0
  0
SPLINE
  5
29D
100
AcDbEntity
  8
0
100
AcDbSpline
 62
7
  6
BYLAYER
 70
0
 71
3
 72
11
 73
7
 74
0
 42
0.0000001
 43
0.0000001
 44
0.0000000001
 40
0.0
 40
0.0
 40
0.0
 40
0.0
 40
0.2362676712
 40
0.482643734
 40
0.7378495252
 40
1.0
 40
1.0
 40
1.0
 40
1.0
 10
33.6816266576
 20
37.208872878
 30
0.0
 10
33.7451808545
 20
37.1665121947
 30
0.0
 10
33.871303583
 20
37.0743170293
 30
0.0
 10
34.052565909
 20
36.9189583655
 30
0.0
 10
34.2281618292
 20
36.7451298259
 30
0.0
 10
34.3389442806
 20
36.6196506083
 30
0.0
 10
34.3929795966
 20
36.554367578
 30
0.0
  0
SPLINE
  5
29E
100
AcDbEntity
  8
0
100
AcDbSpline
 62
7
  6
BYLAYER
 70
0
 71
3
 72
23
 73
19
 74
0
 42
0.0000001
 43
0.0000001
 44
0.0000000001
 40
0.0
 40
0.0
 40
0.0
 40
0.0
 40
0.0435230654
 40
0.0881815425
 40
0.1349722497
 40
0.1846583319
 40
0.2377362553
 40
0.2944529327
 40
0.3548297187
 40
0.4187066795
 40
0.4857768097
 40
0.5556105204
 40
0.6276919633
 40
0.7014357886
 40
0.77619961
 40
0.8513251412
 40
0.9261732982
 40
1.0
 40
1.0
 40
1.0
 40
1.0
 10
18.4613590972
 20
23.656792978
 30
0.0
 10
18.5098344108
 20
23.6847777376
 30
0.0
 10
18.6025188404
 20
23.7516800843
 30
0.0
 10
18.7212613959
 20
23.8796635726
 30
0.0
 10
18.8189892785
 20
24.0337084678
 30
0.0
 10
18.8945485288
 20
24.2113898075
 30
0.0
 10
18.9472615132
 20
24.4102325904
 30
0.0
 10
18.9765860364
 20
24.6276116501
 30
0.0
 10
18.9822887446
 20
24.8606914855
 30
0.0
 10
18.9643649371
 20
25.1064404895
 30
0.0
 10
18.9230540421
 20
25.3616351631
 30
0.0
 10
18.8589540021
 20
25.6229209646
 30
0.0
 10
18.7729012077
 20
25.8868395073
 30
0.0
 10
18.6660301643
 20
26.149875211
 30
0.0
 10
18.5398047218
 20
26.408542248
 30
0.0
 10
18.3958530217
 20
26.6594212387
 30
0.0
 10
18.2361150668
 20
26.8990929659
 30
0.0
 10
18.1194204485
 20
27.0507865422
 30
0.0
 10
18.058880957
 20
27.1239276236
 30
0.0
  0
SPLINE
  5
29F
100
AcDbEntity
  8
0
100
AcDbSpline
 62
7
  6
BYLAYER
 70
0
 71
3
 72
18
 73
14
 74
0
 42
0.0000001
 43
0.0000001
 44
0.0000000001
 40
0.0
 40
0.0
 40
0.0
 40
0.0
 40
0.156995337
 40
0.3067425782
 40
0.4471669312
 40
0.5769788283
 40
0.6956861575
 40
0.7511134309
 40
0.8041481562
 40
0.8550994324
 40
0.904381965
 40
0.9524930907
 40
1.0
 40
1.0
 40
1.0
 40
1.0
 10
14.8691716142
 20
25.1393137766
 30
0.0
 10
14.8019697627
 20
25.2205040208
 30
0.0
 10
14.6629527411
 20
25.3729753143
 30
0.0
 10
14.438151412
 20
25.5728001447
 30
0.0
 10
14.2063129676
 20
25.7345771468
 30
0.0
 10
13.9732429903
 20
25.8542088049
 30
0.0
 10
13.7780096307
 20
25.917560408
 30
0.0
 10
13.6273393144
 20
25.9426583365
 30
0.0
 10
13.5202824125
 20
25.9489581198
 30
0.0
 10
13.4173124058
 20
25.943022363
 30
0.0
 10
13.319106671
 20
25.924879267
 30
0.0
 10
13.226360809
 20
25.8946108228
 30
0.0
 10
13.1684487954
 20
25.8663599823
 30
0.0
 10
13.1408287672
 20
25.8504145224
 30
0.0
  0
ENDSEC
  0
SECTION
  2
OBJECTS
  0
DICTIONARY
  5
C
100
AcDbDictionary
280
0
281
1
  3
ACAD_GROUP
350
D
  3
ACAD_MLINESTYLE
350
17
  3
ACAD_LAYOUT
350
1A
  3
ACAD_PLOTSETTINGS
350
19
  3
ACAD_PLOTSTYLENAME
350
E
  0
DICTIONARY
  5
D
102
{ACAD_REACTORS
330
C
102
}
100
AcDbDictionary
280
0
281
1
  0
ACDBDICTIONARYWDFLT
  5
E
102
{ACAD_REACTORS
330
C
102
}
100
AcDbDictionary
281
1
  3
Normal
350
F
100
AcDbDictionaryWithDefault
340
F
  0
DICTIONARY
  5
17
102
{ACAD_REACTORS
330
C
102
}
100
AcDbDictionary
280
0
281
1
  3
Standard
350
18
  0
DICTIONARY
  5
19
102
{ACAD_REACTORS
330
C
102
}
100
AcDbDictionary
281
1
  0
DICTIONARY
  5
1A
102
{ACAD_REACTORS
330
C
102
}
100
AcDbDictionary
281
1
  3
Model
350
2A0
  3
Layout1
350
2A1
  0
ACDBPLACEHOLDER
  5
F
102
{ACAD_REACTORS
330
E
102
}
  0
MLINESTYLE
  5
18
102
{ACAD_REACTORS
330
17
102
}
100
AcDbMlineStyle
  2
STANDARD
 70
0
  3

 62
256
 51
90.0
 52
90.0
 71
2
 49
0.5
 62
256
  6
BYLAYER
 49
-0.5
 62
256
  6
BYLAYER
  0
LAYOUT
  5
2A0
102
{ACAD_REACTORS
330
1A
102
}
100
AcDbPlotSettings
  1

  2
none_device
  4

  6

 40
0.0
 41
0.0
 42
0.0
 43
0.0
 44
210.0
 45
297.0
 46
0.0
 47
0.0
 48
0.0
 49
0.0
140
0.0
141
0.0
142
1.0
143
1.0
 70
1024
 72
1
 73
0
 74
0
  7

 75
0
147
1.0
148
0.0
149
0.0
100
AcDbLayout
  1
Model
 70
0
 71
0
 10
0.0
 20
0.0
 11
210.0
 21
297.0
 12
0.0
 22
0.0
 32
0.0
 14
0.0
 24
0.0
 34
0.0
 15
0.0
 25
0.0
 35
0.0
146
0.0
 13
0.0
 23
0.0
 33
0.0
 16
1.0
 26
0.0
 36
0.0
 17
0.0
 27
1.0
 37
0.0
 76
0
330
210
345
0
346
0
  0
LAYOUT
  5
2A1
102
{ACAD_REACTORS
330
1A
102
}
100
AcDbPlotSettings
  1

  2
none_device
  4

  6

 40
0.0
 41
0.0
 42
0.0
 43
0.0
 44
210.0
 45
297.0
 46
0.0
 47
0.0
 48
0.0
 49
0.0
140
0.0
141
0.0
142
1.0
143
1.0
 70
0
 72
1
 73
0
 74
0
  7

 75
0
147
1.0
148
0.0
149
0.0
100
AcDbLayout
  1
Layout1
 70
0
 71
1
 10
0.0
 20
0.0
 11
210.0
 21
297.0
 12
0.0
 22
0.0
 32
0.0
 14
0.0
 24
0.0
 34
0.0
 15
0.0
 25
0.0
 35
0.0
146
0.0
 13
0.0
 23
0.0
 33
0.0
 16
1.0
 26
0.0
 36
0.0
 17
0.0
 27
1.0
 37
0.0
 76
0
330
211
345
0
346
0
  0
ENDSEC
  0
EOF
