999
DXF file: C:\Users\sesa63760\Dev\_Creo\CAD\MCADID0005494_3D-CAD\drw0001_5.dxf
999
Pro/ENGINEER 2019471 by Parametric Technology Corporation
  0
SECTION
  2
HEADER
  9
$ACADVER
  1
AC1024
  9
$DWGCODEPAGE
  3
ANSI_1252
  9
$EXTMAX
 10
38.7888653207
 20
54.8585380964
 30
0.0
  9
$EXTMIN
 10
0.0
 20
0.0
 30
0.0
  9
$LIMMIN
 10
0.0
 20
0.0
  9
$LIMMAX
 10
38.7888653207
 20
54.8585380964
  9
$VIEWCTR
 10
19.3944326603
 20
27.4292690482
  9
$VIEWSIZE
 40
54.8585380964
  9
$CLAYER
  8
0
  9
$LTSCALE
 40
3.5759639648
  9
$CELTYPE
  6
BYLAYER
  9
$DIMSCALE
 40
1.0
  9
$DIMASZ
 40
0.4617722062
  9
$DIMEXO
 40
1.0
  9
$DIMDLI
 40
2.470666012
  9
$DIMEXE
 40
1.0
  9
$DIMCEN
 40
0.5851577397
  9
$DIMLFAC
 40
1.0
  9
$DIMBLK
  1
_FILLED
  9
$DIMALT
 70
0
  9
$DIMALTF
 40
0.0393700787
  9
$DIMTXT
 40
0.6464810887
  9
$DIMTOL
 70
1
  9
$DIMLIM
 70
0
  9
$DIMTFAC
 40
1.0
  9
$DIMTP
 40
0.01
  9
$DIMTM
 40
0.01
  9
$DIMGAP
 40
0.625
  9
$DIMDSEP
 70
46
  9
$AUNITS
 70
0
  9
$PDMODE
 70
3
  9
$PDSIZE
 40
0.3125
  9
$HANDSEED
  5
5DB
  9
$TILEMODE
 70
1
  9
$MEASUREMENT
 70
1
  9
$INSUNITS
 70
4
  0
ENDSEC
  0
SECTION
  2
CLASSES
  0
CLASS
  1
ACDBDICTIONARYWDFLT
  2
AcDbDictionaryWithDefault
  3
AutoCAD 2000
 90
0
 91
1
280
0
281
0
  0
CLASS
  1
ACDBPLACEHOLDER
  2
AcDbPlaceHolder
  3
AutoCAD 2000
 90
0
 91
1
280
0
281
0
  0
CLASS
  1
LAYOUT
  2
AcDbLayout
  3
AutoCAD 2000
 90
0
 91
0
280
0
281
0
  0
ENDSEC
  0
SECTION
  2
TABLES
  0
TABLE
  2
VPORT
  5
8
100
AcDbSymbolTable
 70
2
  0
VPORT
  5
1F4
100
AcDbSymbolTableRecord
100
AcDbViewportTableRecord
  2
*ACTIVE
 70
0
 10
0.0
 20
0.0
 11
1.0
 21
1.0
 12
19.3944326603
 22
27.4292690482
 13
0.0
 23
0.0
 14
1.0
 24
1.0
 15
0.0
 25
0.0
 16
0.0
 26
0.0
 36
1.0
 17
0.0
 27
0.0
 37
0.0
 40
54.8585380964
 41
0.7070707071
 42
50.0
 43
0.0
 44
0.0
 50
0.0
 51
0.0
 71
0
 72
100
 73
1
 74
1
 75
0
 76
0
 77
0
 78
0
  0
ENDTAB
  0
TABLE
  2
LTYPE
  5
5
100
AcDbSymbolTable
 70
6
  0
LTYPE
  5
14
100
AcDbSymbolTableRecord
100
AcDbLinetypeTableRecord
  2
BYBLOCK
 70
0
  3

 72
65
 73
0
 40
0.0
  0
LTYPE
  5
15
100
AcDbSymbolTableRecord
100
AcDbLinetypeTableRecord
  2
BYLAYER
 70
0
  3

 72
65
 73
0
 40
0.0
  0
LTYPE
  5
16
100
AcDbSymbolTableRecord
100
AcDbLinetypeTableRecord
  2
CONTINUOUS
 70
64
  3
Solid line
 72
65
 73
0
 40
0.0
  0
LTYPE
  5
1F5
100
AcDbSymbolTableRecord
100
AcDbLinetypeTableRecord
  2
CENTER
 70
64
  3
____ _ ____ _ ____ _ ____ _ ____ _ ____ _ ____
 72
65
 73
4
 40
0.6
 49
0.375
 74
0
 49
-0.075
 74
0
 49
0.075
 74
0
 49
-0.075
 74
0
  0
LTYPE
  5
1F6
100
AcDbSymbolTableRecord
100
AcDbLinetypeTableRecord
  2
HIDDEN
 70
64
  3
- - - - - - - - - - - - - - - - - - - -
 72
65
 73
2
 40
0.2
 49
0.1
 74
0
 49
-0.1
 74
0
  0
LTYPE
  5
1F7
100
AcDbSymbolTableRecord
100
AcDbLinetypeTableRecord
  2
PHANTOM
 70
64
  3
_____ _ _ _____ _ _ _____ _ _ _____
 72
65
 73
6
 40
0.8
 49
0.45
 74
0
 49
-0.05
 74
0
 49
0.1
 74
0
 49
-0.05
 74
0
 49
0.1
 74
0
 49
-0.05
 74
0
  0
LTYPE
  5
1F8
100
AcDbSymbolTableRecord
100
AcDbLinetypeTableRecord
  2
DOT
 70
64
  3
. . . . . . . . . . . . . . . . . . . .
 72
65
 73
2
 40
0.2
 49
0.1
 74
0
 49
-0.1
 74
0
  0
LTYPE
  5
1F9
100
AcDbSymbolTableRecord
100
AcDbLinetypeTableRecord
  2
DASHED
 70
64
  3
- - - - - - - - - - - - - - - - - - - -
 72
65
 73
2
 40
0.2
 49
0.1
 74
0
 49
-0.1
 74
0
  0
ENDTAB
  0
TABLE
  2
LAYER
  5
2
100
AcDbSymbolTable
 70
36
  0
LAYER
  5
10
100
AcDbSymbolTableRecord
100
AcDbLayerTableRecord
  2
0
 70
0
 62
7
  6
CONTINUOUS
370
-3
390
F
  0
LAYER
  5
1FA
100
AcDbSymbolTableRecord
100
AcDbLayerTableRecord
  2
DEFAULT_1
 70
0
 62
7
  6
CENTER
370
-3
390
F
  0
LAYER
  5
1FB
100
AcDbSymbolTableRecord
100
AcDbLayerTableRecord
  2
DEFAULT_2
 70
0
 62
7
  6
HIDDEN
370
-3
390
F
  0
LAYER
  5
1FC
100
AcDbSymbolTableRecord
100
AcDbLayerTableRecord
  2
DEFAULT_3
 70
0
 62
7
  6
PHANTOM
370
-3
390
F
  0
LAYER
  5
1FD
100
AcDbSymbolTableRecord
100
AcDbLayerTableRecord
  2
00_COMPONENTS
 70
0
 62
7
  6
CONTINUOUS
370
-3
390
F
  0
LAYER
  5
1FE
100
AcDbSymbolTableRecord
100
AcDbLayerTableRecord
  2
00_COMPONENTS_10
 70
0
 62
7
  6
CONTINUOUS
370
-3
390
F
  0
LAYER
  5
1FF
100
AcDbSymbolTableRecord
100
AcDbLayerTableRecord
  2
00_COMPONENTS_11
 70
0
 62
7
  6
CONTINUOUS
370
-3
390
F
  0
LAYER
  5
200
100
AcDbSymbolTableRecord
100
AcDbLayerTableRecord
  2
00_COMPONENTS_12
 70
0
 62
7
  6
CONTINUOUS
370
-3
390
F
  0
LAYER
  5
201
100
AcDbSymbolTableRecord
100
AcDbLayerTableRecord
  2
00_COMPONENTS_14
 70
0
 62
7
  6
CONTINUOUS
370
-3
390
F
  0
LAYER
  5
202
100
AcDbSymbolTableRecord
100
AcDbLayerTableRecord
  2
00_COMPONENTS_15
 70
0
 62
7
  6
CONTINUOUS
370
-3
390
F
  0
LAYER
  5
203
100
AcDbSymbolTableRecord
100
AcDbLayerTableRecord
  2
00_COMPONENTS_17
 70
0
 62
7
  6
CONTINUOUS
370
-3
390
F
  0
LAYER
  5
204
100
AcDbSymbolTableRecord
100
AcDbLayerTableRecord
  2
00_COMPONENTS_2
 70
0
 62
7
  6
CONTINUOUS
370
-3
390
F
  0
LAYER
  5
205
100
AcDbSymbolTableRecord
100
AcDbLayerTableRecord
  2
00_COMPONENTS_20
 70
0
 62
7
  6
CONTINUOUS
370
-3
390
F
  0
LAYER
  5
206
100
AcDbSymbolTableRecord
100
AcDbLayerTableRecord
  2
00_COMPONENTS_21
 70
0
 62
7
  6
CONTINUOUS
370
-3
390
F
  0
LAYER
  5
207
100
AcDbSymbolTableRecord
100
AcDbLayerTableRecord
  2
00_COMPONENTS_3
 70
0
 62
7
  6
CONTINUOUS
370
-3
390
F
  0
LAYER
  5
208
100
AcDbSymbolTableRecord
100
AcDbLayerTableRecord
  2
00_COMPONENTS_4
 70
0
 62
7
  6
CONTINUOUS
370
-3
390
F
  0
LAYER
  5
209
100
AcDbSymbolTableRecord
100
AcDbLayerTableRecord
  2
00_COMPONENTS_5
 70
0
 62
7
  6
CONTINUOUS
370
-3
390
F
  0
LAYER
  5
20A
100
AcDbSymbolTableRecord
100
AcDbLayerTableRecord
  2
00_COMPONENTS_6
 70
0
 62
7
  6
CONTINUOUS
370
-3
390
F
  0
LAYER
  5
20B
100
AcDbSymbolTableRecord
100
AcDbLayerTableRecord
  2
00_COMPONENTS_8
 70
0
 62
7
  6
CONTINUOUS
370
-3
390
F
  0
LAYER
  5
20C
100
AcDbSymbolTableRecord
100
AcDbLayerTableRecord
  2
00_COMPONENTS_9
 70
0
 62
7
  6
CONTINUOUS
370
-3
390
F
  0
LAYER
  5
20D
100
AcDbSymbolTableRecord
100
AcDbLayerTableRecord
  2
01_1_DEFAULT_DATUMS
 70
0
 62
7
  6
CONTINUOUS
370
-3
390
F
  0
LAYER
  5
20E
100
AcDbSymbolTableRecord
100
AcDbLayerTableRecord
  2
01_PLANES
 70
0
 62
7
  6
CONTINUOUS
370
-3
390
F
  0
LAYER
  5
20F
100
AcDbSymbolTableRecord
100
AcDbLayerTableRecord
  2
02_COORD_SYS
 70
0
 62
7
  6
CONTINUOUS
370
-3
390
F
  0
LAYER
  5
210
100
AcDbSymbolTableRecord
100
AcDbLayerTableRecord
  2
03_AXES
 70
0
 62
7
  6
CONTINUOUS
370
-3
390
F
  0
LAYER
  5
211
100
AcDbSymbolTableRecord
100
AcDbLayerTableRecord
  2
04_POINTS
 70
0
 62
7
  6
CONTINUOUS
370
-3
390
F
  0
LAYER
  5
212
100
AcDbSymbolTableRecord
100
AcDbLayerTableRecord
  2
05_CURVES
 70
0
 62
7
  6
CONTINUOUS
370
-3
390
F
  0
LAYER
  5
213
100
AcDbSymbolTableRecord
100
AcDbLayerTableRecord
  2
06_SURFS
 70
0
 62
7
  6
CONTINUOUS
370
-3
390
F
  0
LAYER
  5
214
100
AcDbSymbolTableRecord
100
AcDbLayerTableRecord
  2
07_COSMETICS
 70
0
 62
7
  6
CONTINUOUS
370
-3
390
F
  0
LAYER
  5
215
100
AcDbSymbolTableRecord
100
AcDbLayerTableRecord
  2
10_NOTES
 70
0
 62
7
  6
CONTINUOUS
370
-3
390
F
  0
LAYER
  5
216
100
AcDbSymbolTableRecord
100
AcDbLayerTableRecord
  2
11_NOTES_PUB
 70
0
 62
7
  6
CONTINUOUS
370
-3
390
F
  0
LAYER
  5
217
100
AcDbSymbolTableRecord
100
AcDbLayerTableRecord
  2
13_REF_GTOL
 70
0
 62
7
  6
CONTINUOUS
370
-3
390
F
  0
LAYER
  5
218
100
AcDbSymbolTableRecord
100
AcDbLayerTableRecord
  2
16_MISC
 70
0
 62
7
  6
CONTINUOUS
370
-3
390
F
  0
LAYER
  5
219
100
AcDbSymbolTableRecord
100
AcDbLayerTableRecord
  2
17_NO_PRINT
 70
0
 62
7
  6
CONTINUOUS
370
-3
390
F
  0
LAYER
  5
21A
100
AcDbSymbolTableRecord
100
AcDbLayerTableRecord
  2
18_DATUM_CAMS_JOINTS
 70
0
 62
7
  6
CONTINUOUS
370
-3
390
F
  0
LAYER
  5
21B
100
AcDbSymbolTableRecord
100
AcDbLayerTableRecord
  2
19_DATUM_FUNCTIONAL
 70
0
 62
7
  6
CONTINUOUS
370
-3
390
F
  0
LAYER
  5
21C
100
AcDbSymbolTableRecord
100
AcDbLayerTableRecord
  2
20_DATUM_KINEMATIC_SCHEME
 70
0
 62
7
  6
CONTINUOUS
370
-3
390
F
  0
ENDTAB
  0
TABLE
  2
STYLE
  5
3
100
AcDbSymbolTable
 70
1
  0
STYLE
  5
11
100
AcDbSymbolTableRecord
100
AcDbTextStyleTableRecord
  2
STANDARD
 70
0
 40
0.0
 41
1.0
 50
0.0
 71
0
 42
0.2
  3
ARIAL.TTF
  4

  0
STYLE
  5
21D
100
AcDbSymbolTableRecord
100
AcDbTextStyleTableRecord
  2
TEXTSTYLE_1
 70
0
 40
0.0
 41
0.8
 50
0.0
 71
0
 42
0.2
  3
gdt
  4

  0
ENDTAB
  0
TABLE
  2
VIEW
  5
6
100
AcDbSymbolTable
 70
0
  0
ENDTAB
  0
TABLE
  2
UCS
  5
7
100
AcDbSymbolTable
 70
0
  0
ENDTAB
  0
TABLE
  2
APPID
  5
9
100
AcDbSymbolTable
 70
1
  0
APPID
  5
21E
100
AcDbSymbolTableRecord
100
AcDbRegAppTableRecord
  2
ACAD
 70
0
  0
ENDTAB
  0
TABLE
  2
BLOCK_RECORD
  5
1
100
AcDbSymbolTable
 70
0
  0
BLOCK_RECORD
  5
21F
100
AcDbSymbolTableRecord
100
AcDbBlockTableRecord
  2
*Model_Space
  0
BLOCK_RECORD
  5
220
100
AcDbSymbolTableRecord
100
AcDbBlockTableRecord
  2
*Paper_Space
  0
BLOCK_RECORD
  5
221
100
AcDbSymbolTableRecord
100
AcDbBlockTableRecord
  2
_FILLED
  0
ENDTAB
  0
TABLE
  2
DIMSTYLE
  5
A
100
AcDbSymbolTable
 70
1
100
AcDbDimStyleTable
 71
0
  0
DIMSTYLE
105
222
100
AcDbSymbolTableRecord
100
AcDbDimStyleTableRecord
  2
STANDARD
 70
0
  3

  4

 40
1.0
 41
0.4617722062
 42
1.0
 43
0.38
 44
1.0
 45
0.0
 46
0.0
 47
0.01
 48
0.01
140
0.6464810887
141
0.09
142
0.0
143
25.4
144
1.0
145
0.0
146
1.0
147
0.625
 71
1
 72
0
 73
0
 74
0
 75
0
 76
0
 77
1
 78
8
 79
2
170
0
171
1
172
0
173
0
174
0
175
0
176
0
177
0
178
0
270
2
179
2
271
2
272
2
273
2
274
2
275
0
280
0
281
0
282
0
283
1
284
8
285
0
286
0
287
3
288
0
340
11
278
46
341
221
342
221
343
221
344
221
  0
ENDTAB
  0
ENDSEC
  0
SECTION
  2
BLOCKS
  0
BLOCK
  5
20
100
AcDbEntity
  8
0
100
AcDbBlockBegin
  2
*Model_Space
 70
0
 10
0.0
 20
0.0
 30
0.0
  3
*Model_Space
  1

  0
ENDBLK
  5
21
100
AcDbEntity
  8
0
100
AcDbBlockEnd
  0
BLOCK
  5
1C
100
AcDbEntity
  8
0
100
AcDbBlockBegin
  2
*Paper_Space
 70
0
 10
0.0
 20
0.0
 30
0.0
  3
*Paper_Space
  1

  0
ENDBLK
  5
1D
100
AcDbEntity
  8
0
100
AcDbBlockEnd
  0
BLOCK
  5
223
100
AcDbEntity
  8
0
100
AcDbBlockBegin
  2
_FILLED
 70
64
 10
0.0
 20
0.0
  3
_FILLED
  1

  0
SOLID
  5
224
100
AcDbEntity
  8
0
  6
BYBLOCK
 62
0
100
AcDbTrace
 10
0.0
 20
0.0
 11
-1.0
 21
0.25
 12
-1.0
 22
-0.25
 13
-1.0
 23
-0.25
  0
ENDBLK
  5
225
100
AcDbEntity
  8
0
  6
BYBLOCK
 62
0
100
AcDbBlockEnd
  0
ENDSEC
  0
SECTION
  2
ENTITIES
  0
LINE
  5
226
100
AcDbEntity
  8
00_COMPONENTS_12
100
AcDbLine
 62
7
  6
BYLAYER
 10
35.1150143605
 20
7.5966403338
 11
20.536839754
 21
7.5966403338
  0
LINE
  5
227
100
AcDbEntity
  8
00_COMPONENTS_12
100
AcDbLine
 62
7
  6
BYLAYER
 10
19.3263667151
 20
7.5966403338
 11
4.748235689
 21
7.5966403338
  0
LINE
  5
228
100
AcDbEntity
  8
00_COMPONENTS
100
AcDbLine
 62
7
  6
BYLAYER
 10
32.0326032018
 20
7.8966403338
 11
7.8306032673
 21
7.8966403338
  0
LINE
  5
229
100
AcDbEntity
  8
00_COMPONENTS_12
100
AcDbLine
 62
7
  6
BYLAYER
 10
4.6652329239
 20
7.8966403338
 11
35.1979744367
 21
7.8966403338
  0
LINE
  5
22A
100
AcDbEntity
  8
00_COMPONENTS
100
AcDbLine
 62
7
  6
BYLAYER
 10
32.131626352
 20
7.9956403338
 11
7.7315801171
 21
7.9956403338
  0
LINE
  5
22B
100
AcDbEntity
  8
00_COMPONENTS_12
100
AcDbLine
 62
7
  6
BYLAYER
 10
30.9812662777
 20
8.1966403338
 11
27.8819401914
 21
8.1966403338
  0
LINE
  5
22C
100
AcDbEntity
  8
00_COMPONENTS_12
100
AcDbLine
 62
7
  6
BYLAYER
 10
11.9812662777
 20
8.1966403338
 11
8.8819401914
 21
8.1966403338
  0
LINE
  5
22D
100
AcDbEntity
  8
00_COMPONENTS_12
100
AcDbLine
 62
7
  6
BYLAYER
 10
31.681530109
 20
8.7966403338
 11
21.8030999618
 21
8.7966403338
  0
LINE
  5
22E
100
AcDbEntity
  8
00_COMPONENTS_12
100
AcDbLine
 62
7
  6
BYLAYER
 10
18.0601065073
 20
8.7966403338
 11
8.1862281123
 21
8.7966403338
  0
LINE
  5
22F
100
AcDbEntity
  8
00_COMPONENTS_12
100
AcDbLine
 62
7
  6
BYLAYER
 10
33.4313516941
 20
8.7966403338
 11
31.681530109
 21
8.7966403338
  0
LINE
  5
230
100
AcDbEntity
  8
00_COMPONENTS_12
100
AcDbLine
 62
7
  6
BYLAYER
 10
21.8030999618
 20
8.7966403338
 11
18.0601065073
 21
8.7966403338
  0
LINE
  5
231
100
AcDbEntity
  8
00_COMPONENTS_12
100
AcDbLine
 62
7
  6
BYLAYER
 10
8.1862281123
 20
8.7966403338
 11
6.4319309236
 21
8.7966403338
  0
LINE
  5
232
100
AcDbEntity
  8
00_COMPONENTS_12
100
AcDbLine
 62
7
  6
BYLAYER
 10
11.9814347195
 20
8.1964718554
 11
12.2814021037
 21
7.8964392467
  0
LINE
  5
233
100
AcDbEntity
  8
00_COMPONENTS_11
100
AcDbLine
 62
7
  6
BYLAYER
 10
6.8316032346
 20
16.4810948933
 11
6.8889873838
 21
16.3814069314
  0
LINE
  5
234
100
AcDbEntity
  8
00_COMPONENTS_12
100
AcDbLine
 62
7
  6
BYLAYER
 10
4.5504830883
 20
20.7501254199
 11
4.5354803959
 21
22.4692639243
  0
LINE
  5
235
100
AcDbEntity
  8
00_COMPONENTS_12
100
AcDbLine
 62
7
  6
BYLAYER
 10
4.5597402115
 20
19.9640400152
 11
4.6650535059
 21
7.8963301957
  0
LINE
  5
236
100
AcDbEntity
  8
00_COMPONENTS_11
100
AcDbLine
 62
7
  6
BYLAYER
 10
4.5316032346
 20
16.3815726281
 11
4.5315863794
 21
32.1966371805
  0
LINE
  5
237
100
AcDbEntity
  8
00_COMPONENTS_12
100
AcDbLine
 62
7
  6
BYLAYER
 10
5.017392225
 20
32.0770250915
 11
5.017392225
 21
27.0966403338
  0
LINE
  5
238
100
AcDbEntity
  8
00_COMPONENTS_12
100
AcDbLine
 62
7
  6
BYLAYER
 10
5.0316032346
 20
32.5966402358
 11
5.0316032346
 21
22.7294163076
  0
LINE
  5
239
100
AcDbEntity
  8
00_COMPONENTS_11
100
AcDbLine
 62
7
  6
BYLAYER
 10
5.0316032346
 20
22.7940773289
 11
5.0316032346
 21
30.4876528948
  0
LINE
  5
23A
100
AcDbEntity
  8
00_COMPONENTS_11
100
AcDbLine
 62
7
  6
BYLAYER
 10
5.0316032346
 20
30.7966403338
 11
5.0316032346
 21
32.1966403338
  0
LINE
  5
23B
100
AcDbEntity
  8
00_COMPONENTS_12
100
AcDbLine
 62
7
  6
BYLAYER
 10
5.0415844145
 20
32.0966403338
 11
5.0415844145
 21
32.5966403338
  0
LINE
  5
23C
100
AcDbEntity
  8
00_COMPONENTS_11
100
AcDbLine
 62
7
  6
BYLAYER
 10
4.5215282731
 20
32.1966402529
 11
4.5829017997
 21
35.6975603741
  0
LINE
  5
23D
100
AcDbEntity
  8
00_COMPONENTS_11
100
AcDbLine
 62
7
  6
BYLAYER
 10
4.8562557295
 20
32.1966343133
 11
4.91762936
 21
35.6975606384
  0
LINE
  5
23E
100
AcDbEntity
  8
00_COMPONENTS_12
100
AcDbLine
 62
7
  6
BYLAYER
 10
5.3076984997
 20
32.0966403338
 11
5.235121931
 21
31.5770250915
  0
LINE
  5
23F
100
AcDbEntity
  8
00_COMPONENTS_12
100
AcDbLine
 62
7
  6
BYLAYER
 10
5.6409728019
 20
32.7935788567
 11
5.3881119605
 21
32.2806228669
  0
LINE
  5
240
100
AcDbEntity
  8
00_COMPONENTS_12
100
AcDbLine
 62
7
  6
BYLAYER
 10
5.6478865884
 20
32.8242276283
 11
5.3985624073
 21
32.3246680681
  0
LINE
  5
241
100
AcDbEntity
  8
00_COMPONENTS_12
100
AcDbLine
 62
7
  6
BYLAYER
 10
20.8766528113
 20
11.6493401878
 11
20.8280500093
 21
11.6440444213
  0
LINE
  5
242
100
AcDbEntity
  8
00_COMPONENTS_12
100
AcDbLine
 62
7
  6
BYLAYER
 10
20.8280500093
 20
11.6440444213
 11
20.7788783301
 21
11.6389736126
  0
LINE
  5
243
100
AcDbEntity
  8
00_COMPONENTS_12
100
AcDbLine
 62
7
  6
BYLAYER
 10
19.0843289881
 20
11.6389734917
 11
19.0351486097
 21
11.6440449009
  0
LINE
  5
244
100
AcDbEntity
  8
00_COMPONENTS_12
100
AcDbLine
 62
7
  6
BYLAYER
 10
19.0351528629
 20
11.644044452
 11
18.9865536538
 21
11.6493402457
  0
LWPOLYLINE
  5
245
100
AcDbEntity
  8
00_COMPONENTS
100
AcDbPolyline
 62
7
  6
BYLAYER
 90
11
 70
0
 10
18.1651609865
 20
12.3720644829
 10
17.3576235498
 20
12.4979759366
 10
15.0395371069
 20
13.663038329
 10
13.1860162654
 20
15.5113705663
 10
12.0674807882
 20
17.7296100987
 10
11.6989039415
 20
20.1807711279
 10
12.120699008
 20
22.6249194284
 10
13.261944625
 20
24.7856263221
 10
15.060512516
 20
26.5452556982
 10
17.365732466
 20
27.6978836516
 10
18.1812367004
 20
27.8246194821
  0
LWPOLYLINE
  5
246
100
AcDbEntity
  8
00_COMPONENTS_12
100
AcDbPolyline
 62
7
  6
BYLAYER
 90
4
 70
0
 10
18.9865543132
 20
11.6493442627
 10
17.7822274683
 20
11.8729549777
 10
16.6225601498
 20
12.2672681275
 10
15.5316142273
 20
12.8241094157
  0
LINE
  5
247
100
AcDbEntity
  8
00_COMPONENTS_12
100
AcDbLine
 62
7
  6
BYLAYER
 10
19.167396821
 20
11.6106807644
 11
19.0844208789
 21
11.6389643093
  0
LINE
  5
248
100
AcDbEntity
  8
00_COMPONENTS_12
100
AcDbLine
 62
7
  6
BYLAYER
 10
19.169129261
 20
11.6095557421
 11
19.0844208793
 21
11.6389643082
  0
LINE
  5
249
100
AcDbEntity
  8
00_COMPONENTS_11
100
AcDbLine
 62
7
  6
BYLAYER
 10
7.1841047492
 20
18.5817208085
 11
7.0281471098
 21
18.9675015101
  0
LINE
  5
24A
100
AcDbEntity
  8
00_COMPONENTS_12
100
AcDbLine
 62
7
  6
BYLAYER
 10
5.8316032346
 20
32.0966403338
 11
5.9188785592
 21
27.0966403338
  0
LINE
  5
24B
100
AcDbEntity
  8
00_COMPONENTS_12
100
AcDbLine
 62
7
  6
BYLAYER
 10
6.4317630215
 20
23.9960536495
 11
6.4316061941
 21
24.0139734633
  0
LINE
  5
24C
100
AcDbEntity
  8
00_COMPONENTS_3
100
AcDbLine
 62
7
  6
BYLAYER
 10
5.1316032346
 20
32.5966403338
 11
5.1316032346
 21
32.0966403338
  0
LINE
  5
24D
100
AcDbEntity
  8
00_COMPONENTS_3
100
AcDbLine
 62
7
  6
BYLAYER
 10
5.1992248682
 20
32.0466403338
 11
5.1992248682
 21
30.7966403338
  0
LINE
  5
24E
100
AcDbEntity
  8
00_COMPONENTS_3
100
AcDbLine
 62
7
  6
BYLAYER
 10
5.1992248682
 20
29.7966403338
 11
5.1992248682
 21
28.5966403338
  0
LINE
  5
24F
100
AcDbEntity
  8
00_COMPONENTS_12
100
AcDbLine
 62
7
  6
BYLAYER
 10
5.235121931
 20
31.5770250915
 11
5.235121931
 21
27.0966403338
  0
LINE
  5
250
100
AcDbEntity
  8
00_COMPONENTS_11
100
AcDbLine
 62
7
  6
BYLAYER
 10
5.3316032346
 20
24.8072877149
 11
5.3316032346
 21
28.25756667
  0
LINE
  5
251
100
AcDbEntity
  8
00_COMPONENTS_12
100
AcDbLine
 62
7
  6
BYLAYER
 10
5.3881116136
 20
22.8996948446
 11
5.3881116136
 21
32.2806262434
  0
LINE
  5
252
100
AcDbEntity
  8
00_COMPONENTS_12
100
AcDbLine
 62
7
  6
BYLAYER
 10
5.6412450121
 20
23.4386033203
 11
5.6412457991
 21
32.7941326509
  0
LINE
  5
253
100
AcDbEntity
  8
00_COMPONENTS_12
100
AcDbLine
 62
7
  6
BYLAYER
 10
5.82196146
 20
32.7941326517
 11
5.8219606662
 21
23.4386033211
  0
LINE
  5
254
100
AcDbEntity
  8
00_COMPONENTS_12
100
AcDbLine
 62
7
  6
BYLAYER
 10
6.0750948555
 20
32.2806244911
 11
6.0750948555
 21
22.8996950413
  0
LINE
  5
255
100
AcDbEntity
  8
00_COMPONENTS_11
100
AcDbLine
 62
7
  6
BYLAYER
 10
6.1316032346
 20
28.0966403338
 11
6.1316032346
 21
25.0743440513
  0
LINE
  5
256
100
AcDbEntity
  8
00_COMPONENTS_12
100
AcDbLine
 62
7
  6
BYLAYER
 10
6.2316032346
 20
23.4359580964
 11
6.2316032346
 21
22.7996297963
  0
LINE
  5
257
100
AcDbEntity
  8
00_COMPONENTS_11
100
AcDbLine
 62
7
  6
BYLAYER
 10
6.4316032346
 20
23.0584246824
 11
6.4316032346
 21
28.0966403338
  0
LINE
  5
258
100
AcDbEntity
  8
00_COMPONENTS_12
100
AcDbLine
 62
7
  6
BYLAYER
 10
6.4318598802
 20
8.7966403338
 11
6.4318625428
 21
23.9850070162
  0
LINE
  5
259
100
AcDbEntity
  8
00_COMPONENTS_12
100
AcDbLine
 62
7
  6
BYLAYER
 10
6.4362067477
 20
8.7966403338
 11
6.436206748
 21
27.9594647585
  0
LINE
  5
25A
100
AcDbEntity
  8
00_COMPONENTS_12
100
AcDbLine
 62
7
  6
BYLAYER
 10
6.52638648
 20
8.7966403338
 11
6.5263865007
 21
23.6217031184
  0
LINE
  5
25B
100
AcDbEntity
  8
00_COMPONENTS_12
100
AcDbLine
 62
7
  6
BYLAYER
 10
6.1033231422
 20
32.0966403338
 11
6.0327976956
 21
27.0966403338
  0
LINE
  5
25C
100
AcDbEntity
  8
00_COMPONENTS_12
100
AcDbLine
 62
7
  6
BYLAYER
 10
6.0474544842
 20
32.9848104367
 11
5.965209589
 21
32.5506106103
  0
LWPOLYLINE
  5
25D
100
AcDbEntity
  8
00_COMPONENTS_12
100
AcDbPolyline
 62
7
  6
BYLAYER
 90
4
 70
0
 10
4.7247821293
 20
32.4975414402
 10
4.6684191376
 20
32.4378602786
 10
4.6257015053
 20
32.3700737409
 10
4.5976553733
 20
32.2965612926
  0
LINE
  5
25E
100
AcDbEntity
  8
00_COMPONENTS_12
100
AcDbLine
 62
7
  6
BYLAYER
 10
4.7498393894
 20
32.5177340562
 11
4.7247821293
 21
32.4975414402
  0
LINE
  5
25F
100
AcDbEntity
  8
00_COMPONENTS_12
100
AcDbLine
 62
7
  6
BYLAYER
 10
5.8228355216
 20
23.4354127424
 11
6.075427576
 21
22.8982464275
  0
LINE
  5
260
100
AcDbEntity
  8
00_COMPONENTS_12
100
AcDbLine
 62
7
  6
BYLAYER
 10
5.822233664
 20
23.4380221335
 11
6.0750945053
 21
22.8996949762
  0
LINE
  5
261
100
AcDbEntity
  8
00_COMPONENTS_17
100
AcDbLine
 62
7
  6
BYLAYER
 10
7.7316032346
 20
18.6910090239
 11
7.5202351963
 21
19.4453658588
  0
LINE
  5
262
100
AcDbEntity
  8
00_COMPONENTS_17
100
AcDbLine
 62
7
  6
BYLAYER
 10
7.3725455218
 20
19.9724593414
 11
7.3282238275
 21
20.1306401776
  0
LINE
  5
263
100
AcDbEntity
  8
00_COMPONENTS_3
100
AcDbLine
 62
7
  6
BYLAYER
 10
5.1992248682
 20
29.7966403338
 11
4.9566509367
 21
30.7966403338
  0
LINE
  5
264
100
AcDbEntity
  8
00_COMPONENTS_12
100
AcDbLine
 62
7
  6
BYLAYER
 10
5.017392225
 20
32.0770250915
 11
4.9450465506
 21
32.5949872302
  0
LINE
  5
265
100
AcDbEntity
  8
00_COMPONENTS_12
100
AcDbLine
 62
7
  6
BYLAYER
 10
7.2339226844
 20
32.0966403338
 11
7.3209983588
 21
27.0966403338
  0
LINE
  5
266
100
AcDbEntity
  8
00_COMPONENTS_12
100
AcDbLine
 62
7
  6
BYLAYER
 10
7.323686792
 20
27.0966403338
 11
7.2390039175
 21
32.0966403338
  0
LINE
  5
267
100
AcDbEntity
  8
00_COMPONENTS_12
100
AcDbLine
 62
7
  6
BYLAYER
 10
7.6175411849
 20
27.0966403338
 11
7.5416588129
 21
31.5770250915
  0
LINE
  5
268
100
AcDbEntity
  8
00_COMPONENTS_11
100
AcDbLine
 62
7
  6
BYLAYER
 10
7.0542500298
 20
25.0743005064
 11
7.0543217289
 21
25.0632485532
  0
LWPOLYLINE
  5
269
100
AcDbEntity
  8
00_COMPONENTS_11
100
AcDbPolyline
 62
7
  6
BYLAYER
 90
3
 70
0
 10
7.036657312
 20
23.0583747242
 10
7.0290115516
 20
26.2338685725
 10
7.0319999132
 20
28.0966403338
  0
LINE
  5
26A
100
AcDbEntity
  8
00_COMPONENTS_12
100
AcDbLine
 62
7
  6
BYLAYER
 10
6.8315372603
 20
32.0966403338
 11
6.8315372603
 21
7.5966403338
  0
LINE
  5
26B
100
AcDbEntity
  8
00_COMPONENTS_11
100
AcDbLine
 62
7
  6
BYLAYER
 10
6.8316032346
 20
16.9276170219
 11
6.8316032346
 21
16.4810948933
  0
LINE
  5
26C
100
AcDbEntity
  8
00_COMPONENTS_12
100
AcDbLine
 62
7
  6
BYLAYER
 10
6.8320597567
 20
32.0966403338
 11
6.8320597567
 21
7.5966403338
  0
LINE
  5
26D
100
AcDbEntity
  8
00_COMPONENTS_12
100
AcDbLine
 62
7
  6
BYLAYER
 10
6.891239944
 20
8.7966403338
 11
6.8912399477
 21
22.9897571609
  0
LINE
  5
26E
100
AcDbEntity
  8
00_COMPONENTS_11
100
AcDbLine
 62
7
  6
BYLAYER
 10
6.9759408019
 20
19.9589878721
 11
6.9759408018
 21
19.2542897282
  0
LINE
  5
26F
100
AcDbEntity
  8
00_COMPONENTS_12
100
AcDbLine
 62
7
  6
BYLAYER
 10
7.0477104473
 20
31.5770250915
 11
7.0477104473
 21
27.0966403338
  0
LINE
  5
270
100
AcDbEntity
  8
00_COMPONENTS_12
100
AcDbLine
 62
7
  6
BYLAYER
 10
7.2654401533
 20
31.5770250915
 11
7.2654401533
 21
27.0966403338
  0
LINE
  5
271
100
AcDbEntity
  8
00_COMPONENTS_12
100
AcDbLine
 62
7
  6
BYLAYER
 10
7.4491678916
 20
32.0966403338
 11
7.4491678974
 21
32.8212886889
  0
LINE
  5
272
100
AcDbEntity
  8
00_COMPONENTS
100
AcDbLine
 62
7
  6
BYLAYER
 10
7.7316032346
 20
36.9976403338
 11
7.7316032346
 21
7.9956403338
  0
LINE
  5
273
100
AcDbEntity
  8
00_COMPONENTS_12
100
AcDbLine
 62
7
  6
BYLAYER
 10
7.7316032346
 20
7.8966403338
 11
7.7316032346
 21
22.3466403338
  0
LINE
  5
274
100
AcDbEntity
  8
00_COMPONENTS_12
100
AcDbLine
 62
7
  6
BYLAYER
 10
8.1816032346
 20
22.5966413478
 11
8.1816032346
 21
23.4363217138
  0
LINE
  5
275
100
AcDbEntity
  8
00_COMPONENTS_12
100
AcDbLine
 62
7
  6
BYLAYER
 10
8.1816763601
 20
22.4868010302
 11
8.1816763601
 21
8.7765494542
  0
LINE
  5
276
100
AcDbEntity
  8
00_COMPONENTS_12
100
AcDbLine
 62
7
  6
BYLAYER
 10
8.1822936647
 20
22.5966252214
 11
8.1822936647
 21
22.966461784
  0
LINE
  5
277
100
AcDbEntity
  8
00_COMPONENTS_12
100
AcDbLine
 62
7
  6
BYLAYER
 10
7.4590837107
 20
27.0966403338
 11
7.4954301904
 21
32.0966410562
  0
LINE
  5
278
100
AcDbEntity
  8
00_COMPONENTS_11
100
AcDbLine
 62
7
  6
BYLAYER
 10
7.0316015159
 20
23.0584246823
 11
7.0491957379
 21
25.0743446145
  0
LINE
  5
279
100
AcDbEntity
  8
00_COMPONENTS_11
100
AcDbLine
 62
7
  6
BYLAYER
 10
7.080742647
 20
28.0966403338
 11
7.0543217289
 21
25.0632485532
  0
LINE
  5
27A
100
AcDbEntity
  8
00_COMPONENTS_11
100
AcDbLine
 62
7
  6
BYLAYER
 10
7.4776531414
 20
17.0058415672
 11
7.5755477842
 21
22.6142218982
  0
LINE
  5
27B
100
AcDbEntity
  8
00_COMPONENTS_11
100
AcDbLine
 62
7
  6
BYLAYER
 10
11.8316032346
 20
37.4482457815
 11
11.2364355811
 21
37.2787571945
  0
LINE
  5
27C
100
AcDbEntity
  8
00_COMPONENTS_6
100
AcDbLine
 62
7
  6
BYLAYER
 10
18.3824100326
 20
14.4036622028
 11
18.5844786595
 21
14.4036622028
  0
LINE
  5
27D
100
AcDbEntity
  8
00_COMPONENTS_6
100
AcDbLine
 62
7
  6
BYLAYER
 10
21.2787278095
 20
14.4036622028
 11
21.480796573
 21
14.4036622028
  0
LINE
  5
27E
100
AcDbEntity
  8
00_COMPONENTS_6
100
AcDbLine
 62
7
  6
BYLAYER
 10
23.0550542865
 20
14.9861119854
 11
22.8799078321
 21
14.9861119854
  0
LINE
  5
27F
100
AcDbEntity
  8
00_COMPONENTS_6
100
AcDbLine
 62
7
  6
BYLAYER
 10
16.983298637
 20
14.9861119854
 11
16.8081518083
 21
14.9861119854
  0
LINE
  5
280
100
AcDbEntity
  8
00_COMPONENTS_12
100
AcDbLine
 62
7
  6
BYLAYER
 10
7.4602817417
 20
32.0966403338
 11
7.5416588129
 21
31.5770250915
  0
LINE
  5
281
100
AcDbEntity
  8
00_COMPONENTS_12
100
AcDbLine
 62
7
  6
BYLAYER
 10
6.1886905245
 20
32.3384897636
 11
6.1064610624
 21
32.9288270868
  0
LINE
  5
282
100
AcDbEntity
  8
00_COMPONENTS_12
100
AcDbLine
 62
7
  6
BYLAYER
 10
9.7224983838
 20
32.596542544
 11
9.8150687526
 21
21.9913043004
  0
LINE
  5
283
100
AcDbEntity
  8
00_COMPONENTS
100
AcDbLine
 62
7
  6
BYLAYER
 10
8.6540945834
 20
7.9956403338
 11
8.6540945834
 21
36.9976403338
  0
LINE
  5
284
100
AcDbEntity
  8
00_COMPONENTS_12
100
AcDbLine
 62
7
  6
BYLAYER
 10
8.8819401914
 20
8.1966403338
 11
8.8819401914
 21
15.7484653944
  0
LINE
  5
285
100
AcDbEntity
  8
00_COMPONENTS_12
100
AcDbLine
 62
7
  6
BYLAYER
 10
8.9316031843
 20
7.5966403338
 11
8.9316031843
 21
32.0966403338
  0
LINE
  5
286
100
AcDbEntity
  8
00_COMPONENTS_12
100
AcDbLine
 62
7
  6
BYLAYER
 10
9.1896638479
 20
32.0770250915
 11
9.1896638479
 21
27.0966403338
  0
LINE
  5
287
100
AcDbEntity
  8
00_COMPONENTS_12
100
AcDbLine
 62
7
  6
BYLAYER
 10
9.2138560375
 20
32.0966403338
 11
9.2138560375
 21
32.5966403338
  0
LINE
  5
288
100
AcDbEntity
  8
00_COMPONENTS_12
100
AcDbLine
 62
7
  6
BYLAYER
 10
9.407393554
 20
31.5770250915
 11
9.407393554
 21
27.0966403338
  0
LINE
  5
289
100
AcDbEntity
  8
00_COMPONENTS_12
100
AcDbLine
 62
7
  6
BYLAYER
 10
9.9316032346
 20
7.5966403338
 11
9.9316032346
 21
32.0966403338
  0
LINE
  5
28A
100
AcDbEntity
  8
00_COMPONENTS_12
100
AcDbLine
 62
7
  6
BYLAYER
 10
10.1483152058
 20
32.0966403338
 11
10.0801282491
 21
27.0966403338
  0
LINE
  5
28B
100
AcDbEntity
  8
00_COMPONENTS_12
100
AcDbLine
 62
7
  6
BYLAYER
 10
8.6316032346
 20
32.0966403338
 11
8.5443279099
 21
27.0966403338
  0
LINE
  5
28C
100
AcDbEntity
  8
00_COMPONENTS_12
100
AcDbLine
 62
7
  6
BYLAYER
 10
9.3316032346
 20
20.0966403338
 11
9.1134149229
 21
7.5966403338
  0
LINE
  5
28D
100
AcDbEntity
  8
00_COMPONENTS_12
100
AcDbLine
 62
7
  6
BYLAYER
 10
9.407393554
 20
31.5770250915
 11
9.4799701227
 21
32.0966403338
  0
LINE
  5
28E
100
AcDbEntity
  8
00_COMPONENTS_12
100
AcDbLine
 62
7
  6
BYLAYER
 10
10.7348342071
 20
31.5770250915
 11
10.9533463563
 21
32.0966403338
  0
LINE
  5
28F
100
AcDbEntity
  8
00_COMPONENTS_12
100
AcDbLine
 62
7
  6
BYLAYER
 10
5.3881119649
 20
22.8996949757
 11
5.6409728062
 21
23.438022133
  0
LINE
  5
290
100
AcDbEntity
  8
00_COMPONENTS_6
100
AcDbLine
 62
7
  6
BYLAYER
 10
19.7709394088
 20
16.5352444082
 11
20.1463716538
 21
16.5380973272
  0
LINE
  5
291
100
AcDbEntity
  8
00_COMPONENTS_11
100
AcDbLine
 62
7
  6
BYLAYER
 10
4.5316032346
 20
16.3819248656
 11
6.8892545489
 21
16.3819248656
  0
LINE
  5
292
100
AcDbEntity
  8
00_COMPONENTS_11
100
AcDbLine
 62
7
  6
BYLAYER
 10
32.9739519202
 20
16.3819248656
 11
35.3316032346
 21
16.3819248656
  0
LINE
  5
293
100
AcDbEntity
  8
00_COMPONENTS_11
100
AcDbLine
 62
7
  6
BYLAYER
 10
35.3316032346
 20
16.4810948933
 11
33.0316032346
 21
16.4810948933
  0
LINE
  5
294
100
AcDbEntity
  8
00_COMPONENTS_11
100
AcDbLine
 62
7
  6
BYLAYER
 10
6.8316032346
 20
16.4810948933
 11
4.5316032346
 21
16.4810948933
  0
LINE
  5
295
100
AcDbEntity
  8
00_COMPONENTS_6
100
AcDbLine
 62
7
  6
BYLAYER
 10
18.5844786596
 20
16.555704723
 11
18.3824098961
 21
16.555704723
  0
LINE
  5
296
100
AcDbEntity
  8
00_COMPONENTS_6
100
AcDbLine
 62
7
  6
BYLAYER
 10
21.2787278095
 20
16.555704723
 11
21.4807965698
 21
16.555704723
  0
LINE
  5
297
100
AcDbEntity
  8
00_COMPONENTS_11
100
AcDbLine
 62
7
  6
BYLAYER
 10
4.5316032346
 20
16.9276170219
 11
6.8316032346
 21
16.9276170219
  0
LINE
  5
298
100
AcDbEntity
  8
00_COMPONENTS_11
100
AcDbLine
 62
7
  6
BYLAYER
 10
33.0316032346
 20
16.9276170219
 11
35.3316032346
 21
16.9276170219
  0
LINE
  5
299
100
AcDbEntity
  8
00_COMPONENTS_11
100
AcDbLine
 62
7
  6
BYLAYER
 10
35.3316032345
 20
17.107619017
 11
32.9822506328
 21
17.107619017
  0
LINE
  5
29A
100
AcDbEntity
  8
00_COMPONENTS_11
100
AcDbLine
 62
7
  6
BYLAYER
 10
6.8809558363
 20
17.107619017
 11
4.5316032346
 21
17.107619017
  0
LINE
  5
29B
100
AcDbEntity
  8
00_COMPONENTS_6
100
AcDbLine
 62
7
  6
BYLAYER
 10
16.8081518083
 20
17.5974954801
 11
16.983298637
 21
17.5974954801
  0
LINE
  5
29C
100
AcDbEntity
  8
00_COMPONENTS_6
100
AcDbLine
 62
7
  6
BYLAYER
 10
22.8799078321
 20
17.5974954801
 11
23.0550542865
 21
17.5974954801
  0
LINE
  5
29D
100
AcDbEntity
  8
00_COMPONENTS_9
100
AcDbLine
 62
7
  6
BYLAYER
 10
14.3315805904
 20
18.4216403338
 11
14.1315797817
 21
18.6216403338
  0
LINE
  5
29E
100
AcDbEntity
  8
00_COMPONENTS_12
100
AcDbLine
 62
7
  6
BYLAYER
 10
19.2389579291
 20
11.5355481739
 11
19.169129261
 21
11.6095557421
  0
LINE
  5
29F
100
AcDbEntity
  8
00_COMPONENTS_12
100
AcDbLine
 62
7
  6
BYLAYER
 10
9.8150687526
 20
21.9913043004
 11
10.3316032346
 21
21.0966403338
  0
LINE
  5
2A0
100
AcDbEntity
  8
00_COMPONENTS_12
100
AcDbLine
 62
7
  6
BYLAYER
 10
6.0750945014
 20
32.2806228638
 11
5.8222336601
 21
32.7935788536
  0
LINE
  5
2A1
100
AcDbEntity
  8
00_COMPONENTS_12
100
AcDbLine
 62
7
  6
BYLAYER
 10
9.1170872793
 20
32.5966403338
 11
9.1896638479
 21
32.0770250915
  0
LINE
  5
2A2
100
AcDbEntity
  8
00_COMPONENTS_12
100
AcDbLine
 62
7
  6
BYLAYER
 10
10.3316032346
 20
21.0966403338
 11
10.3316032346
 21
20.0966403338
  0
LINE
  5
2A3
100
AcDbEntity
  8
00_COMPONENTS_12
100
AcDbLine
 62
7
  6
BYLAYER
 10
10.7348342071
 20
31.5770250915
 11
10.7348342071
 21
27.0966403338
  0
LINE
  5
2A4
100
AcDbEntity
  8
00_COMPONENTS_12
100
AcDbLine
 62
7
  6
BYLAYER
 10
10.8512830996
 20
33.1220065687
 11
10.8512830996
 21
32.0966403338
  0
LINE
  5
2A5
100
AcDbEntity
  8
00_COMPONENTS_12
100
AcDbLine
 62
7
  6
BYLAYER
 10
10.9525639132
 20
31.5770250915
 11
10.9525639132
 21
27.0966403338
  0
LINE
  5
2A6
100
AcDbEntity
  8
00_COMPONENTS_12
100
AcDbLine
 62
7
  6
BYLAYER
 10
11.0311467124
 20
32.0966403338
 11
11.0311467124
 21
7.5966403338
  0
LINE
  5
2A7
100
AcDbEntity
  8
00_COMPONENTS_12
100
AcDbLine
 62
7
  6
BYLAYER
 10
11.0315497228
 20
7.5966403338
 11
11.0315497228
 21
32.0966403338
  0
LINE
  5
2A8
100
AcDbEntity
  8
00_COMPONENTS_12
100
AcDbLine
 62
7
  6
BYLAYER
 10
11.4316032346
 20
32.0966403338
 11
11.4316032346
 21
31.5966403338
  0
LINE
  5
2A9
100
AcDbEntity
  8
00_COMPONENTS_12
100
AcDbLine
 62
7
  6
BYLAYER
 10
10.2408858415
 20
31.5770250915
 11
10.1650034695
 21
27.0966403338
  0
LINE
  5
2AA
100
AcDbEntity
  8
00_COMPONENTS_12
100
AcDbLine
 62
7
  6
BYLAYER
 10
10.4518304137
 20
15.5369314313
 11
10.3132321307
 21
7.5966411154
  0
LINE
  5
2AB
100
AcDbEntity
  8
00_COMPONENTS_12
100
AcDbLine
 62
7
  6
BYLAYER
 10
10.5816032346
 20
20.0966403338
 11
10.5035776856
 21
15.6265596282
  0
LINE
  5
2AC
100
AcDbEntity
  8
00_COMPONENTS_11
100
AcDbLine
 62
7
  6
BYLAYER
 10
7.1876326046
 20
17.8857350672
 11
6.8809558363
 21
17.107619017
  0
LINE
  5
2AD
100
AcDbEntity
  8
00_COMPONENTS_12
100
AcDbLine
 62
7
  6
BYLAYER
 10
11.243652631
 20
32.0966403338
 11
10.9525639132
 21
31.5770250915
  0
LWPOLYLINE
  5
2AE
100
AcDbEntity
  8
00_COMPONENTS_6
100
AcDbPolyline
 62
7
  6
BYLAYER
 90
5
 70
0
 10
14.3956916094
 20
18.2957936455
 10
14.3624513862
 20
18.2915001639
 10
14.198535637
 20
18.2010927879
 10
14.1458956353
 20
18.1225520021
 10
14.1180442897
 20
17.9965866899
  0
LINE
  5
2AF
100
AcDbEntity
  8
00_COMPONENTS_6
100
AcDbLine
 62
7
  6
BYLAYER
 10
14.3956916094
 20
18.2957936455
 11
14.4179837337
 21
18.2966092436
  0
LINE
  5
2B0
100
AcDbEntity
  8
00_COMPONENTS_6
100
AcDbLine
 62
7
  6
BYLAYER
 10
14.147460929
 20
17.9966399391
 11
16.4941643356
 21
17.9966403338
  0
LINE
  5
2B1
100
AcDbEntity
  8
00_COMPONENTS_6
100
AcDbLine
 62
7
  6
BYLAYER
 10
23.3690623652
 20
17.9966241286
 11
25.7157454492
 21
17.9966401956
  0
LINE
  5
2B2
100
AcDbEntity
  8
00_COMPONENTS_6
100
AcDbLine
 62
7
  6
BYLAYER
 10
14.4179837337
 20
18.2966403338
 11
16.6868805962
 21
18.2966403338
  0
LINE
  5
2B3
100
AcDbEntity
  8
00_COMPONENTS_6
100
AcDbLine
 62
7
  6
BYLAYER
 10
23.1763261714
 20
18.2966403338
 11
25.4452227354
 21
18.2966403338
  0
LINE
  5
2B4
100
AcDbEntity
  8
00_COMPONENTS_8
100
AcDbLine
 62
7
  6
BYLAYER
 10
16.9005160796
 20
18.3466403338
 11
22.9626921726
 21
18.3466403338
  0
LINE
  5
2B5
100
AcDbEntity
  8
00_COMPONENTS_9
100
AcDbLine
 62
7
  6
BYLAYER
 10
25.5315550289
 20
18.4216403338
 11
14.3316514402
 21
18.4216403338
  0
LINE
  5
2B6
100
AcDbEntity
  8
00_COMPONENTS_9
100
AcDbLine
 62
7
  6
BYLAYER
 10
25.7316266874
 20
18.6216403338
 11
14.1315797817
 21
18.6216403338
  0
LINE
  5
2B7
100
AcDbEntity
  8
00_COMPONENTS_11
100
AcDbLine
 62
7
  6
BYLAYER
 10
4.5316032346
 20
18.9675015101
 11
7.0281471098
 21
18.9675015101
  0
LINE
  5
2B8
100
AcDbEntity
  8
00_COMPONENTS_11
100
AcDbLine
 62
7
  6
BYLAYER
 10
32.8350593593
 20
18.9675015101
 11
35.3316032346
 21
18.9675015101
  0
LINE
  5
2B9
100
AcDbEntity
  8
00_COMPONENTS_11
100
AcDbLine
 62
7
  6
BYLAYER
 10
35.3316032345
 20
19.2542897282
 11
32.8872656673
 21
19.2542897282
  0
LINE
  5
2BA
100
AcDbEntity
  8
00_COMPONENTS_11
100
AcDbLine
 62
7
  6
BYLAYER
 10
6.9759408018
 20
19.2542897282
 11
4.5316032346
 21
19.2542897282
  0
LINE
  5
2BB
100
AcDbEntity
  8
00_COMPONENTS_6
100
AcDbLine
 62
7
  6
BYLAYER
 10
25.4452227354
 20
18.2966092436
 11
25.4665823233
 21
18.2958605612
  0
LINE
  5
2BC
100
AcDbEntity
  8
00_COMPONENTS_12
100
AcDbLine
 62
7
  6
BYLAYER
 10
6.4362067477
 20
27.9594647585
 11
6.4361552794
 21
27.9595191321
  0
LINE
  5
2BD
100
AcDbEntity
  8
00_COMPONENTS_12
100
AcDbLine
 62
7
  6
BYLAYER
 10
6.6840451607
 20
32.0966403338
 11
7.0477104473
 21
31.5770250915
  0
LINE
  5
2BE
100
AcDbEntity
  8
00_COMPONENTS_12
100
AcDbLine
 62
7
  6
BYLAYER
 10
7.2654401533
 20
31.5770250915
 11
6.9743514354
 21
32.0966403338
  0
LINE
  5
2BF
100
AcDbEntity
  8
00_COMPONENTS_12
100
AcDbLine
 62
7
  6
BYLAYER
 10
10.2408858415
 20
31.5770250915
 11
10.1771097753
 21
32.0966403338
  0
LINE
  5
2C0
100
AcDbEntity
  8
00_COMPONENTS_4
100
AcDbLine
 62
7
  6
BYLAYER
 10
11.8316032346
 20
37.0966403338
 11
11.8316032346
 21
43.5966403338
  0
LINE
  5
2C1
100
AcDbEntity
  8
00_COMPONENTS_12
100
AcDbLine
 62
7
  6
BYLAYER
 10
11.9812662777
 20
8.1966403338
 11
11.9812662777
 21
12.3108491635
  0
LINE
  5
2C2
100
AcDbEntity
  8
00_COMPONENTS_6
100
AcDbLine
 62
7
  6
BYLAYER
 10
11.9816032346
 20
20.9896563323
 11
11.9816032346
 21
19.203609058
  0
LINE
  5
2C3
100
AcDbEntity
  8
00_COMPONENTS_12
100
AcDbLine
 62
7
  6
BYLAYER
 10
12.0315010758
 20
32.0966403338
 11
12.0315010758
 21
7.5966403338
  0
LINE
  5
2C4
100
AcDbEntity
  8
00_COMPONENTS_4
100
AcDbLine
 62
7
  6
BYLAYER
 10
12.4316032346
 20
37.0966403338
 11
12.4316032346
 21
43.5966403338
  0
LINE
  5
2C5
100
AcDbEntity
  8
00_COMPONENTS_4
100
AcDbLine
 62
7
  6
BYLAYER
 10
12.7316032346
 20
37.0966403338
 11
12.7316032346
 21
43.5966403338
  0
LINE
  5
2C6
100
AcDbEntity
  8
00_COMPONENTS_4
100
AcDbLine
 62
7
  6
BYLAYER
 10
12.8316032346
 20
44.9978307538
 11
12.8316032346
 21
43.5966403338
  0
LINE
  5
2C7
100
AcDbEntity
  8
00_COMPONENTS_12
100
AcDbLine
 62
7
  6
BYLAYER
 10
12.936839754
 20
7.8966403338
 11
12.9316032346
 21
7.5966403338
  0
LWPOLYLINE
  5
2C8
100
AcDbEntity
  8
00_COMPONENTS_11
100
AcDbPolyline
 62
7
  6
BYLAYER
 90
4
 70
0
 10
23.2491202015
 20
37.2833204388
 10
23.1731876115
 20
37.250903301
 10
23.0056247058
 20
37.2018393058
 10
22.756439317
 20
37.1485646413
  0
LINE
  5
2C9
100
AcDbEntity
  8
00_COMPONENTS_11
100
AcDbLine
 62
7
  6
BYLAYER
 10
23.1216894119
 20
37.2358241437
 11
23.3080090268
 21
37.3050062616
  0
LINE
  5
2CA
100
AcDbEntity
  8
00_COMPONENTS_11
100
AcDbLine
 62
7
  6
BYLAYER
 10
32.8872656673
 20
19.9589878721
 11
35.3316032346
 21
19.9590087982
  0
LINE
  5
2CB
100
AcDbEntity
  8
00_COMPONENTS_11
100
AcDbLine
 62
7
  6
BYLAYER
 10
4.5316032346
 20
19.9589878721
 11
6.9759408019
 21
19.9589878721
  0
LINE
  5
2CC
100
AcDbEntity
  8
00_COMPONENTS_12
100
AcDbLine
 62
7
  6
BYLAYER
 10
4.5599214029
 20
19.9640422127
 11
7.7316032346
 21
19.9640422999
  0
LINE
  5
2CD
100
AcDbEntity
  8
00_COMPONENTS_12
100
AcDbLine
 62
7
  6
BYLAYER
 10
35.3032850594
 20
19.9640415965
 11
32.1316032346
 21
19.9640419918
  0
LINE
  5
2CE
100
AcDbEntity
  8
00_COMPONENTS_12
100
AcDbLine
 62
7
  6
BYLAYER
 10
22.8966759166
 20
20.0966562039
 11
22.6952402094
 21
20.0966403338
  0
LINE
  5
2CF
100
AcDbEntity
  8
00_COMPONENTS_11
100
AcDbLine
 62
7
  6
BYLAYER
 10
7.2068809095
 20
20.0966403457
 11
4.5316032346
 21
20.0966403457
  0
LINE
  5
2D0
100
AcDbEntity
  8
00_COMPONENTS_12
100
AcDbLine
 62
7
  6
BYLAYER
 10
9.3316032346
 20
20.0966403338
 11
12.2316032346
 21
20.0966403338
  0
LINE
  5
2D1
100
AcDbEntity
  8
00_COMPONENTS_12
100
AcDbLine
 62
7
  6
BYLAYER
 10
27.6316032346
 20
20.0966403338
 11
30.5316032345
 21
20.0966403338
  0
LINE
  5
2D2
100
AcDbEntity
  8
00_COMPONENTS_11
100
AcDbLine
 62
7
  6
BYLAYER
 10
32.6563255596
 20
20.0966403338
 11
35.3316032346
 21
20.0966403338
  0
LINE
  5
2D3
100
AcDbEntity
  8
00_COMPONENTS_11
100
AcDbLine
 62
7
  6
BYLAYER
 10
35.3316032023
 20
20.2338113611
 11
32.3292088286
 21
20.2338135591
  0
LINE
  5
2D4
100
AcDbEntity
  8
00_COMPONENTS_11
100
AcDbLine
 62
7
  6
BYLAYER
 10
7.5339976405
 20
20.233815758
 11
4.5316032352
 21
20.2338113611
  0
LINE
  5
2D5
100
AcDbEntity
  8
00_COMPONENTS_12
100
AcDbLine
 62
7
  6
BYLAYER
 10
35.3104952007
 20
20.4092559333
 11
32.1316032346
 21
20.4092559333
  0
LINE
  5
2D6
100
AcDbEntity
  8
00_COMPONENTS_12
100
AcDbLine
 62
7
  6
BYLAYER
 10
7.7316032346
 20
20.4092559333
 11
4.5527112354
 21
20.4092559333
  0
LINE
  5
2D7
100
AcDbEntity
  8
00_COMPONENTS_12
100
AcDbLine
 62
7
  6
BYLAYER
 10
7.7316032346
 20
20.5501772963
 11
4.5523932819
 21
20.5501772963
  0
LINE
  5
2D8
100
AcDbEntity
  8
00_COMPONENTS_12
100
AcDbLine
 62
7
  6
BYLAYER
 10
32.1316032346
 20
20.5501772963
 11
35.3108131974
 21
20.5501772963
  0
LINE
  5
2D9
100
AcDbEntity
  8
00_COMPONENTS_12
100
AcDbLine
 62
7
  6
BYLAYER
 10
7.7316032346
 20
20.5543544675
 11
4.5524399245
 21
20.5543544675
  0
LINE
  5
2DA
100
AcDbEntity
  8
00_COMPONENTS_12
100
AcDbLine
 62
7
  6
BYLAYER
 10
32.1316032346
 20
20.5543544672
 11
35.310766528
 21
20.5543544672
  0
LINE
  5
2DB
100
AcDbEntity
  8
00_COMPONENTS_12
100
AcDbLine
 62
7
  6
BYLAYER
 10
35.3107673775
 20
20.5966403338
 11
32.1316032346
 21
20.5966403341
  0
LINE
  5
2DC
100
AcDbEntity
  8
00_COMPONENTS_12
100
AcDbLine
 62
7
  6
BYLAYER
 10
7.7316032345
 20
20.5966403341
 11
4.5523729187
 21
20.5966403341
  0
LINE
  5
2DD
100
AcDbEntity
  8
00_COMPONENTS_12
100
AcDbLine
 62
7
  6
BYLAYER
 10
4.55053587
 20
20.7501258805
 11
7.7316032346
 21
20.7501258805
  0
LINE
  5
2DE
100
AcDbEntity
  8
00_COMPONENTS_12
100
AcDbLine
 62
7
  6
BYLAYER
 10
32.1316032346
 20
20.7501258805
 11
35.312670564
 21
20.750125727
  0
LINE
  5
2DF
100
AcDbEntity
  8
00_COMPONENTS_12
100
AcDbLine
 62
7
  6
BYLAYER
 10
17.1679676016
 20
20.0964474461
 11
16.9665303465
 21
20.0966411878
  0
LWPOLYLINE
  5
2E0
100
AcDbEntity
  8
00_COMPONENTS_6
100
AcDbPolyline
 62
7
  6
BYLAYER
 90
5
 70
0
 10
14.1180442936
 20
22.1966932968
 10
14.1474572208
 20
22.0674069332
 10
14.2010375244
 20
21.9895227915
 10
14.3660303989
 20
21.901136784
 10
14.396624151
 20
21.897420106
  0
LINE
  5
2E1
100
AcDbEntity
  8
00_COMPONENTS_12
100
AcDbLine
 62
7
  6
BYLAYER
 10
13.4948256865
 20
32.5966403338
 11
13.4948256865
 21
32.0966403338
  0
LINE
  5
2E2
100
AcDbEntity
  8
00_COMPONENTS_12
100
AcDbLine
 62
7
  6
BYLAYER
 10
13.6316032345
 20
32.5966403338
 11
13.6316032345
 21
32.0966403508
  0
LINE
  5
2E3
100
AcDbEntity
  8
00_COMPONENTS_12
100
AcDbLine
 62
7
  6
BYLAYER
 10
13.6759386552
 20
32.0966403338
 11
13.6759386372
 21
32.5966403338
  0
LINE
  5
2E4
100
AcDbEntity
  8
00_COMPONENTS_6
100
AcDbLine
 62
7
  6
BYLAYER
 10
13.8816032346
 20
18.7410961626
 11
13.8816032346
 21
21.452184505
  0
LINE
  5
2E5
100
AcDbEntity
  8
00_COMPONENTS_9
100
AcDbLine
 62
7
  6
BYLAYER
 10
14.1315797817
 20
18.6216403338
 11
14.1315797817
 21
21.5716403338
  0
LINE
  5
2E6
100
AcDbEntity
  8
00_COMPONENTS_12
100
AcDbLine
 62
7
  6
BYLAYER
 10
14.2316032531
 20
31.5966407645
 11
14.2316032531
 21
25.2735124067
  0
LINE
  5
2E7
100
AcDbEntity
  8
00_COMPONENTS_6
100
AcDbLine
 62
7
  6
BYLAYER
 10
14.4543776595
 20
21.8966403338
 11
14.4543776595
 21
21.7716403338
  0
LINE
  5
2E8
100
AcDbEntity
  8
00_COMPONENTS_6
100
AcDbLine
 62
7
  6
BYLAYER
 10
14.4543776595
 20
18.4216403338
 11
14.4543776595
 21
18.2966403338
  0
LINE
  5
2E9
100
AcDbEntity
  8
00_COMPONENTS_12
100
AcDbLine
 62
7
  6
BYLAYER
 10
14.931603231
 20
7.8966403338
 11
14.931603231
 21
7.5966403338
  0
LINE
  5
2EA
100
AcDbEntity
  8
00_COMPONENTS_6
100
AcDbLine
 62
7
  6
BYLAYER
 10
15.1072818437
 20
17.9966401365
 11
15.107281987
 21
16.3452521726
  0
LINE
  5
2EB
100
AcDbEntity
  8
00_COMPONENTS_6
100
AcDbLine
 62
7
  6
BYLAYER
 10
15.1072819193
 20
23.8480286037
 11
15.1072818815
 21
22.1966403338
  0
LWPOLYLINE
  5
2EC
100
AcDbEntity
  8
00_COMPONENTS_6
100
AcDbPolyline
 62
7
  6
BYLAYER
 90
5
 70
0
 10
25.4675148655
 20
21.8974870225
 10
25.5007550921
 20
21.9017805054
 10
25.6646708516
 20
21.9921879012
 10
25.7173108498
 20
22.0707287013
 10
25.7451621792
 20
22.1966939778
  0
LINE
  5
2ED
100
AcDbEntity
  8
00_COMPONENTS_6
100
AcDbLine
 62
7
  6
BYLAYER
 10
25.4675148655
 20
21.8974870225
 11
25.4452227354
 21
21.896671424
  0
LINE
  5
2EE
100
AcDbEntity
  8
00_COMPONENTS_9
100
AcDbLine
 62
7
  6
BYLAYER
 10
14.1315797817
 20
21.5716403338
 11
25.7316266874
 21
21.5716403338
  0
LINE
  5
2EF
100
AcDbEntity
  8
00_COMPONENTS_12
100
AcDbLine
 62
7
  6
BYLAYER
 10
32.1316032346
 20
21.5814367118
 11
30.9850805881
 21
21.5814367118
  0
LINE
  5
2F0
100
AcDbEntity
  8
00_COMPONENTS_12
100
AcDbLine
 62
7
  6
BYLAYER
 10
8.878125881
 20
21.5814367118
 11
7.7316032346
 21
21.5814367118
  0
LINE
  5
2F1
100
AcDbEntity
  8
00_COMPONENTS_9
100
AcDbLine
 62
7
  6
BYLAYER
 10
14.3316514402
 20
21.7716403338
 11
25.5315550289
 21
21.7716403338
  0
LINE
  5
2F2
100
AcDbEntity
  8
00_COMPONENTS_8
100
AcDbLine
 62
7
  6
BYLAYER
 10
16.9005142965
 20
21.8466403338
 11
22.9626903894
 21
21.8466403338
  0
LINE
  5
2F3
100
AcDbEntity
  8
00_COMPONENTS_11
100
AcDbLine
 62
7
  6
BYLAYER
 10
32.3006767141
 20
21.8684195028
 11
35.3316032023
 21
21.8684294375
  0
LINE
  5
2F4
100
AcDbEntity
  8
00_COMPONENTS_11
100
AcDbLine
 62
7
  6
BYLAYER
 10
4.5316032352
 20
21.8684416186
 11
7.562529755
 21
21.8684305607
  0
LINE
  5
2F5
100
AcDbEntity
  8
00_COMPONENTS_6
100
AcDbLine
 62
7
  6
BYLAYER
 10
25.4452227354
 20
21.8966403338
 11
23.1763258729
 21
21.8966403338
  0
LINE
  5
2F6
100
AcDbEntity
  8
00_COMPONENTS_6
100
AcDbLine
 62
7
  6
BYLAYER
 10
16.6868794811
 20
21.8966403338
 11
14.4179837337
 21
21.8966403338
  0
LINE
  5
2F7
100
AcDbEntity
  8
00_COMPONENTS_6
100
AcDbLine
 62
7
  6
BYLAYER
 10
25.7157454479
 20
22.1966404622
 11
23.3690416323
 21
22.1966403338
  0
LINE
  5
2F8
100
AcDbEntity
  8
00_COMPONENTS_6
100
AcDbLine
 62
7
  6
BYLAYER
 10
16.4941438642
 20
22.1966563876
 11
14.1474596512
 21
22.1966408418
  0
LINE
  5
2F9
100
AcDbEntity
  8
00_COMPONENTS_12
100
AcDbLine
 62
7
  6
BYLAYER
 10
32.1316032346
 20
22.3466403338
 11
31.678943359
 21
22.3466403338
  0
LINE
  5
2FA
100
AcDbEntity
  8
00_COMPONENTS_12
100
AcDbLine
 62
7
  6
BYLAYER
 10
8.1842631101
 20
22.3466403338
 11
7.7316032346
 21
22.3466403338
  0
LINE
  5
2FB
100
AcDbEntity
  8
00_COMPONENTS_12
100
AcDbLine
 62
7
  6
BYLAYER
 10
35.3276908822
 20
22.4692643855
 11
31.6809133106
 21
22.4692643855
  0
LINE
  5
2FC
100
AcDbEntity
  8
00_COMPONENTS_12
100
AcDbLine
 62
7
  6
BYLAYER
 10
8.1822936647
 20
22.4692643855
 11
4.535515639
 21
22.4692643855
  0
LINE
  5
2FD
100
AcDbEntity
  8
00_COMPONENTS_6
100
AcDbLine
 62
7
  6
BYLAYER
 10
23.055054276
 20
22.5957851875
 11
22.8799078321
 21
22.5957851875
  0
LINE
  5
2FE
100
AcDbEntity
  8
00_COMPONENTS_6
100
AcDbLine
 62
7
  6
BYLAYER
 10
16.983298637
 20
22.5957851875
 11
16.8081518083
 21
22.5957851875
  0
LINE
  5
2FF
100
AcDbEntity
  8
00_COMPONENTS_11
100
AcDbLine
 62
7
  6
BYLAYER
 10
32.2876586849
 20
22.6142217497
 11
35.3314968744
 21
22.6142508532
  0
LINE
  5
300
100
AcDbEntity
  8
00_COMPONENTS_11
100
AcDbLine
 62
7
  6
BYLAYER
 10
4.531487708
 20
22.6142503204
 11
7.5754378059
 21
22.6142503204
  0
LINE
  5
301
100
AcDbEntity
  8
00_COMPONENTS_6
100
AcDbLine
 62
7
  6
BYLAYER
 10
14.4179837337
 20
21.896671424
 11
14.396624151
 21
21.897420106
  0
LINE
  5
302
100
AcDbEntity
  8
00_COMPONENTS_12
100
AcDbLine
 62
7
  6
BYLAYER
 10
30.9814347195
 20
8.1964718554
 11
31.2814021037
 21
7.8964392467
  0
LWPOLYLINE
  5
303
100
AcDbEntity
  8
00_COMPONENTS_12
100
AcDbPolyline
 62
7
  6
BYLAYER
 90
3
 70
0
 10
19.2644296824
 20
11.4434688601
 10
19.2386352603
 20
11.5362976168
 10
19.167396821
 20
11.6106807644
  0
LINE
  5
304
100
AcDbEntity
  8
00_COMPONENTS_12
100
AcDbLine
 62
7
  6
BYLAYER
 10
16.6990582995
 20
31.5966403338
 11
16.7376117588
 21
29.3879141306
  0
LINE
  5
305
100
AcDbEntity
  8
00_COMPONENTS_12
100
AcDbLine
 62
7
  6
BYLAYER
 10
15.5316032346
 20
13.7776214226
 11
15.5316032346
 21
12.5913088954
  0
LINE
  5
306
100
AcDbEntity
  8
00_COMPONENTS_12
100
AcDbLine
 62
7
  6
BYLAYER
 10
15.5316032346
 20
26.415659245
 11
15.5316032346
 21
31.5966403338
  0
LINE
  5
307
100
AcDbEntity
  8
00_COMPONENTS_12
100
AcDbLine
 62
7
  6
BYLAYER
 10
15.9009979542
 20
32.0966403338
 11
15.9009979521
 21
32.5966403338
  0
LINE
  5
308
100
AcDbEntity
  8
00_COMPONENTS_21
100
AcDbLine
 62
7
  6
BYLAYER
 10
17.2341825825
 20
37.9338510127
 11
17.2084930168
 21
37.640219331
  0
LINE
  5
309
100
AcDbEntity
  8
00_COMPONENTS_11
100
AcDbLine
 62
7
  6
BYLAYER
 10
7.1841047492
 20
18.5817208085
 11
7.5119728581
 21
18.9720168215
  0
LINE
  5
30A
100
AcDbEntity
  8
00_COMPONENTS_11
100
AcDbLine
 62
7
  6
BYLAYER
 10
7.4994917376
 20
18.2569739066
 11
7.1876326046
 21
17.8857350672
  0
LINE
  5
30B
100
AcDbEntity
  8
00_COMPONENTS_6
100
AcDbLine
 62
7
  6
BYLAYER
 10
20.0874915297
 20
23.6582484879
 11
19.7102633655
 21
23.6547806439
  0
LINE
  5
30C
100
AcDbEntity
  8
00_COMPONENTS_12
100
AcDbLine
 62
7
  6
BYLAYER
 10
5.0316032346
 20
22.7294158081
 11
8.1816032346
 21
22.7294158081
  0
LINE
  5
30D
100
AcDbEntity
  8
00_COMPONENTS_12
100
AcDbLine
 62
7
  6
BYLAYER
 10
31.6816032346
 20
22.7294158081
 11
34.8316032346
 21
22.7294158081
  0
LINE
  5
30E
100
AcDbEntity
  8
00_COMPONENTS_11
100
AcDbLine
 62
7
  6
BYLAYER
 10
34.8316032346
 20
22.7940773289
 11
32.1316032346
 21
22.7940772002
  0
LINE
  5
30F
100
AcDbEntity
  8
00_COMPONENTS_11
100
AcDbLine
 62
7
  6
BYLAYER
 10
7.7316032346
 20
22.794077509
 11
5.0316032346
 21
22.7940774446
  0
LINE
  5
310
100
AcDbEntity
  8
00_COMPONENTS_12
100
AcDbLine
 62
7
  6
BYLAYER
 10
6.2316032346
 20
22.7996296506
 11
8.1816032346
 21
22.7996296506
  0
LINE
  5
311
100
AcDbEntity
  8
00_COMPONENTS_12
100
AcDbLine
 62
7
  6
BYLAYER
 10
31.6816032346
 20
22.7996296506
 11
33.6316032346
 21
22.7996296506
  0
LINE
  5
312
100
AcDbEntity
  8
00_COMPONENTS_12
100
AcDbLine
 62
7
  6
BYLAYER
 10
33.6316032346
 20
22.8804921169
 11
31.6816032346
 21
22.8804921169
  0
LINE
  5
313
100
AcDbEntity
  8
00_COMPONENTS_12
100
AcDbLine
 62
7
  6
BYLAYER
 10
8.1816032346
 20
22.8804921169
 11
6.2316032346
 21
22.8804921169
  0
LINE
  5
314
100
AcDbEntity
  8
00_COMPONENTS_12
100
AcDbLine
 62
7
  6
BYLAYER
 10
4.5316191822
 20
22.966461681
 11
8.1816032346
 21
22.966461681
  0
LINE
  5
315
100
AcDbEntity
  8
00_COMPONENTS_12
100
AcDbLine
 62
7
  6
BYLAYER
 10
31.6816032346
 20
22.9664616811
 11
35.3315872869
 21
22.966461681
  0
LINE
  5
316
100
AcDbEntity
  8
00_COMPONENTS_12
100
AcDbLine
 62
7
  6
BYLAYER
 10
8.1816032346
 20
22.989756605
 11
6.8912399064
 21
22.989756605
  0
LINE
  5
317
100
AcDbEntity
  8
00_COMPONENTS_12
100
AcDbLine
 62
7
  6
BYLAYER
 10
31.6816032346
 20
22.989756605
 11
32.9719665627
 21
22.989756605
  0
LINE
  5
318
100
AcDbEntity
  8
00_COMPONENTS_12
100
AcDbLine
 62
7
  6
BYLAYER
 10
5.0316032346
 20
23.049766235
 11
8.1816032346
 21
23.049766235
  0
LINE
  5
319
100
AcDbEntity
  8
00_COMPONENTS_12
100
AcDbLine
 62
7
  6
BYLAYER
 10
31.6816032346
 20
23.049766235
 11
34.8316032346
 21
23.049766235
  0
LINE
  5
31A
100
AcDbEntity
  8
00_COMPONENTS_11
100
AcDbLine
 62
7
  6
BYLAYER
 10
6.4316032346
 20
23.0584246824
 11
7.0316015159
 21
23.0584246823
  0
LINE
  5
31B
100
AcDbEntity
  8
00_COMPONENTS_11
100
AcDbLine
 62
7
  6
BYLAYER
 10
32.8316049115
 20
23.0584246827
 11
33.4316032346
 21
23.0584246824
  0
LINE
  5
31C
100
AcDbEntity
  8
00_COMPONENTS_12
100
AcDbLine
 62
7
  6
BYLAYER
 10
33.6316032346
 20
23.3675864168
 11
31.6816032346
 21
23.3675864168
  0
LINE
  5
31D
100
AcDbEntity
  8
00_COMPONENTS_12
100
AcDbLine
 62
7
  6
BYLAYER
 10
8.1816032346
 20
23.3675864168
 11
6.2316032346
 21
23.3675864168
  0
LINE
  5
31E
100
AcDbEntity
  8
00_COMPONENTS_12
100
AcDbLine
 62
7
  6
BYLAYER
 10
6.2316032346
 20
23.3889305833
 11
8.1816032346
 21
23.3889305833
  0
LINE
  5
31F
100
AcDbEntity
  8
00_COMPONENTS_12
100
AcDbLine
 62
7
  6
BYLAYER
 10
31.6816032346
 20
23.3889305833
 11
33.6316032346
 21
23.3889305833
  0
LINE
  5
320
100
AcDbEntity
  8
00_COMPONENTS_12
100
AcDbLine
 62
7
  6
BYLAYER
 10
33.6316032346
 20
23.4359580964
 11
31.6816032346
 21
23.4359580964
  0
LINE
  5
321
100
AcDbEntity
  8
00_COMPONENTS_12
100
AcDbLine
 62
7
  6
BYLAYER
 10
8.1816032346
 20
23.4359580964
 11
6.2316032346
 21
23.4359580964
  0
LINE
  5
322
100
AcDbEntity
  8
00_COMPONENTS_6
100
AcDbLine
 62
7
  6
BYLAYER
 10
18.5844786596
 20
23.6375759446
 11
18.3824098997
 21
23.6375759446
  0
LINE
  5
323
100
AcDbEntity
  8
00_COMPONENTS_6
100
AcDbLine
 62
7
  6
BYLAYER
 10
21.2787278095
 20
23.6375759446
 11
21.480796573
 21
23.6375759446
  0
LWPOLYLINE
  5
324
100
AcDbEntity
  8
00_COMPONENTS_12
100
AcDbPolyline
 62
7
  6
BYLAYER
 90
9
 70
0
 10
6.2316035305
 20
23.4366524317
 10
6.1193197491
 20
23.4381820361
 10
6.0168464407
 20
23.4425228634
 10
5.9306150239
 20
23.4489445786
 10
5.8629881311
 20
23.4566801819
 10
5.8157930347
 20
23.4647176555
 10
5.7913893948
 20
23.4710134809
 10
5.7954159669
 20
23.4682290434
 10
5.8228673841
 20
23.4352109399
  0
LINE
  5
325
100
AcDbEntity
  8
00_COMPONENTS_6
100
AcDbLine
 62
7
  6
BYLAYER
 10
23.029821629
 20
14.7262546052
 11
22.8799078321
 21
14.9861119854
  0
LINE
  5
326
100
AcDbEntity
  8
00_COMPONENTS_6
100
AcDbLine
 62
7
  6
BYLAYER
 10
16.983298637
 20
25.2071686822
 11
16.8333848223
 21
25.4670260933
  0
LINE
  5
327
100
AcDbEntity
  8
00_COMPONENTS_12
100
AcDbLine
 62
7
  6
BYLAYER
 10
17.2324961039
 20
29.4740462633
 11
17.2425752489
 21
28.8966669295
  0
LINE
  5
328
100
AcDbEntity
  8
00_COMPONENTS_12
100
AcDbLine
 62
7
  6
BYLAYER
 10
17.2172683413
 20
30.4521011234
 11
17.2343402725
 21
29.4740499497
  0
LINE
  5
329
100
AcDbEntity
  8
00_COMPONENTS_12
100
AcDbLine
 62
7
  6
BYLAYER
 10
17.1816793986
 20
32.5966403338
 11
17.2191119833
 21
30.4521289914
  0
LINE
  5
32A
100
AcDbEntity
  8
00_COMPONENTS_6
100
AcDbLine
 62
7
  6
BYLAYER
 10
16.8081518083
 20
14.9861119854
 11
16.8081518083
 21
17.5974954801
  0
LINE
  5
32B
100
AcDbEntity
  8
00_COMPONENTS_6
100
AcDbLine
 62
7
  6
BYLAYER
 10
16.8081518083
 20
22.5957851875
 11
16.8081518083
 21
25.2071686822
  0
LINE
  5
32C
100
AcDbEntity
  8
00_COMPONENTS_6
100
AcDbLine
 62
7
  6
BYLAYER
 10
16.983298637
 20
14.9861119854
 11
16.9832983656
 21
17.5975057553
  0
LINE
  5
32D
100
AcDbEntity
  8
00_COMPONENTS_6
100
AcDbLine
 62
7
  6
BYLAYER
 10
16.983276536
 20
22.5957591142
 11
16.9832947265
 21
25.2071664262
  0
LINE
  5
32E
100
AcDbEntity
  8
00_COMPONENTS_12
100
AcDbLine
 62
7
  6
BYLAYER
 10
17.0821791308
 20
27.2497864948
 11
17.0821791308
 21
27.4966403338
  0
LINE
  5
32F
100
AcDbEntity
  8
00_COMPONENTS_12
100
AcDbLine
 62
7
  6
BYLAYER
 10
17.1316032346
 20
33.8966403338
 11
17.1316032346
 21
32.5966403338
  0
LINE
  5
330
100
AcDbEntity
  8
00_COMPONENTS_12
100
AcDbLine
 62
7
  6
BYLAYER
 10
17.1323888803
 20
32.5966403338
 11
17.1323888803
 21
33.8966403338
  0
LINE
  5
331
100
AcDbEntity
  8
00_COMPONENTS_12
100
AcDbLine
 62
7
  6
BYLAYER
 10
17.5321249742
 20
33.8966403338
 11
17.5321249742
 21
31.5966403338
  0
LINE
  5
332
100
AcDbEntity
  8
00_COMPONENTS_12
100
AcDbLine
 62
7
  6
BYLAYER
 10
17.5321249742
 20
30.5966403338
 11
17.5321249742
 21
30.2966403338
  0
LINE
  5
333
100
AcDbEntity
  8
00_COMPONENTS_12
100
AcDbLine
 62
7
  6
BYLAYER
 10
17.6316032346
 20
32.5966403338
 11
17.6316032346
 21
33.8966403338
  0
LINE
  5
334
100
AcDbEntity
  8
00_COMPONENTS_12
100
AcDbLine
 62
7
  6
BYLAYER
 10
17.6820923654
 20
30.2966403338
 11
17.6820923654
 21
28.4966403338
  0
LINE
  5
335
100
AcDbEntity
  8
00_COMPONENTS_12
100
AcDbLine
 62
7
  6
BYLAYER
 10
18.0320162784
 20
31.5966403338
 11
18.0320162784
 21
30.9966403338
  0
LINE
  5
336
100
AcDbEntity
  8
00_COMPONENTS_12
100
AcDbLine
 62
7
  6
BYLAYER
 10
18.0320162784
 20
28.4966403338
 11
18.0320162784
 21
27.8966403338
  0
LINE
  5
337
100
AcDbEntity
  8
00_COMPONENTS_12
100
AcDbLine
 62
7
  6
BYLAYER
 10
18.0601065073
 20
8.7966403338
 11
18.0601065073
 21
10.9966403338
  0
LINE
  5
338
100
AcDbEntity
  8
00_COMPONENTS_6
100
AcDbLine
 62
7
  6
BYLAYER
 10
18.382410227
 20
25.7896185548
 11
18.382410305
 21
23.6375768081
  0
LINE
  5
339
100
AcDbEntity
  8
00_COMPONENTS_6
100
AcDbLine
 62
7
  6
BYLAYER
 10
18.3824111456
 20
16.5557041763
 11
18.3824100326
 21
14.4036621657
  0
LINE
  5
33A
100
AcDbEntity
  8
00_COMPONENTS_12
100
AcDbLine
 62
7
  6
BYLAYER
 10
10.5035776856
 20
15.6265596282
 11
9.2146081945
 21
13.3939989803
  0
LINE
  5
33B
100
AcDbEntity
  8
00_COMPONENTS_11
100
AcDbLine
 62
7
  6
BYLAYER
 10
5.3316032346
 20
24.8072878537
 11
6.4316032346
 21
24.8072878537
  0
LINE
  5
33C
100
AcDbEntity
  8
00_COMPONENTS_11
100
AcDbLine
 62
7
  6
BYLAYER
 10
7.0468649628
 20
24.8072878537
 11
7.1151142449
 21
24.8072878537
  0
LINE
  5
33D
100
AcDbEntity
  8
00_COMPONENTS_11
100
AcDbLine
 62
7
  6
BYLAYER
 10
32.7480922243
 20
24.8072878537
 11
32.8163415008
 21
24.8072878537
  0
LINE
  5
33E
100
AcDbEntity
  8
00_COMPONENTS_11
100
AcDbLine
 62
7
  6
BYLAYER
 10
33.4316032346
 20
24.8072878537
 11
34.5316032346
 21
24.8072878537
  0
LINE
  5
33F
100
AcDbEntity
  8
00_COMPONENTS_11
100
AcDbLine
 62
7
  6
BYLAYER
 10
7.1571708872
 20
24.9990321497
 11
7.7316032346
 21
24.9990321497
  0
LINE
  5
340
100
AcDbEntity
  8
00_COMPONENTS_11
100
AcDbLine
 62
7
  6
BYLAYER
 10
32.1316032346
 20
24.9990321359
 11
32.7060355819
 21
24.9990321361
  0
LINE
  5
341
100
AcDbEntity
  8
00_COMPONENTS_11
100
AcDbLine
 62
7
  6
BYLAYER
 10
32.8140113847
 20
25.0632932927
 11
32.1316032346
 21
25.063293284
  0
LINE
  5
342
100
AcDbEntity
  8
00_COMPONENTS_11
100
AcDbLine
 62
7
  6
BYLAYER
 10
7.7316032346
 20
25.0632932978
 11
7.0491950844
 21
25.0632932955
  0
LINE
  5
343
100
AcDbEntity
  8
00_COMPONENTS_6
100
AcDbLine
 62
7
  6
BYLAYER
 10
23.055054276
 20
25.2071686822
 11
22.8799078321
 21
25.2071686822
  0
LINE
  5
344
100
AcDbEntity
  8
00_COMPONENTS_6
100
AcDbLine
 62
7
  6
BYLAYER
 10
16.8081518083
 20
25.2071686822
 11
16.983298637
 21
25.2071686822
  0
LINE
  5
345
100
AcDbEntity
  8
00_COMPONENTS_6
100
AcDbLine
 62
7
  6
BYLAYER
 10
21.4807963693
 20
25.7896184648
 11
21.2787278096
 21
25.7896184648
  0
LINE
  5
346
100
AcDbEntity
  8
00_COMPONENTS_6
100
AcDbLine
 62
7
  6
BYLAYER
 10
18.382410227
 20
25.7896184648
 11
18.5844786595
 21
25.7896184648
  0
LINE
  5
347
100
AcDbEntity
  8
00_COMPONENTS_6
100
AcDbLine
 62
7
  6
BYLAYER
 10
18.5026603623
 20
23.3627308603
 11
18.3824032904
 21
23.637610034
  0
LINE
  5
348
100
AcDbEntity
  8
00_COMPONENTS_6
100
AcDbLine
 62
7
  6
BYLAYER
 10
21.3605462388
 20
16.830549866
 11
21.4808027805
 21
16.5556724338
  0
LINE
  5
349
100
AcDbEntity
  8
00_COMPONENTS_6
100
AcDbLine
 62
7
  6
BYLAYER
 10
18.3035841336
 20
26.0790774543
 11
18.3824098961
 21
25.7896184648
  0
LINE
  5
34A
100
AcDbEntity
  8
00_COMPONENTS_6
100
AcDbLine
 62
7
  6
BYLAYER
 10
21.5595787208
 20
14.1141913445
 11
21.480796573
 21
14.4036622028
  0
LINE
  5
34B
100
AcDbEntity
  8
00_COMPONENTS_21
100
AcDbLine
 62
7
  6
BYLAYER
 10
19.3733758118
 20
38.8108329333
 11
19.3816032346
 21
38.4966403338
  0
LINE
  5
34C
100
AcDbEntity
  8
00_COMPONENTS_12
100
AcDbLine
 62
7
  6
BYLAYER
 10
19.026450239
 20
7.8944729147
 11
18.9643174012
 21
11.4540693468
  0
LINE
  5
34D
100
AcDbEntity
  8
00_COMPONENTS_12
100
AcDbLine
 62
7
  6
BYLAYER
 10
19.2644568913
 20
11.4434517639
 11
19.3263667151
 21
7.8966403338
  0
LINE
  5
34E
100
AcDbEntity
  8
00_COMPONENTS_6
100
AcDbLine
 62
7
  6
BYLAYER
 10
18.5844786595
 20
25.7896184648
 11
18.5844786596
 21
23.6375759446
  0
LINE
  5
34F
100
AcDbEntity
  8
00_COMPONENTS_6
100
AcDbLine
 62
7
  6
BYLAYER
 10
18.5844786596
 20
16.555704723
 11
18.5844786595
 21
14.4036622028
  0
LINE
  5
350
100
AcDbEntity
  8
00_COMPONENTS_10
100
AcDbLine
 62
7
  6
BYLAYER
 10
18.6666200431
 20
21.8466399612
 11
18.6666200431
 21
21.7716403338
  0
LINE
  5
351
100
AcDbEntity
  8
00_COMPONENTS_10
100
AcDbLine
 62
7
  6
BYLAYER
 10
18.6666200431
 20
18.4216403338
 11
18.6666200431
 21
18.3466403338
  0
LINE
  5
352
100
AcDbEntity
  8
00_COMPONENTS_12
100
AcDbLine
 62
7
  6
BYLAYER
 10
19.0264124065
 20
7.8966403338
 11
19.0264124065
 21
7.5966403338
  0
LINE
  5
353
100
AcDbEntity
  8
00_COMPONENTS_12
100
AcDbLine
 62
7
  6
BYLAYER
 10
19.3263666554
 20
7.8966403338
 11
19.3263667151
 21
7.5966403338
  0
LINE
  5
354
100
AcDbEntity
  8
00_COMPONENTS_10
100
AcDbLine
 62
7
  6
BYLAYER
 10
19.7119382898
 20
18.3466403338
 11
19.7119382898
 21
18.4216403338
  0
LINE
  5
355
100
AcDbEntity
  8
00_COMPONENTS_10
100
AcDbLine
 62
7
  6
BYLAYER
 10
19.7119382898
 20
21.7716403338
 11
19.7119382898
 21
21.8466399612
  0
LINE
  5
356
100
AcDbEntity
  8
00_COMPONENTS_10
100
AcDbLine
 62
7
  6
BYLAYER
 10
19.7753198747
 20
21.8466399612
 11
19.7753198747
 21
21.7716403338
  0
LINE
  5
357
100
AcDbEntity
  8
00_COMPONENTS_10
100
AcDbLine
 62
7
  6
BYLAYER
 10
19.7753198747
 20
18.4216403338
 11
19.7753198747
 21
18.3466403338
  0
LINE
  5
358
100
AcDbEntity
  8
00_COMPONENTS_10
100
AcDbLine
 62
7
  6
BYLAYER
 10
20.0878865945
 20
18.3466403338
 11
20.0878865945
 21
18.4216403338
  0
LINE
  5
359
100
AcDbEntity
  8
00_COMPONENTS_10
100
AcDbLine
 62
7
  6
BYLAYER
 10
20.0878865945
 20
21.7716403338
 11
20.0878865945
 21
21.8466399612
  0
LINE
  5
35A
100
AcDbEntity
  8
00_COMPONENTS_10
100
AcDbLine
 62
7
  6
BYLAYER
 10
20.1512681793
 20
21.8466399612
 11
20.1512681793
 21
21.7716403338
  0
LINE
  5
35B
100
AcDbEntity
  8
00_COMPONENTS_10
100
AcDbLine
 62
7
  6
BYLAYER
 10
20.1512681793
 20
18.4216403338
 11
20.1512681793
 21
18.3466403338
  0
LINE
  5
35C
100
AcDbEntity
  8
00_COMPONENTS_12
100
AcDbLine
 62
7
  6
BYLAYER
 10
19.032421157
 20
7.8966403338
 11
19.0324042112
 21
7.5966403338
  0
LINE
  5
35D
100
AcDbEntity
  8
00_COMPONENTS_9
100
AcDbLine
 62
7
  6
BYLAYER
 10
14.3315805904
 20
21.7716403338
 11
14.1315797817
 21
21.5716403338
  0
LINE
  5
35E
100
AcDbEntity
  8
00_COMPONENTS_12
100
AcDbLine
 62
7
  6
BYLAYER
 10
11.4516014874
 20
26.3988793087
 11
12.4116049817
 21
26.3988793087
  0
LINE
  5
35F
100
AcDbEntity
  8
00_COMPONENTS_12
100
AcDbLine
 62
7
  6
BYLAYER
 10
27.4516014874
 20
26.3988793087
 11
28.4116049817
 21
26.3988793087
  0
LINE
  5
360
100
AcDbEntity
  8
00_COMPONENTS_12
100
AcDbLine
 62
7
  6
BYLAYER
 10
5.0173922249
 20
27.0966403338
 11
10.9525639132
 21
27.0966403338
  0
LINE
  5
361
100
AcDbEntity
  8
00_COMPONENTS_12
100
AcDbLine
 62
7
  6
BYLAYER
 10
28.9106425559
 20
27.0966403338
 11
34.8458142442
 21
27.0966403338
  0
LINE
  5
362
100
AcDbEntity
  8
00_COMPONENTS_12
100
AcDbLine
 62
7
  6
BYLAYER
 10
22.7810275269
 20
27.4966403338
 11
22.0580437622
 21
27.4966403338
  0
LINE
  5
363
100
AcDbEntity
  8
00_COMPONENTS_12
100
AcDbLine
 62
7
  6
BYLAYER
 10
17.8051627069
 20
27.4966403338
 11
17.0821789422
 21
27.4966403338
  0
LINE
  5
364
100
AcDbEntity
  8
00_COMPONENTS_9
100
AcDbLine
 62
7
  6
BYLAYER
 10
25.5316258787
 20
21.7716403338
 11
25.7316266874
 21
21.5716403338
  0
LINE
  5
365
100
AcDbEntity
  8
00_COMPONENTS_12
100
AcDbLine
 62
7
  6
BYLAYER
 10
20.8766826852
 20
11.6493434536
 11
20.8989198508
 21
11.4505835121
  0
LINE
  5
366
100
AcDbEntity
  8
00_COMPONENTS_12
100
AcDbLine
 62
7
  6
BYLAYER
 10
20.5368396809
 20
7.8966403338
 11
20.5368396809
 21
7.5966403338
  0
LINE
  5
367
100
AcDbEntity
  8
00_COMPONENTS_12
100
AcDbLine
 62
7
  6
BYLAYER
 10
20.8367940626
 20
7.8966403338
 11
20.8367940626
 21
7.5966403338
  0
LINE
  5
368
100
AcDbEntity
  8
00_COMPONENTS_10
100
AcDbLine
 62
7
  6
BYLAYER
 10
21.196586426
 20
21.8466399612
 11
21.196586426
 21
21.7716403338
  0
LINE
  5
369
100
AcDbEntity
  8
00_COMPONENTS_10
100
AcDbLine
 62
7
  6
BYLAYER
 10
21.196586426
 20
18.4216403338
 11
21.196586426
 21
18.3466403338
  0
LINE
  5
36A
100
AcDbEntity
  8
00_COMPONENTS_6
100
AcDbLine
 62
7
  6
BYLAYER
 10
21.2787278095
 20
14.4036622028
 11
21.2787278095
 21
16.555704723
  0
LINE
  5
36B
100
AcDbEntity
  8
00_COMPONENTS_6
100
AcDbLine
 62
7
  6
BYLAYER
 10
21.2787278095
 20
23.6375759446
 11
21.2787278096
 21
25.7896184648
  0
LINE
  5
36C
100
AcDbEntity
  8
00_COMPONENTS_6
100
AcDbLine
 62
7
  6
BYLAYER
 10
21.4807953235
 20
23.6375764913
 11
21.4807963693
 21
25.7896185202
  0
LINE
  5
36D
100
AcDbEntity
  8
00_COMPONENTS_6
100
AcDbLine
 62
7
  6
BYLAYER
 10
21.4807964339
 20
14.4036621649
 11
21.4807965733
 21
16.5557038595
  0
LINE
  5
36E
100
AcDbEntity
  8
00_COMPONENTS_12
100
AcDbLine
 62
7
  6
BYLAYER
 10
21.8030999618
 20
8.7966403338
 11
21.8030999618
 21
10.9966403338
  0
LINE
  5
36F
100
AcDbEntity
  8
00_COMPONENTS_12
100
AcDbLine
 62
7
  6
BYLAYER
 10
21.8311901907
 20
31.5966403338
 11
21.8311901907
 21
30.9966403338
  0
LINE
  5
370
100
AcDbEntity
  8
00_COMPONENTS_12
100
AcDbLine
 62
7
  6
BYLAYER
 10
21.8311901907
 20
28.4966403338
 11
21.8311901907
 21
27.8966403338
  0
LINE
  5
371
100
AcDbEntity
  8
00_COMPONENTS_12
100
AcDbLine
 62
7
  6
BYLAYER
 10
20.830785031
 20
7.8966403338
 11
20.830683188
 21
7.5966403338
  0
LINE
  5
372
100
AcDbEntity
  8
00_COMPONENTS_12
100
AcDbLine
 62
7
  6
BYLAYER
 10
20.5987496216
 20
11.4434592499
 11
20.5368017652
 21
7.8944689312
  0
LINE
  5
373
100
AcDbEntity
  8
00_COMPONENTS_12
100
AcDbLine
 62
7
  6
BYLAYER
 10
20.8367940626
 20
7.8914046119
 11
20.8988891199
 21
11.4540710653
  0
LINE
  5
374
100
AcDbEntity
  8
00_COMPONENTS_21
100
AcDbLine
 62
7
  6
BYLAYER
 10
20.4816032346
 20
38.4966403338
 11
20.4908662238
 21
38.85037962
  0
LINE
  5
375
100
AcDbEntity
  8
00_COMPONENTS_12
100
AcDbLine
 62
7
  6
BYLAYER
 10
18.9642866175
 20
11.4505835122
 11
18.9865237832
 21
11.6493434537
  0
LINE
  5
376
100
AcDbEntity
  8
00_COMPONENTS_12
100
AcDbLine
 62
7
  6
BYLAYER
 10
18.0320162784
 20
27.8966403338
 11
21.8311901907
 21
27.8966403338
  0
LINE
  5
377
100
AcDbEntity
  8
00_COMPONENTS_12
100
AcDbLine
 62
7
  6
BYLAYER
 10
33.4313724524
 20
27.9594647585
 11
6.4318340185
 21
27.9594647585
  0
LINE
  5
378
100
AcDbEntity
  8
00_COMPONENTS_20
100
AcDbLine
 62
7
  6
BYLAYER
 10
34.1788337377
 20
28.0966403338
 11
32.1316032346
 21
28.0966403338
  0
LINE
  5
379
100
AcDbEntity
  8
00_COMPONENTS_3
100
AcDbLine
 62
7
  6
BYLAYER
 10
7.7316032346
 20
28.0966403338
 11
5.6843727314
 21
28.0966403338
  0
LINE
  5
37A
100
AcDbEntity
  8
00_COMPONENTS_12
100
AcDbLine
 62
7
  6
BYLAYER
 10
17.6820923654
 20
28.4966403338
 11
22.1811141037
 21
28.4966403338
  0
LINE
  5
37B
100
AcDbEntity
  8
00_COMPONENTS_12
100
AcDbLine
 62
7
  6
BYLAYER
 10
17.2375356063
 20
28.8966403338
 11
22.6307099209
 21
28.896635928
  0
LWPOLYLINE
  5
37C
100
AcDbEntity
  8
00_COMPONENTS
100
AcDbPolyline
 62
7
  6
BYLAYER
 90
11
 70
0
 10
21.6980446411
 20
27.821216311
 10
22.5055829625
 20
27.6953047171
 10
24.8236693743
 20
26.5302423299
 10
26.6771902025
 20
24.681910103
 10
27.7957256821
 20
22.4636705652
 10
28.1643025278
 20
20.0125095583
 10
27.7425074763
 20
17.5683612837
 10
26.6012618791
 20
15.4076543925
 10
24.8026939997
 20
13.6480250027
 10
22.497474057
 20
12.4953970332
 10
21.6819699063
 20
12.3686612129
  0
LINE
  5
37D
100
AcDbEntity
  8
00_COMPONENTS_12
100
AcDbLine
 62
7
  6
BYLAYER
 10
22.1811141037
 20
30.2966403338
 11
22.1811141037
 21
28.4966403338
  0
LINE
  5
37E
100
AcDbEntity
  8
00_COMPONENTS_12
100
AcDbLine
 62
7
  6
BYLAYER
 10
22.2316032346
 20
33.8966403338
 11
22.2316032346
 21
32.5966403338
  0
LINE
  5
37F
100
AcDbEntity
  8
00_COMPONENTS_12
100
AcDbLine
 62
7
  6
BYLAYER
 10
22.3310814949
 20
33.8966403338
 11
22.3310814949
 21
31.5966403338
  0
LINE
  5
380
100
AcDbEntity
  8
00_COMPONENTS_12
100
AcDbLine
 62
7
  6
BYLAYER
 10
22.3310814949
 20
30.5966403338
 11
22.3310814949
 21
30.2966403338
  0
LINE
  5
381
100
AcDbEntity
  8
00_COMPONENTS_12
100
AcDbLine
 62
7
  6
BYLAYER
 10
22.6307099209
 20
28.8966359402
 11
22.6307099209
 21
29.4740202146
  0
LINE
  5
382
100
AcDbEntity
  8
00_COMPONENTS_12
100
AcDbLine
 62
7
  6
BYLAYER
 10
22.7308175888
 20
33.8966403338
 11
22.7308175888
 21
32.5966403338
  0
LINE
  5
383
100
AcDbEntity
  8
00_COMPONENTS_12
100
AcDbLine
 62
7
  6
BYLAYER
 10
22.7316032346
 20
32.5966403338
 11
22.7316032346
 21
33.8966403338
  0
LINE
  5
384
100
AcDbEntity
  8
00_COMPONENTS_12
100
AcDbLine
 62
7
  6
BYLAYER
 10
22.7810273383
 20
27.2497864948
 11
22.7810273383
 21
27.4966403338
  0
LINE
  5
385
100
AcDbEntity
  8
00_COMPONENTS_6
100
AcDbLine
 62
7
  6
BYLAYER
 10
22.8799084645
 20
25.2071683174
 11
22.8799078319
 21
22.5957745489
  0
LINE
  5
386
100
AcDbEntity
  8
00_COMPONENTS_6
100
AcDbLine
 62
7
  6
BYLAYER
 10
22.8799299331
 20
17.5975215534
 11
22.8799085444
 21
14.9861123963
  0
LINE
  5
387
100
AcDbEntity
  8
00_COMPONENTS_6
100
AcDbLine
 62
7
  6
BYLAYER
 10
23.055064515
 20
14.9861202398
 11
23.0550544694
 21
17.5975525832
  0
LINE
  5
388
100
AcDbEntity
  8
00_COMPONENTS_6
100
AcDbLine
 62
7
  6
BYLAYER
 10
23.0550776665
 20
22.5957284284
 11
23.0550586428
 21
25.2071557617
  0
LINE
  5
389
100
AcDbEntity
  8
00_COMPONENTS_12
100
AcDbLine
 62
7
  6
BYLAYER
 10
22.6307099716
 20
29.4740226577
 11
22.6459381278
 21
30.4521011234
  0
LINE
  5
38A
100
AcDbEntity
  8
00_COMPONENTS_12
100
AcDbLine
 62
7
  6
BYLAYER
 10
22.6459380986
 20
30.452096811
 11
22.6815270705
 21
32.5966403338
  0
LINE
  5
38B
100
AcDbEntity
  8
00_COMPONENTS_12
100
AcDbLine
 62
7
  6
BYLAYER
 10
23.1641481696
 20
31.5966403338
 11
23.1255947103
 21
29.3879141306
  0
LINE
  5
38C
100
AcDbEntity
  8
00_COMPONENTS_6
100
AcDbLine
 62
7
  6
BYLAYER
 10
21.5595691177
 20
26.0790919364
 11
21.480796573
 21
25.7896184648
  0
LINE
  5
38D
100
AcDbEntity
  8
00_COMPONENTS_6
100
AcDbLine
 62
7
  6
BYLAYER
 10
18.3036373514
 20
14.1141887312
 11
18.3824098961
 21
14.4036622028
  0
LINE
  5
38E
100
AcDbEntity
  8
00_COMPONENTS_6
100
AcDbLine
 62
7
  6
BYLAYER
 10
18.5026578698
 20
16.8305512892
 11
18.3824098961
 21
16.555704723
  0
LINE
  5
38F
100
AcDbEntity
  8
00_COMPONENTS_6
100
AcDbLine
 62
7
  6
BYLAYER
 10
21.3605485668
 20
23.3627293927
 11
21.480796573
 21
23.6375759446
  0
LINE
  5
390
100
AcDbEntity
  8
00_COMPONENTS_12
100
AcDbLine
 62
7
  6
BYLAYER
 10
22.6307099209
 20
29.4740202146
 11
17.2324964884
 21
29.4740202193
  0
LINE
  5
391
100
AcDbEntity
  8
00_COMPONENTS_12
100
AcDbLine
 62
7
  6
BYLAYER
 10
17.5321249742
 20
30.2966403338
 11
22.3310814949
 21
30.2966403338
  0
LINE
  5
392
100
AcDbEntity
  8
00_COMPONENTS_12
100
AcDbLine
 62
7
  6
BYLAYER
 10
17.2172683789
 20
30.4520996869
 11
22.6459380902
 21
30.4520996869
  0
LINE
  5
393
100
AcDbEntity
  8
00_COMPONENTS_12
100
AcDbLine
 62
7
  6
BYLAYER
 10
17.5321249742
 20
30.5966403338
 11
22.3310814949
 21
30.5966403338
  0
LINE
  5
394
100
AcDbEntity
  8
00_COMPONENTS_3
100
AcDbLine
 62
7
  6
BYLAYER
 10
5.1992248682
 20
30.7966403338
 11
4.9566509367
 21
30.7966403338
  0
LINE
  5
395
100
AcDbEntity
  8
00_COMPONENTS_20
100
AcDbLine
 62
7
  6
BYLAYER
 10
34.6639816009
 20
30.7966403338
 11
34.9065555324
 21
30.7966403338
  0
LINE
  5
396
100
AcDbEntity
  8
00_COMPONENTS_12
100
AcDbLine
 62
7
  6
BYLAYER
 10
18.0320162784
 20
30.9966403338
 11
21.8311901907
 21
30.9966403338
  0
LINE
  5
397
100
AcDbEntity
  8
00_COMPONENTS_11
100
AcDbLine
 62
7
  6
BYLAYER
 10
32.6755738645
 20
17.8857350672
 11
32.3637147315
 21
18.2569739066
  0
LINE
  5
398
100
AcDbEntity
  8
00_COMPONENTS_12
100
AcDbLine
 62
7
  6
BYLAYER
 10
30.6485982746
 20
13.3939989803
 11
29.3596287835
 21
15.6265596282
  0
LWPOLYLINE
  5
399
100
AcDbEntity
  8
00_COMPONENTS_6
100
AcDbPolyline
 62
7
  6
BYLAYER
 90
5
 70
0
 10
25.7451621752
 20
17.9965873707
 10
25.715749264
 20
18.1258737002
 10
25.6621689631
 20
18.2037578562
 10
25.4971760786
 20
18.2921438822
 10
25.4665823233
 20
18.2958605612
  0
LINE
  5
39A
100
AcDbEntity
  8
00_COMPONENTS_21
100
AcDbLine
 62
7
  6
BYLAYER
 10
22.6261246538
 20
37.9669892381
 11
22.6547134523
 21
37.640219331
  0
LINE
  5
39B
100
AcDbEntity
  8
00_COMPONENTS_12
100
AcDbLine
 62
7
  6
BYLAYER
 10
23.962207831
 20
32.0966403338
 11
23.9622078088
 21
32.5966403338
  0
LINE
  5
39C
100
AcDbEntity
  8
00_COMPONENTS_12
100
AcDbLine
 62
7
  6
BYLAYER
 10
24.3316032346
 20
12.5913088954
 11
24.3316032346
 21
13.7776214226
  0
LINE
  5
39D
100
AcDbEntity
  8
00_COMPONENTS_12
100
AcDbLine
 62
7
  6
BYLAYER
 10
24.3316032346
 20
26.415659245
 11
24.3316032346
 21
31.5966403338
  0
LINE
  5
39E
100
AcDbEntity
  8
00_COMPONENTS_6
100
AcDbLine
 62
7
  6
BYLAYER
 10
24.7559246254
 20
22.196640398
 11
24.755924398
 21
23.8480285943
  0
LINE
  5
39F
100
AcDbEntity
  8
00_COMPONENTS_6
100
AcDbLine
 62
7
  6
BYLAYER
 10
24.755924579
 20
16.3452522758
 11
24.7559246022
 21
17.9966403338
  0
LINE
  5
3A0
100
AcDbEntity
  8
00_COMPONENTS_12
100
AcDbLine
 62
7
  6
BYLAYER
 10
24.9315240652
 20
7.8966403338
 11
24.9315240652
 21
7.5966403338
  0
LINE
  5
3A1
100
AcDbEntity
  8
00_COMPONENTS_6
100
AcDbLine
 62
7
  6
BYLAYER
 10
16.8333848401
 20
14.7262546052
 11
16.983298637
 21
14.9861119854
  0
LINE
  5
3A2
100
AcDbEntity
  8
00_COMPONENTS_6
100
AcDbLine
 62
7
  6
BYLAYER
 10
22.8799078321
 20
25.2071686822
 11
23.029821629
 21
25.4670260624
  0
LINE
  5
3A3
100
AcDbEntity
  8
00_COMPONENTS_12
100
AcDbLine
 62
7
  6
BYLAYER
 10
34.6280845381
 20
31.5770250915
 11
34.0225333168
 21
31.5770250915
  0
LINE
  5
3A4
100
AcDbEntity
  8
00_COMPONENTS_12
100
AcDbLine
 62
7
  6
BYLAYER
 10
31.2406731523
 20
31.5770250915
 11
30.4558129151
 21
31.5770250915
  0
LINE
  5
3A5
100
AcDbEntity
  8
00_COMPONENTS_12
100
AcDbLine
 62
7
  6
BYLAYER
 10
9.407393554
 20
31.5770250915
 11
8.6225333168
 21
31.5770250915
  0
LINE
  5
3A6
100
AcDbEntity
  8
00_COMPONENTS_12
100
AcDbLine
 62
7
  6
BYLAYER
 10
5.8406731523
 20
31.5770250915
 11
5.235121931
 21
31.5770250915
  0
LINE
  5
3A7
100
AcDbEntity
  8
00_COMPONENTS_12
100
AcDbLine
 62
7
  6
BYLAYER
 10
7.0477104473
 20
31.5770250915
 11
7.5416588129
 21
31.5770250915
  0
LINE
  5
3A8
100
AcDbEntity
  8
00_COMPONENTS_12
100
AcDbLine
 62
7
  6
BYLAYER
 10
10.2408858415
 20
31.5770250915
 11
10.9525639132
 21
31.5770250915
  0
LINE
  5
3A9
100
AcDbEntity
  8
00_COMPONENTS_12
100
AcDbLine
 62
7
  6
BYLAYER
 10
28.9106425559
 20
31.5770250915
 11
29.6223206276
 21
31.5770250915
  0
LINE
  5
3AA
100
AcDbEntity
  8
00_COMPONENTS_12
100
AcDbLine
 62
7
  6
BYLAYER
 10
32.3215476562
 20
31.5770250915
 11
32.8154960218
 21
31.5770250915
  0
LINE
  5
3AB
100
AcDbEntity
  8
00_COMPONENTS_12
100
AcDbLine
 62
7
  6
BYLAYER
 10
28.4316032346
 20
31.5966403338
 11
23.1402221886
 21
31.5966403338
  0
LINE
  5
3AC
100
AcDbEntity
  8
00_COMPONENTS_12
100
AcDbLine
 62
7
  6
BYLAYER
 10
16.7229842805
 20
31.5966403338
 11
11.4316031159
 21
31.5966403338
  0
LINE
  5
3AD
100
AcDbEntity
  8
00_COMPONENTS_12
100
AcDbLine
 62
7
  6
BYLAYER
 10
17.5321249742
 20
31.5966403338
 11
22.3310814949
 21
31.5966403338
  0
LINE
  5
3AE
100
AcDbEntity
  8
00_COMPONENTS_3
100
AcDbLine
 62
7
  6
BYLAYER
 10
5.1992248682
 20
32.0466403338
 11
7.7316032346
 21
32.0466403338
  0
LINE
  5
3AF
100
AcDbEntity
  8
00_COMPONENTS_20
100
AcDbLine
 62
7
  6
BYLAYER
 10
32.1316032346
 20
32.0466403338
 11
34.6639816009
 21
32.0466403338
  0
LINE
  5
3B0
100
AcDbEntity
  8
00_COMPONENTS_12
100
AcDbLine
 62
7
  6
BYLAYER
 10
5.0173922252
 20
32.0770250915
 11
9.1896638479
 21
32.0770250915
  0
LINE
  5
3B1
100
AcDbEntity
  8
00_COMPONENTS_12
100
AcDbLine
 62
7
  6
BYLAYER
 10
30.6735426212
 20
32.0770250915
 11
34.8458142442
 21
32.0770250915
  0
LINE
  5
3B2
100
AcDbEntity
  8
00_COMPONENTS_12
100
AcDbLine
 62
7
  6
BYLAYER
 10
34.8316032346
 20
32.0966403338
 11
23.9622077415
 21
32.0966403338
  0
LINE
  5
3B3
100
AcDbEntity
  8
00_COMPONENTS_12
100
AcDbLine
 62
7
  6
BYLAYER
 10
15.9009986381
 20
32.0966403338
 11
5.0316032345
 21
32.0966403338
  0
LINE
  5
3B4
100
AcDbEntity
  8
00_COMPONENTS_3
100
AcDbLine
 62
7
  6
BYLAYER
 10
5.1316032346
 20
32.0966403338
 11
5.2005866345
 21
32.0966403338
  0
LINE
  5
3B5
100
AcDbEntity
  8
00_COMPONENTS_20
100
AcDbLine
 62
7
  6
BYLAYER
 10
34.6626198972
 20
32.0966403338
 11
34.7316032346
 21
32.0966403338
  0
LINE
  5
3B6
100
AcDbEntity
  8
00_COMPONENTS_11
100
AcDbLine
 62
7
  6
BYLAYER
 10
35.3416798745
 20
32.1966403338
 11
34.7316032346
 21
32.1966403338
  0
LINE
  5
3B7
100
AcDbEntity
  8
00_COMPONENTS_11
100
AcDbLine
 62
7
  6
BYLAYER
 10
5.1316032346
 20
32.1966403338
 11
4.5215243497
 21
32.1966403338
  0
LINE
  5
3B8
100
AcDbEntity
  8
00_COMPONENTS_12
100
AcDbLine
 62
7
  6
BYLAYER
 10
5.3425166361
 20
32.1966403338
 11
34.520689833
 21
32.1966403338
  0
LINE
  5
3B9
100
AcDbEntity
  8
00_COMPONENTS_12
100
AcDbLine
 62
7
  6
BYLAYER
 10
4.5315806835
 20
32.5966403338
 11
35.3315675711
 21
32.5966403338
  0
LINE
  5
3BA
100
AcDbEntity
  8
00_COMPONENTS_3
100
AcDbLine
 62
7
  6
BYLAYER
 10
5.1316032346
 20
32.5966403338
 11
7.7316032346
 21
32.5966403338
  0
LINE
  5
3BB
100
AcDbEntity
  8
00_COMPONENTS_20
100
AcDbLine
 62
7
  6
BYLAYER
 10
32.1316032346
 20
32.5966403338
 11
34.7316032346
 21
32.5966403338
  0
LINE
  5
3BC
100
AcDbEntity
  8
00_COMPONENTS_12
100
AcDbLine
 62
7
  6
BYLAYER
 10
5.342462216
 20
32.1931498197
 11
4.5845074373
 21
32.2018585096
  0
LINE
  5
3BD
100
AcDbEntity
  8
00_COMPONENTS_12
100
AcDbLine
 62
7
  6
BYLAYER
 10
35.2786990096
 20
32.1931498254
 11
34.5207434024
 21
32.2018585215
  0
LINE
  5
3BE
100
AcDbEntity
  8
00_COMPONENTS_11
100
AcDbLine
 62
7
  6
BYLAYER
 10
32.351233611
 20
18.9720168215
 11
32.6791017199
 21
18.5817208085
  0
LINE
  5
3BF
100
AcDbEntity
  8
00_COMPONENTS_12
100
AcDbLine
 62
7
  6
BYLAYER
 10
26.9263667151
 20
7.8966403338
 11
26.9316032346
 21
7.5966403338
  0
LINE
  5
3C0
100
AcDbEntity
  8
00_COMPONENTS_6
100
AcDbLine
 62
7
  6
BYLAYER
 10
25.4088288096
 20
18.2966403338
 11
25.4088288096
 21
18.4216403338
  0
LINE
  5
3C1
100
AcDbEntity
  8
00_COMPONENTS_6
100
AcDbLine
 62
7
  6
BYLAYER
 10
25.4088288096
 20
21.7716403338
 11
25.4088288096
 21
21.8966403338
  0
LINE
  5
3C2
100
AcDbEntity
  8
00_COMPONENTS_12
100
AcDbLine
 62
7
  6
BYLAYER
 10
25.631603216
 20
25.2735124067
 11
25.631603216
 21
31.5966407645
  0
LINE
  5
3C3
100
AcDbEntity
  8
00_COMPONENTS_9
100
AcDbLine
 62
7
  6
BYLAYER
 10
25.7316266874
 20
18.6216403338
 11
25.7316266874
 21
21.5716403338
  0
LINE
  5
3C4
100
AcDbEntity
  8
00_COMPONENTS_6
100
AcDbLine
 62
7
  6
BYLAYER
 10
25.9816032346
 20
21.452184505
 11
25.9816032346
 21
18.7410961626
  0
LINE
  5
3C5
100
AcDbEntity
  8
00_COMPONENTS_12
100
AcDbLine
 62
7
  6
BYLAYER
 10
26.1872757651
 20
32.096640331
 11
26.1872676758
 21
32.5966403338
  0
LINE
  5
3C6
100
AcDbEntity
  8
00_COMPONENTS_12
100
AcDbLine
 62
7
  6
BYLAYER
 10
26.2316032346
 20
32.0966403338
 11
26.2316032346
 21
32.5966403338
  0
LINE
  5
3C7
100
AcDbEntity
  8
00_COMPONENTS_12
100
AcDbLine
 62
7
  6
BYLAYER
 10
26.3683842075
 20
32.5966403338
 11
26.3683842075
 21
32.0966403338
  0
LINE
  5
3C8
100
AcDbEntity
  8
00_COMPONENTS_12
100
AcDbLine
 62
7
  6
BYLAYER
 10
8.8817717496
 20
8.1964718554
 11
8.5818043654
 21
7.8964392467
  0
LINE
  5
3C9
100
AcDbEntity
  8
00_COMPONENTS_6
100
AcDbLine
 62
7
  6
BYLAYER
 10
22.8799078321
 20
22.5957851875
 11
22.6510615196
 21
22.4018024883
  0
LINE
  5
3CA
100
AcDbEntity
  8
00_COMPONENTS_6
100
AcDbLine
 62
7
  6
BYLAYER
 10
16.983298637
 20
17.5974954801
 11
17.2121449495
 21
17.7914781793
  0
LINE
  5
3CB
100
AcDbEntity
  8
00_COMPONENTS_12
100
AcDbLine
 62
7
  6
BYLAYER
 10
17.1316032346
 20
33.8966403338
 11
22.7316032346
 21
33.8966403338
  0
LWPOLYLINE
  5
3CC
100
AcDbEntity
  8
00_COMPONENTS_12
100
AcDbPolyline
 62
7
  6
BYLAYER
 90
8
 70
0
 10
33.7960584113
 20
33.0196591309
 10
29.8966399045
 20
33.3938805246
 10
25.930000574
 20
33.6476184518
 10
21.932924428
 20
33.7760824721
 10
17.9302839571
 20
33.776082503
 10
13.9332136302
 20
33.6476188239
 10
9.966576111
 20
33.3938812876
 10
6.0671518698
 20
33.0196595582
  0
LINE
  5
3CD
100
AcDbEntity
  8
00_COMPONENTS_4
100
AcDbLine
 62
7
  6
BYLAYER
 10
27.0316032346
 20
44.9978307538
 11
27.0316032346
 21
43.5966403338
  0
LINE
  5
3CE
100
AcDbEntity
  8
00_COMPONENTS_4
100
AcDbLine
 62
7
  6
BYLAYER
 10
27.1316032346
 20
43.5966403338
 11
27.1316032346
 21
37.0966403338
  0
LINE
  5
3CF
100
AcDbEntity
  8
00_COMPONENTS_4
100
AcDbLine
 62
7
  6
BYLAYER
 10
27.4316032346
 20
37.0966403338
 11
27.4316032346
 21
43.5966403338
  0
LINE
  5
3D0
100
AcDbEntity
  8
00_COMPONENTS_12
100
AcDbLine
 62
7
  6
BYLAYER
 10
27.8317053933
 20
32.0966403338
 11
27.8317053933
 21
7.5966403338
  0
LINE
  5
3D1
100
AcDbEntity
  8
00_COMPONENTS_6
100
AcDbLine
 62
7
  6
BYLAYER
 10
27.8816032346
 20
19.2036114866
 11
27.8816032346
 21
20.9896677205
  0
LINE
  5
3D2
100
AcDbEntity
  8
00_COMPONENTS_12
100
AcDbLine
 62
7
  6
BYLAYER
 10
27.8819401914
 20
8.1966403338
 11
27.8819401914
 21
12.3108491635
  0
LINE
  5
3D3
100
AcDbEntity
  8
00_COMPONENTS_4
100
AcDbLine
 62
7
  6
BYLAYER
 10
28.0316032346
 20
37.0966403338
 11
28.0316032346
 21
43.5966403338
  0
LINE
  5
3D4
100
AcDbEntity
  8
00_COMPONENTS_12
100
AcDbLine
 62
7
  6
BYLAYER
 10
28.4316032346
 20
32.0966403338
 11
28.4316032346
 21
31.5966403338
  0
LINE
  5
3D5
100
AcDbEntity
  8
00_COMPONENTS_12
100
AcDbLine
 62
7
  6
BYLAYER
 10
33.1791613084
 20
32.0966403338
 11
32.8154960218
 21
31.5770250915
  0
LWPOLYLINE
  5
3D6
100
AcDbEntity
  8
00_COMPONENTS_12
100
AcDbPolyline
 62
7
  6
BYLAYER
 90
4
 70
0
 10
6.0674902112
 20
33.0201914861
 10
5.8628654285
 20
32.977309989
 10
5.7288623085
 20
32.9133801053
 10
5.6481328996
 20
32.8242271554
  0
LINE
  5
3D7
100
AcDbEntity
  8
00_COMPONENTS_11
100
AcDbLine
 62
7
  6
BYLAYER
 10
16.5254683508
 20
37.3150782126
 11
16.7653999122
 21
37.2289705784
  0
LINE
  5
3D8
100
AcDbEntity
  8
00_COMPONENTS_11
100
AcDbLine
 62
7
  6
BYLAYER
 10
32.6755738645
 20
17.8857350672
 11
32.9822506328
 21
17.1076190169
  0
LINE
  5
3D9
100
AcDbEntity
  8
00_COMPONENTS_12
100
AcDbLine
 62
7
  6
BYLAYER
 10
29.3596287835
 20
15.6265596282
 11
29.2816032346
 21
20.0966403338
  0
LINE
  5
3DA
100
AcDbEntity
  8
00_COMPONENTS_12
100
AcDbLine
 62
7
  6
BYLAYER
 10
29.5499743384
 20
7.5966411154
 11
29.4113760554
 21
15.5369314313
  0
LINE
  5
3DB
100
AcDbEntity
  8
00_COMPONENTS_12
100
AcDbLine
 62
7
  6
BYLAYER
 10
29.6982029996
 20
27.0966403338
 11
29.6223206276
 21
31.5770250915
  0
LINE
  5
3DC
100
AcDbEntity
  8
00_COMPONENTS_12
100
AcDbLine
 62
7
  6
BYLAYER
 10
29.7148912633
 20
32.0966403338
 11
29.78307822
 21
27.0966403338
  0
LINE
  5
3DD
100
AcDbEntity
  8
00_COMPONENTS_12
100
AcDbLine
 62
7
  6
BYLAYER
 10
28.8316567463
 20
32.0966403338
 11
28.8316567463
 21
7.5966403338
  0
LINE
  5
3DE
100
AcDbEntity
  8
00_COMPONENTS_12
100
AcDbLine
 62
7
  6
BYLAYER
 10
28.8320597567
 20
32.0966403338
 11
28.8320597567
 21
7.5966403338
  0
LINE
  5
3DF
100
AcDbEntity
  8
00_COMPONENTS_12
100
AcDbLine
 62
7
  6
BYLAYER
 10
28.9106425559
 20
31.5770250915
 11
28.9106425559
 21
27.0966403338
  0
LINE
  5
3E0
100
AcDbEntity
  8
00_COMPONENTS_12
100
AcDbLine
 62
7
  6
BYLAYER
 10
29.128372262
 20
31.5770250915
 11
29.128372262
 21
27.0966403338
  0
LINE
  5
3E1
100
AcDbEntity
  8
00_COMPONENTS_12
100
AcDbLine
 62
7
  6
BYLAYER
 10
29.5316032346
 20
21.0966403338
 11
29.5316032346
 21
20.0966403338
  0
LINE
  5
3E2
100
AcDbEntity
  8
00_COMPONENTS_12
100
AcDbLine
 62
7
  6
BYLAYER
 10
29.9316032346
 20
7.5966403338
 11
29.9316032346
 21
32.0966403338
  0
LINE
  5
3E3
100
AcDbEntity
  8
00_COMPONENTS_12
100
AcDbLine
 62
7
  6
BYLAYER
 10
30.0481377165
 20
21.9913043004
 11
30.1406880152
 21
32.5966452575
  0
LINE
  5
3E4
100
AcDbEntity
  8
00_COMPONENTS_12
100
AcDbLine
 62
7
  6
BYLAYER
 10
29.6860966938
 20
32.0966403338
 11
29.6223206276
 21
31.5770250915
  0
LINE
  5
3E5
100
AcDbEntity
  8
00_COMPONENTS_12
100
AcDbLine
 62
7
  6
BYLAYER
 10
30.6735426212
 20
32.0770250915
 11
30.7461191898
 21
32.5966403338
  0
LINE
  5
3E6
100
AcDbEntity
  8
00_COMPONENTS_12
100
AcDbLine
 62
7
  6
BYLAYER
 10
32.8888550337
 20
32.0966403338
 11
32.5977663158
 21
31.5770250915
  0
LINE
  5
3E7
100
AcDbEntity
  8
00_COMPONENTS_12
100
AcDbLine
 62
7
  6
BYLAYER
 10
33.4270515387
 20
27.9595191277
 11
33.4269985138
 21
27.9594647585
  0
LINE
  5
3E8
100
AcDbEntity
  8
00_COMPONENTS_11
100
AcDbLine
 62
7
  6
BYLAYER
 10
22.756439317
 20
37.1485646413
 11
22.4293705873
 21
37.0966403338
  0
LINE
  5
3E9
100
AcDbEntity
  8
00_COMPONENTS
100
AcDbLine
 62
7
  6
BYLAYER
 10
7.7315801171
 20
36.9976403338
 11
32.131626352
 21
36.9976403338
  0
LINE
  5
3EA
100
AcDbEntity
  8
00_COMPONENTS
100
AcDbLine
 62
7
  6
BYLAYER
 10
7.8306032346
 20
37.0966403338
 11
32.0326031958
 21
37.0966403338
  0
LINE
  5
3EB
100
AcDbEntity
  8
00_COMPONENTS_21
100
AcDbLine
 62
7
  6
BYLAYER
 10
22.6547134523
 20
37.640219331
 11
17.2084930168
 21
37.640219331
  0
LINE
  5
3EC
100
AcDbEntity
  8
00_COMPONENTS_11
100
AcDbLine
 62
7
  6
BYLAYER
 10
23.1027984809
 20
37.5042275567
 11
22.6518961842
 21
37.5469233635
  0
LWPOLYLINE
  5
3ED
100
AcDbEntity
  8
00_COMPONENTS_11
100
AcDbPolyline
 62
7
  6
BYLAYER
 90
5
 70
0
 10
17.4367704517
 20
37.0966403338
 10
17.1082329151
 20
37.1486649613
 10
16.8582340251
 20
37.2019136747
 10
16.6900227736
 20
37.2509395715
 10
16.6318842632
 20
37.2740261741
  0
LINE
  5
3EE
100
AcDbEntity
  8
00_COMPONENTS_12
100
AcDbLine
 62
7
  6
BYLAYER
 10
28.9106425559
 20
31.5770250915
 11
28.6195538381
 21
32.0966403338
  0
LINE
  5
3EF
100
AcDbEntity
  8
00_COMPONENTS_12
100
AcDbLine
 62
7
  6
BYLAYER
 10
29.128372262
 20
31.5770250915
 11
28.9098601128
 21
32.0966403338
  0
LINE
  5
3F0
100
AcDbEntity
  8
00_COMPONENTS_12
100
AcDbLine
 62
7
  6
BYLAYER
 10
30.7497915462
 20
7.5966403338
 11
30.5316032345
 21
20.0966403338
  0
LINE
  5
3F1
100
AcDbEntity
  8
00_COMPONENTS_12
100
AcDbLine
 62
7
  6
BYLAYER
 10
31.2316032346
 20
32.0966403338
 11
31.3188785592
 21
27.0966403338
  0
LINE
  5
3F2
100
AcDbEntity
  8
00_COMPONENTS_12
100
AcDbLine
 62
7
  6
BYLAYER
 10
30.4558129151
 20
31.5770250915
 11
30.4558129151
 21
27.0966403338
  0
LINE
  5
3F3
100
AcDbEntity
  8
00_COMPONENTS_12
100
AcDbLine
 62
7
  6
BYLAYER
 10
30.6493504316
 20
32.0966403338
 11
30.6493504316
 21
32.5966403338
  0
LINE
  5
3F4
100
AcDbEntity
  8
00_COMPONENTS_12
100
AcDbLine
 62
7
  6
BYLAYER
 10
30.6735426212
 20
32.0770250915
 11
30.6735426212
 21
27.0966403338
  0
LINE
  5
3F5
100
AcDbEntity
  8
00_COMPONENTS_12
100
AcDbLine
 62
7
  6
BYLAYER
 10
30.9316032848
 20
7.5966403338
 11
30.9316032848
 21
32.0966403338
  0
LINE
  5
3F6
100
AcDbEntity
  8
00_COMPONENTS_12
100
AcDbLine
 62
7
  6
BYLAYER
 10
30.9812662777
 20
8.1966403338
 11
30.9812662777
 21
15.7484653944
  0
LINE
  5
3F7
100
AcDbEntity
  8
00_COMPONENTS
100
AcDbLine
 62
7
  6
BYLAYER
 10
31.2091136906
 20
7.9956403338
 11
31.2091136906
 21
36.9976403338
  0
LINE
  5
3F8
100
AcDbEntity
  8
00_COMPONENTS_12
100
AcDbLine
 62
7
  6
BYLAYER
 10
31.681530109
 20
8.7966403338
 11
31.681530109
 21
22.4492353921
  0
LINE
  5
3F9
100
AcDbEntity
  8
00_COMPONENTS_12
100
AcDbLine
 62
7
  6
BYLAYER
 10
31.6816032346
 20
22.596641348
 11
31.6816032346
 21
23.4363217436
  0
LINE
  5
3FA
100
AcDbEntity
  8
00_COMPONENTS_12
100
AcDbLine
 62
7
  6
BYLAYER
 10
32.3215476562
 20
31.5770250915
 11
32.4029247274
 21
32.0966403338
  0
LINE
  5
3FB
100
AcDbEntity
  8
00_COMPONENTS_12
100
AcDbLine
 62
7
  6
BYLAYER
 10
34.0409728064
 20
32.7935788548
 11
33.7881119651
 21
32.2806228649
  0
LINE
  5
3FC
100
AcDbEntity
  8
00_COMPONENTS_12
100
AcDbLine
 62
7
  6
BYLAYER
 10
30.0481377165
 20
21.9913043004
 11
29.5316032346
 21
21.0966403338
  0
LWPOLYLINE
  5
3FD
100
AcDbEntity
  8
00_COMPONENTS_12
100
AcDbPolyline
 62
7
  6
BYLAYER
 90
3
 70
0
 10
20.6988378822
 20
11.6124376268
 10
20.6254960771
 20
11.5379258937
 10
20.5987822888
 20
11.4434499683
  0
LINE
  5
3FE
100
AcDbEntity
  8
00_COMPONENTS_9
100
AcDbLine
 62
7
  6
BYLAYER
 10
25.5316258787
 20
18.4216403338
 11
25.7316266874
 21
18.6216403338
  0
LWPOLYLINE
  5
3FF
100
AcDbEntity
  8
00_COMPONENTS_12
100
AcDbPolyline
 62
7
  6
BYLAYER
 90
3
 70
0
 10
20.7026026325
 20
11.6146660558
 10
20.6264171436
 20
11.5396714457
 10
20.5987699791
 20
11.4434719492
  0
LINE
  5
400
100
AcDbEntity
  8
00_COMPONENTS_11
100
AcDbLine
 62
7
  6
BYLAYER
 10
5.4642010635
 20
36.7145282098
 11
5.6400977472
 21
36.7359251045
  0
LINE
  5
401
100
AcDbEntity
  8
00_COMPONENTS_11
100
AcDbLine
 62
7
  6
BYLAYER
 10
17.2232939226
 20
37.8093936533
 11
17.0856760233
 21
37.8041911084
  0
LINE
  5
402
100
AcDbEntity
  8
00_COMPONENTS_21
100
AcDbLine
 62
7
  6
BYLAYER
 10
17.9649095205
 20
38.3881789094
 11
21.9868508331
 21
38.3881781156
  0
LINE
  5
403
100
AcDbEntity
  8
00_COMPONENTS_21
100
AcDbLine
 62
7
  6
BYLAYER
 10
20.4816032346
 20
38.4966403338
 11
19.3816032346
 21
38.4966403338
  0
LINE
  5
404
100
AcDbEntity
  8
00_COMPONENTS_21
100
AcDbLine
 62
7
  6
BYLAYER
 10
18.934373741
 20
38.7833043347
 11
19.3741137406
 21
38.7833086407
  0
LINE
  5
405
100
AcDbEntity
  8
00_COMPONENTS_21
100
AcDbLine
 62
7
  6
BYLAYER
 10
20.4890927294
 20
38.7833086386
 11
20.7290544805
 21
38.7833062897
  0
LINE
  5
406
100
AcDbEntity
  8
00_COMPONENTS_11
100
AcDbLine
 62
7
  6
BYLAYER
 10
22.7946469093
 20
37.8033854532
 11
22.6399270257
 21
37.8092281565
  0
LINE
  5
407
100
AcDbEntity
  8
00_COMPONENTS_11
100
AcDbLine
 62
7
  6
BYLAYER
 10
34.2230932944
 20
36.7359269696
 11
34.3989431626
 21
36.7145358283
  0
LINE
  5
408
100
AcDbEntity
  8
00_COMPONENTS_11
100
AcDbLine
 62
7
  6
BYLAYER
 10
28.6267709121
 20
37.2787571927
 11
28.0316032346
 21
37.4478746794
  0
LINE
  5
409
100
AcDbEntity
  8
00_COMPONENTS_12
100
AcDbLine
 62
7
  6
BYLAYER
 10
34.2222336629
 20
23.438022133
 11
34.4750945042
 21
22.8996949757
  0
LINE
  5
40A
100
AcDbEntity
  8
00_COMPONENTS_12
100
AcDbLine
 62
7
  6
BYLAYER
 10
30.3832363464
 20
32.0966403338
 11
30.4558129151
 21
31.5770250915
  0
LINE
  5
40B
100
AcDbEntity
  8
00_COMPONENTS_11
100
AcDbLine
 62
7
  6
BYLAYER
 10
32.3855533277
 20
17.0058415672
 11
32.287658634
 21
22.6142248124
  0
LINE
  5
40C
100
AcDbEntity
  8
00_COMPONENTS_11
100
AcDbLine
 62
7
  6
BYLAYER
 10
32.8088847401
 20
25.0632485532
 11
32.782463822
 21
28.0966403338
  0
LINE
  5
40D
100
AcDbEntity
  8
00_COMPONENTS_11
100
AcDbLine
 62
7
  6
BYLAYER
 10
32.8140107312
 20
25.0743446145
 11
32.8316049115
 21
23.0584246827
  0
LINE
  5
40E
100
AcDbEntity
  8
00_COMPONENTS_12
100
AcDbLine
 62
7
  6
BYLAYER
 10
32.3682976243
 20
32.0966403338
 11
32.4041227584
 21
27.0966403338
  0
LWPOLYLINE
  5
40F
100
AcDbEntity
  8
00_COMPONENTS_11
100
AcDbPolyline
 62
7
  6
BYLAYER
 90
3
 70
0
 10
32.8312065478
 20
28.0966403338
 10
32.834194918
 20
26.2338665814
 10
32.8265491567
 20
23.0583747543
  0
LINE
  5
410
100
AcDbEntity
  8
00_COMPONENTS_12
100
AcDbLine
 62
7
  6
BYLAYER
 10
32.1316032346
 20
22.3466403338
 11
32.1316032346
 21
7.8966403338
  0
LINE
  5
411
100
AcDbEntity
  8
00_COMPONENTS
100
AcDbLine
 62
7
  6
BYLAYER
 10
32.1316032346
 20
7.9956403338
 11
32.1316032346
 21
36.9976403338
  0
LINE
  5
412
100
AcDbEntity
  8
00_COMPONENTS_12
100
AcDbLine
 62
7
  6
BYLAYER
 10
32.4140385775
 20
32.8212887496
 11
32.4140385775
 21
32.0966403338
  0
LINE
  5
413
100
AcDbEntity
  8
00_COMPONENTS_12
100
AcDbLine
 62
7
  6
BYLAYER
 10
32.5977663158
 20
31.5770250915
 11
32.5977663158
 21
27.0966403338
  0
LINE
  5
414
100
AcDbEntity
  8
00_COMPONENTS_12
100
AcDbLine
 62
7
  6
BYLAYER
 10
32.8154960218
 20
31.5770250915
 11
32.8154960218
 21
27.0966403338
  0
LINE
  5
415
100
AcDbEntity
  8
00_COMPONENTS_11
100
AcDbLine
 62
7
  6
BYLAYER
 10
32.8872656673
 20
19.9589878721
 11
32.8872656673
 21
19.2542897282
  0
LINE
  5
416
100
AcDbEntity
  8
00_COMPONENTS_12
100
AcDbLine
 62
7
  6
BYLAYER
 10
32.9719665251
 20
8.7966403338
 11
32.9719665398
 21
22.9897551077
  0
LINE
  5
417
100
AcDbEntity
  8
00_COMPONENTS_12
100
AcDbLine
 62
7
  6
BYLAYER
 10
33.0311467124
 20
32.0966403338
 11
33.0311467124
 21
7.5966403338
  0
LINE
  5
418
100
AcDbEntity
  8
00_COMPONENTS_11
100
AcDbLine
 62
7
  6
BYLAYER
 10
33.0316032346
 20
16.4810948933
 11
33.0316032346
 21
16.9276170219
  0
LINE
  5
419
100
AcDbEntity
  8
00_COMPONENTS_12
100
AcDbLine
 62
7
  6
BYLAYER
 10
33.0316692088
 20
7.5966403338
 11
33.0316692088
 21
32.0966403338
  0
LINE
  5
41A
100
AcDbEntity
  8
00_COMPONENTS_12
100
AcDbLine
 62
7
  6
BYLAYER
 10
33.3368199891
 20
8.7966403338
 11
33.3368199943
 21
23.6217010745
  0
LINE
  5
41B
100
AcDbEntity
  8
00_COMPONENTS_12
100
AcDbLine
 62
7
  6
BYLAYER
 10
33.4269985136
 20
8.7966403338
 11
33.4269985138
 21
27.9594647585
  0
LINE
  5
41C
100
AcDbEntity
  8
00_COMPONENTS_12
100
AcDbLine
 62
7
  6
BYLAYER
 10
33.4313516941
 20
23.9937941465
 11
33.4313516941
 21
8.7966403338
  0
LINE
  5
41D
100
AcDbEntity
  8
00_COMPONENTS_11
100
AcDbLine
 62
7
  6
BYLAYER
 10
33.4316032346
 20
28.0966403338
 11
33.4316032346
 21
23.0584246824
  0
LINE
  5
41E
100
AcDbEntity
  8
00_COMPONENTS_11
100
AcDbLine
 62
7
  6
BYLAYER
 10
32.8088847401
 20
25.0632485532
 11
32.8089564392
 21
25.0743005064
  0
LINE
  5
41F
100
AcDbEntity
  8
00_COMPONENTS_12
100
AcDbLine
 62
7
  6
BYLAYER
 10
32.3215476562
 20
31.5770250915
 11
32.2456652842
 21
27.0966403338
  0
LINE
  5
420
100
AcDbEntity
  8
00_COMPONENTS_12
100
AcDbLine
 62
7
  6
BYLAYER
 10
32.6241072356
 20
32.0966403419
 11
32.5395196771
 21
27.0966403338
  0
LINE
  5
421
100
AcDbEntity
  8
00_COMPONENTS_12
100
AcDbLine
 62
7
  6
BYLAYER
 10
32.5422081103
 20
27.0966403338
 11
32.6292837847
 21
32.0966403338
  0
LINE
  5
422
100
AcDbEntity
  8
00_COMPONENTS_12
100
AcDbLine
 62
7
  6
BYLAYER
 10
33.6745159446
 20
32.3384897636
 11
33.7567454063
 21
32.9288270869
  0
LWPOLYLINE
  5
423
100
AcDbEntity
  8
00_COMPONENTS_12
100
AcDbPolyline
 62
7
  6
BYLAYER
 90
9
 70
0
 10
34.040339065
 20
23.4352108545
 10
34.0677783378
 20
23.4682207341
 10
34.0718256972
 20
23.4710162135
 10
34.0474446608
 20
23.4647240163
 10
34.0002542086
 20
23.4566851257
 10
33.9326123959
 20
23.4489466525
 10
33.8463484607
 20
23.4425223917
 10
33.7438660468
 20
23.438181544
 10
33.6316029391
 20
23.4366524317
  0
LINE
  5
424
100
AcDbEntity
  8
00_COMPONENTS_4
100
AcDbLine
 62
7
  6
BYLAYER
 10
11.8316032346
 20
39.5966403338
 11
12.4316032346
 21
39.5966403338
  0
LINE
  5
425
100
AcDbEntity
  8
00_COMPONENTS_4
100
AcDbLine
 62
7
  6
BYLAYER
 10
27.4316032346
 20
39.5966403338
 11
28.0316032346
 21
39.5966403338
  0
LINE
  5
426
100
AcDbEntity
  8
00_COMPONENTS_12
100
AcDbLine
 62
7
  6
BYLAYER
 10
35.1399062947
 20
32.4962447885
 11
35.1107719696
 21
32.5196505818
  0
LINE
  5
427
100
AcDbEntity
  8
00_COMPONENTS_12
100
AcDbLine
 62
7
  6
BYLAYER
 10
33.7598872778
 20
32.0966404191
 11
33.830412823
 21
27.0966404213
  0
LINE
  5
428
100
AcDbEntity
  8
00_COMPONENTS_12
100
AcDbLine
 62
7
  6
BYLAYER
 10
33.6316032346
 20
22.7996297963
 11
33.6316032346
 21
23.4359580964
  0
LINE
  5
429
100
AcDbEntity
  8
00_COMPONENTS_11
100
AcDbLine
 62
7
  6
BYLAYER
 10
33.7316032346
 20
25.0743440513
 11
33.7316032346
 21
28.0966403338
  0
LINE
  5
42A
100
AcDbEntity
  8
00_COMPONENTS_12
100
AcDbLine
 62
7
  6
BYLAYER
 10
33.7881116136
 20
22.8996950413
 11
33.7881116136
 21
32.2806244911
  0
LINE
  5
42B
100
AcDbEntity
  8
00_COMPONENTS_12
100
AcDbLine
 62
7
  6
BYLAYER
 10
34.0412450119
 20
23.4386033202
 11
34.0412457993
 21
32.7941326509
  0
LINE
  5
42C
100
AcDbEntity
  8
00_COMPONENTS_12
100
AcDbLine
 62
7
  6
BYLAYER
 10
34.221961457
 20
32.7941326509
 11
34.22196067
 21
23.4386033203
  0
LINE
  5
42D
100
AcDbEntity
  8
00_COMPONENTS_12
100
AcDbLine
 62
7
  6
BYLAYER
 10
34.4750948555
 20
32.2806262434
 11
34.4750948555
 21
22.8996948446
  0
LINE
  5
42E
100
AcDbEntity
  8
00_COMPONENTS_11
100
AcDbLine
 62
7
  6
BYLAYER
 10
34.5316032346
 20
28.2575664498
 11
34.5316032346
 21
24.8072877149
  0
LINE
  5
42F
100
AcDbEntity
  8
00_COMPONENTS_12
100
AcDbLine
 62
7
  6
BYLAYER
 10
34.6280845381
 20
31.5770250915
 11
34.6280845381
 21
27.0966403338
  0
LINE
  5
430
100
AcDbEntity
  8
00_COMPONENTS_20
100
AcDbLine
 62
7
  6
BYLAYER
 10
34.6639816009
 20
29.7966403338
 11
34.6639816009
 21
28.5966403338
  0
LINE
  5
431
100
AcDbEntity
  8
00_COMPONENTS_20
100
AcDbLine
 62
7
  6
BYLAYER
 10
34.6639816009
 20
30.7966403338
 11
34.6639816009
 21
32.0466403338
  0
LINE
  5
432
100
AcDbEntity
  8
00_COMPONENTS_20
100
AcDbLine
 62
7
  6
BYLAYER
 10
34.7316032346
 20
32.5966403338
 11
34.7316032346
 21
32.0966403338
  0
LINE
  5
433
100
AcDbEntity
  8
00_COMPONENTS_12
100
AcDbLine
 62
7
  6
BYLAYER
 10
34.8216220546
 20
32.0966403338
 11
34.8216220546
 21
32.5966403054
  0
LINE
  5
434
100
AcDbEntity
  8
00_COMPONENTS_11
100
AcDbLine
 62
7
  6
BYLAYER
 10
34.8316032346
 20
32.1966403338
 11
34.8316032346
 21
30.7966403338
  0
LINE
  5
435
100
AcDbEntity
  8
00_COMPONENTS_11
100
AcDbLine
 62
7
  6
BYLAYER
 10
34.8316032346
 20
30.4876528948
 11
34.8316032346
 21
22.7940773289
  0
LINE
  5
436
100
AcDbEntity
  8
00_COMPONENTS_12
100
AcDbLine
 62
7
  6
BYLAYER
 10
34.8316032346
 20
22.7294158086
 11
34.8316032346
 21
32.5966403338
  0
LINE
  5
437
100
AcDbEntity
  8
00_COMPONENTS_12
100
AcDbLine
 62
7
  6
BYLAYER
 10
34.8458142441
 20
32.0770250915
 11
34.8458142441
 21
27.0966403338
  0
LINE
  5
438
100
AcDbEntity
  8
00_COMPONENTS_12
100
AcDbLine
 62
7
  6
BYLAYER
 10
34.0316032346
 20
32.0966403338
 11
33.9443279099
 21
27.0966403338
  0
LINE
  5
439
100
AcDbEntity
  8
00_COMPONENTS_12
100
AcDbLine
 62
7
  6
BYLAYER
 10
34.9181599001
 20
32.5949870983
 11
34.8458142441
 21
32.0770250915
  0
LINE
  5
43A
100
AcDbEntity
  8
00_COMPONENTS_20
100
AcDbLine
 62
7
  6
BYLAYER
 10
34.9065555324
 20
30.7966403338
 11
34.6639816009
 21
29.7966403338
  0
LINE
  5
43B
100
AcDbEntity
  8
00_COMPONENTS_17
100
AcDbLine
 62
7
  6
BYLAYER
 10
32.5349882602
 20
20.1306399368
 11
32.4906641572
 21
19.9724567091
  0
LINE
  5
43C
100
AcDbEntity
  8
00_COMPONENTS_17
100
AcDbLine
 62
7
  6
BYLAYER
 10
32.3429711646
 20
19.4453720591
 11
32.1316032346
 21
18.6910451991
  0
LINE
  5
43D
100
AcDbEntity
  8
00_COMPONENTS_11
100
AcDbLine
 62
7
  6
BYLAYER
 10
32.6791017199
 20
18.5817208085
 11
32.8350593593
 21
18.9675015101
  0
LINE
  5
43E
100
AcDbEntity
  8
00_COMPONENTS_12
100
AcDbLine
 62
7
  6
BYLAYER
 10
33.7881119633
 20
22.8996949764
 11
34.0409728046
 21
23.4380221338
  0
LINE
  5
43F
100
AcDbEntity
  8
00_COMPONENTS_12
100
AcDbLine
 62
7
  6
BYLAYER
 10
33.7877814422
 20
22.8982239847
 11
34.0403708522
 21
23.4354125437
  0
LWPOLYLINE
  5
440
100
AcDbEntity
  8
00_COMPONENTS_12
100
AcDbPolyline
 62
7
  6
BYLAYER
 90
4
 70
0
 10
24.3315922082
 20
12.8241093889
 10
23.2406462241
 20
12.2672681026
 10
22.0809789441
 20
11.8729549671
 10
20.8766522431
 20
11.6493442624
  0
LINE
  5
441
100
AcDbEntity
  8
00_COMPONENTS_12
100
AcDbLine
 62
7
  6
BYLAYER
 10
20.7787855631
 20
11.6389643414
 11
20.6988378822
 21
11.6124376268
  0
LWPOLYLINE
  5
442
100
AcDbEntity
  8
00_COMPONENTS_12
100
AcDbPolyline
 62
7
  6
BYLAYER
 90
4
 70
0
 10
34.2150802787
 20
32.824213326
 10
34.1343558672
 20
32.9133718579
 10
34.000435951
 20
32.9772781212
 10
33.7957156167
 20
33.0201915563
  0
LINE
  5
443
100
AcDbEntity
  8
00_COMPONENTS_12
100
AcDbLine
 62
7
  6
BYLAYER
 10
34.4646437479
 20
32.3246686557
 11
34.2153203736
 21
32.8242264404
  0
LINE
  5
444
100
AcDbEntity
  8
00_COMPONENTS_12
100
AcDbLine
 62
7
  6
BYLAYER
 10
34.4750945086
 20
32.2806228669
 11
34.2222336672
 21
32.7935788567
  0
LINE
  5
445
100
AcDbEntity
  8
00_COMPONENTS_12
100
AcDbLine
 62
7
  6
BYLAYER
 10
33.815760766
 20
32.9848013804
 11
33.8979865804
 21
32.5506234895
  0
LINE
  5
446
100
AcDbEntity
  8
00_COMPONENTS_12
100
AcDbLine
 62
7
  6
BYLAYER
 10
34.6280845381
 20
31.5770250915
 11
34.5555079694
 21
32.0966403338
  0
LINE
  5
447
100
AcDbEntity
  8
00_COMPONENTS_11
100
AcDbLine
 62
7
  6
BYLAYER
 10
35.2803046697
 20
35.6975603826
 11
35.3416781965
 21
32.1966402529
  0
LINE
  5
448
100
AcDbEntity
  8
00_COMPONENTS_11
100
AcDbLine
 62
7
  6
BYLAYER
 10
35.3316114155
 20
32.1966402327
 11
35.3316032346
 21
16.3815726281
  0
LINE
  5
449
100
AcDbEntity
  8
00_COMPONENTS_12
100
AcDbLine
 62
7
  6
BYLAYER
 10
35.1981549047
 20
7.8966379683
 11
35.3034662293
 21
19.9640400154
  0
LINE
  5
44A
100
AcDbEntity
  8
00_COMPONENTS_12
100
AcDbLine
 62
7
  6
BYLAYER
 10
35.3277261976
 20
22.4692639238
 11
35.312723403
 21
20.7501254196
  0
LINE
  5
44B
100
AcDbEntity
  8
00_COMPONENTS_11
100
AcDbLine
 62
7
  6
BYLAYER
 10
33.0316032345
 20
16.4810948933
 11
32.9748988773
 21
16.3800925955
  0
LINE
  5
44C
100
AcDbEntity
  8
00_COMPONENTS_12
100
AcDbLine
 62
7
  6
BYLAYER
 10
20.7787849784
 20
11.6389643149
 11
20.7026026325
 21
11.6146660558
  0
LINE
  5
44D
100
AcDbEntity
  8
00_COMPONENTS_4
100
AcDbLine
 62
7
  6
BYLAYER
 10
11.8316032346
 20
43.5966403338
 11
12.8316032346
 21
43.5966403338
  0
LINE
  5
44E
100
AcDbEntity
  8
00_COMPONENTS_4
100
AcDbLine
 62
7
  6
BYLAYER
 10
27.0316032346
 20
43.5966403338
 11
28.0316032346
 21
43.5966403338
  0
LWPOLYLINE
  5
44F
100
AcDbEntity
  8
00_COMPONENTS_12
100
AcDbPolyline
 62
7
  6
BYLAYER
 90
3
 70
0
 10
35.2653465422
 20
32.2973167929
 10
35.2181835781
 20
32.4044048622
 10
35.1399062947
 20
32.4962447885
  0
LINE
  5
450
100
AcDbEntity
  8
00_COMPONENTS_12
100
AcDbLine
 62
7
  6
BYLAYER
 10
27.8817717496
 20
8.1964718554
 11
27.5818043654
 21
7.8964392467
  0
ARC
  5
451
100
AcDbEntity
  8
00_COMPONENTS_12
100
AcDbCircle
 62
7
  6
BYLAYER
 10
-2100.3235164882
 20
26.9388137733
 40
2106.7619346512
100
AcDbArc
 50
0.0277548617
 51
0.1431836052
  0
ARC
  5
452
100
AcDbEntity
  8
00_COMPONENTS_12
100
AcDbCircle
 62
7
  6
BYLAYER
 10
-1304.3634565764
 20
33.0170952457
 40
1316.7916932923
100
AcDbArc
 50
359.5029771874
 51
359.712029291
  0
ARC
  5
453
100
AcDbEntity
  8
00_COMPONENTS_12
100
AcDbCircle
 62
7
  6
BYLAYER
 10
-1235.4510593456
 20
32.6708547299
 40
1263.8782267119
100
AcDbArc
 50
359.4299598759
 51
359.7156694465
  0
ARC
  5
454
100
AcDbEntity
  8
00_COMPONENTS_12
100
AcDbCircle
 62
7
  6
BYLAYER
 10
19.7571854249
 20
-87.0938666917
 40
120.5451471436
100
AcDbArc
 50
95.8602818879
 51
97.016677474
  0
ARC
  5
455
100
AcDbEntity
  8
00_COMPONENTS_12
100
AcDbCircle
 62
7
  6
BYLAYER
 10
20.1956332286
 20
-86.2997057782
 40
119.7459722415
100
AcDbArc
 50
82.9794601311
 51
84.1435735258
  0
ARC
  5
456
100
AcDbEntity
  8
00_COMPONENTS_11
100
AcDbCircle
 62
7
  6
BYLAYER
 10
19.9316032345
 20
-81.4834324808
 40
119.0800723756
100
AcDbArc
 50
83.0217511259
 51
84.1379357645
  0
ARC
  5
457
100
AcDbEntity
  8
00_COMPONENTS_11
100
AcDbCircle
 62
7
  6
BYLAYER
 10
19.9316032345
 20
-81.4834324808
 40
119.0800723756
100
AcDbArc
 50
94.0774452288
 51
96.978279046
  0
ARC
  5
458
100
AcDbEntity
  8
00_COMPONENTS_11
100
AcDbCircle
 62
7
  6
BYLAYER
 10
19.9316032345
 20
-81.4834324808
 40
119.0800723756
100
AcDbArc
 50
84.6012289551
 51
85.9225524995
  0
ARC
  5
459
100
AcDbEntity
  8
00_COMPONENTS_11
100
AcDbCircle
 62
7
  6
BYLAYER
 10
19.9316032267
 20
-81.483359917
 40
119.0800002508
100
AcDbArc
 50
88.4987440666
 51
88.6889337904
  0
ARC
  5
45A
100
AcDbEntity
  8
00_COMPONENTS_11
100
AcDbCircle
 62
7
  6
BYLAYER
 10
19.9316032422
 20
-81.4833599054
 40
119.0800002393
100
AcDbArc
 50
91.3110662088
 51
91.5076984949
  0
ARC
  5
45B
100
AcDbEntity
  8
00_COMPONENTS_11
100
AcDbCircle
 62
7
  6
BYLAYER
 10
19.92067681
 20
-81.4495524085
 40
119.0757289455
100
AcDbArc
 50
88.5066861581
 51
88.6848593094
  0
ARC
  5
45C
100
AcDbEntity
  8
00_COMPONENTS_11
100
AcDbCircle
 62
7
  6
BYLAYER
 10
19.9305589094
 20
-81.0607539767
 40
118.6867596194
100
AcDbArc
 50
91.3769069871
 51
91.4971182479
  0
ARC
  5
45D
100
AcDbEntity
  8
00_COMPONENTS_11
100
AcDbCircle
 62
7
  6
BYLAYER
 10
19.412088615
 20
-82.0576642719
 40
118.643913288
100
AcDbArc
 50
95.6515817598
 51
97.0172255639
  0
ARC
  5
45E
100
AcDbEntity
  8
00_COMPONENTS
100
AcDbCircle
 62
7
  6
BYLAYER
 10
7.8306786786
 20
7.9957157778
 40
0.0990754728
100
AcDbArc
 50
180.0436296218
 51
269.9563703782
  0
ARC
  5
45F
100
AcDbEntity
  8
00_COMPONENTS
100
AcDbCircle
 62
7
  6
BYLAYER
 10
32.0325277905
 20
7.9957157778
 40
0.0990754728
100
AcDbArc
 50
270.0436296218
 51
359.9563703782
  0
ARC
  5
460
100
AcDbEntity
  8
00_COMPONENTS_11
100
AcDbCircle
 62
7
  6
BYLAYER
 10
13.5924814713
 20
12.724663327
 40
24.6628263935
100
AcDbArc
 50
94.9958325676
 51
95.2282940195
  0
ARC
  5
461
100
AcDbEntity
  8
00_COMPONENTS_11
100
AcDbCircle
 62
7
  6
BYLAYER
 10
7.1571695312
 20
18.2694197548
 40
6.7296120414
100
AcDbArc
 50
89.999988455
 51
90.9566990696
  0
ARC
  5
462
100
AcDbEntity
  8
00_COMPONENTS_12
100
AcDbCircle
 62
7
  6
BYLAYER
 10
12.7512995599
 20
28.8019350278
 40
21.22731353
100
AcDbArc
 50
345.8751104546
 51
346.9599513533
  0
ARC
  5
463
100
AcDbEntity
  8
00_COMPONENTS_12
100
AcDbCircle
 62
7
  6
BYLAYER
 10
16.408037157
 20
20.5939920427
 40
11.8556669321
100
AcDbArc
 50
179.9872013986
 51
180.191559924
  0
ARC
  5
464
100
AcDbEntity
  8
00_COMPONENTS_6
100
AcDbCircle
 62
7
  6
BYLAYER
 10
16.6868558795
 20
17.9965948955
 40
0.300046042
100
AcDbArc
 50
32.9157701
 51
89.9952801763
  0
ARC
  5
465
100
AcDbEntity
  8
00_COMPONENTS_6
100
AcDbCircle
 62
7
  6
BYLAYER
 10
14.4293453119
 20
18.0279561612
 40
0.2714201027
100
AcDbArc
 50
123.1569780484
 51
131.5386645978
  0
ARC
  5
466
100
AcDbEntity
  8
00_COMPONENTS_6
100
AcDbCircle
 62
7
  6
BYLAYER
 10
14.418226213
 20
18.0539605895
 40
0.2426892903
100
AcDbArc
 50
90.0572477446
 51
94.8883744009
  0
ARC
  5
467
100
AcDbEntity
  8
00_COMPONENTS_6
100
AcDbCircle
 62
7
  6
BYLAYER
 10
14.3154250856
 20
17.9142067842
 40
0.1871019893
100
AcDbArc
 50
153.8592427857
 51
157.0715358835
  0
ARC
  5
468
100
AcDbEntity
  8
00_COMPONENTS_6
100
AcDbCircle
 62
7
  6
BYLAYER
 10
17.2922309037
 20
14.8027172502
 40
0.5175812919
100
AcDbArc
 50
159.2479702203
 51
160.6831847577
  0
ARC
  5
469
100
AcDbEntity
  8
00_COMPONENTS_12
100
AcDbCircle
 62
7
  6
BYLAYER
 10
19.0643714618
 20
11.4398535171
 40
0.200117781
100
AcDbArc
 50
1.0299748228
 51
84.2499441848
  0
ARC
  5
46A
100
AcDbEntity
  8
00_COMPONENTS_6
100
AcDbCircle
 62
7
  6
BYLAYER
 10
19.6820526793
 20
20.0886638161
 40
5.9223677222
100
AcDbArc
 50
158.2058624078
 51
159.150159741
  0
ARC
  5
46B
100
AcDbEntity
  8
00_COMPONENTS_6
100
AcDbCircle
 62
7
  6
BYLAYER
 10
19.6544787817
 20
20.0926506973
 40
5.8923034069
100
AcDbArc
 50
201.7856584782
 51
219.4916174284
  0
ARC
  5
46C
100
AcDbEntity
  8
00_COMPONENTS_6
100
AcDbCircle
 62
7
  6
BYLAYER
 10
19.6946683985
 20
20.0014095032
 40
3.8810393167
100
AcDbArc
 50
138.0516744066
 51
145.553687274
  0
ARC
  5
46D
100
AcDbEntity
  8
00_COMPONENTS_12
100
AcDbCircle
 62
7
  6
BYLAYER
 10
19.9313112233
 20
20.0973728091
 40
8.6973635332
100
AcDbArc
 50
276.3874057947
 51
300.3917712155
  0
ARC
  5
46E
100
AcDbEntity
  8
00_COMPONENTS_12
100
AcDbCircle
 62
7
  6
BYLAYER
 10
19.9305540125
 20
20.0971912704
 40
7.7510751546
100
AcDbArc
 50
304.5969862028
 51
359.9959274747
  0
ARC
  5
46F
100
AcDbEntity
  8
00_COMPONENTS_6
100
AcDbCircle
 62
7
  6
BYLAYER
 10
19.678089934
 20
20.1030681966
 40
5.9181134866
100
AcDbArc
 50
200.8495002028
 51
201.7944737431
  0
ARC
  5
470
100
AcDbEntity
  8
00_COMPONENTS_6
100
AcDbCircle
 62
7
  6
BYLAYER
 10
19.6544181358
 20
20.1006651779
 40
5.8922337933
100
AcDbArc
 50
140.5082742307
 51
158.2144544129
  0
ARC
  5
471
100
AcDbEntity
  8
00_COMPONENTS_6
100
AcDbCircle
 62
7
  6
BYLAYER
 10
19.693125182
 20
20.1902308957
 40
3.8788129693
100
AcDbArc
 50
214.4392014059
 51
221.9453133115
  0
ARC
  5
472
100
AcDbEntity
  8
00_COMPONENTS_6
100
AcDbCircle
 62
7
  6
BYLAYER
 10
19.9316032346
 20
20.0966403338
 40
8.0000188343
100
AcDbArc
 50
186.4092039782
 51
353.5907960218
  0
ARC
  5
473
100
AcDbEntity
  8
00_COMPONENTS_6
100
AcDbCircle
 62
7
  6
BYLAYER
 10
19.9316032346
 20
20.0966403338
 40
8.0000188343
100
AcDbArc
 50
6.4092039782
 51
173.5907960218
  0
ARC
  5
474
100
AcDbEntity
  8
00_COMPONENTS
100
AcDbCircle
 62
7
  6
BYLAYER
 10
19.9316032346
 20
20.0966403338
 40
7.9998867731
100
AcDbArc
 50
353.5973603614
 51
2.2950915787
  0
ARC
  5
475
100
AcDbEntity
  8
00_COMPONENTS
100
AcDbCircle
 62
7
  6
BYLAYER
 10
19.9316032345
 20
20.0966403338
 40
7.9998867731
100
AcDbArc
 50
173.5974435077
 51
186.4026328109
  0
CIRCLE
  5
476
100
AcDbEntity
  8
00_COMPONENTS_12
100
AcDbCircle
 62
7
  6
BYLAYER
 10
19.9316032346
 20
20.0966403338
 40
7.9998865116
  0
ARC
  5
477
100
AcDbEntity
  8
00_COMPONENTS_12
100
AcDbCircle
 62
7
  6
BYLAYER
 10
19.9316032346
 20
20.0966403338
 40
7.7032324786
100
AcDbArc
 50
304.849904579
 51
55.150095421
  0
ARC
  5
478
100
AcDbEntity
  8
00_COMPONENTS_12
100
AcDbCircle
 62
7
  6
BYLAYER
 10
19.9316032346
 20
20.0966403338
 40
7.7032324786
100
AcDbArc
 50
68.2765073821
 51
111.723490913
  0
ARC
  5
479
100
AcDbEntity
  8
00_COMPONENTS_12
100
AcDbCircle
 62
7
  6
BYLAYER
 10
19.9316032346
 20
20.0966403338
 40
7.7032324786
100
AcDbArc
 50
124.849904579
 51
235.150095421
  0
CIRCLE
  5
47A
100
AcDbEntity
  8
00_COMPONENTS_6
100
AcDbCircle
 62
7
  6
BYLAYER
 10
19.9316032346
 20
20.0966403338
 40
7.4997571572
  0
ARC
  5
47B
100
AcDbEntity
  8
00_COMPONENTS_6
100
AcDbCircle
 62
7
  6
BYLAYER
 10
19.9316032346
 20
20.0966403338
 40
6.1995823234
100
AcDbArc
 50
192.6289405407
 51
347.3710594593
  0
ARC
  5
47C
100
AcDbEntity
  8
00_COMPONENTS_6
100
AcDbCircle
 62
7
  6
BYLAYER
 10
19.9316032346
 20
20.0966403338
 40
6.1995823234
100
AcDbArc
 50
12.6289405407
 51
167.3710594593
  0
ARC
  5
47D
100
AcDbEntity
  8
00_COMPONENTS_6
100
AcDbCircle
 62
7
  6
BYLAYER
 10
19.9316049683
 20
20.0966444984
 40
5.9000011298
100
AcDbArc
 50
240.0190151488
 51
254.7770787503
  0
ARC
  5
47E
100
AcDbEntity
  8
00_COMPONENTS_6
100
AcDbCircle
 62
7
  6
BYLAYER
 10
19.9316015008
 20
20.0966361692
 40
5.9000011298
100
AcDbArc
 50
60.0190080587
 51
74.777079427
  0
ARC
  5
47F
100
AcDbEntity
  8
00_COMPONENTS_6
100
AcDbCircle
 62
7
  6
BYLAYER
 10
19.9316015008
 20
20.0966444984
 40
5.9000011298
100
AcDbArc
 50
285.2229212234
 51
299.9809928365
  0
ARC
  5
480
100
AcDbEntity
  8
00_COMPONENTS_6
100
AcDbCircle
 62
7
  6
BYLAYER
 10
19.9316049683
 20
20.0966361692
 40
5.9000011298
100
AcDbArc
 50
105.222919293
 51
119.9810286927
  0
ARC
  5
481
100
AcDbEntity
  8
00_COMPONENTS_6
100
AcDbCircle
 62
7
  6
BYLAYER
 10
19.931585995
 20
20.0966634863
 40
3.8650066918
100
AcDbArc
 50
293.6299310531
 51
319.7139691279
  0
ARC
  5
482
100
AcDbEntity
  8
00_COMPONENTS_6
100
AcDbCircle
 62
7
  6
BYLAYER
 10
19.9316204741
 20
20.0966634863
 40
3.8650066918
100
AcDbArc
 50
220.2864187656
 51
246.3700840393
  0
ARC
  5
483
100
AcDbEntity
  8
00_COMPONENTS_6
100
AcDbCircle
 62
7
  6
BYLAYER
 10
19.931585995
 20
20.0966171813
 40
3.8650066918
100
AcDbArc
 50
40.2864172592
 51
66.3700840393
  0
ARC
  5
484
100
AcDbEntity
  8
00_COMPONENTS_6
100
AcDbCircle
 62
7
  6
BYLAYER
 10
19.9316204741
 20
20.0966171813
 40
3.8650066918
100
AcDbArc
 50
113.6299254948
 51
139.7139691279
  0
ARC
  5
485
100
AcDbEntity
  8
00_COMPONENTS_6
100
AcDbCircle
 62
7
  6
BYLAYER
 10
19.9316032346
 20
20.0966403338
 40
3.565018065
100
AcDbArc
 50
273.4537775536
 51
332.0837167906
  0
ARC
  5
486
100
AcDbEntity
  8
00_COMPONENTS_6
100
AcDbCircle
 62
7
  6
BYLAYER
 10
19.9316032346
 20
20.0966403338
 40
3.565018065
100
AcDbArc
 50
27.9148947909
 51
87.4938162933
  0
ARC
  5
487
100
AcDbEntity
  8
00_COMPONENTS_6
100
AcDbCircle
 62
7
  6
BYLAYER
 10
19.9316032346
 20
20.0966403338
 40
3.565018065
100
AcDbArc
 50
207.9148905642
 51
267.4169898003
  0
ARC
  5
488
100
AcDbEntity
  8
00_COMPONENTS_6
100
AcDbCircle
 62
7
  6
BYLAYER
 10
19.9316032346
 20
20.0966403338
 40
3.565018065
100
AcDbArc
 50
93.5595898292
 51
152.0837219209
  0
ARC
  5
489
100
AcDbEntity
  8
00_COMPONENTS_8
100
AcDbCircle
 62
7
  6
BYLAYER
 10
19.9316032346
 20
20.0966403338
 40
3.5000177356
100
AcDbArc
 50
28.6446846847
 51
151.355325154
  0
ARC
  5
48A
100
AcDbEntity
  8
00_COMPONENTS_8
100
AcDbCircle
 62
7
  6
BYLAYER
 10
19.9316032346
 20
20.0966403338
 40
3.5000177356
100
AcDbArc
 50
208.6446806579
 51
331.355329238
  0
ARC
  5
48B
100
AcDbEntity
  8
00_COMPONENTS_8
100
AcDbCircle
 62
7
  6
BYLAYER
 10
19.9316032346
 20
20.0966403338
 40
3.2999493181
100
AcDbArc
 50
212.0259087369
 51
327.9740912617
  0
ARC
  5
48C
100
AcDbEntity
  8
00_COMPONENTS_8
100
AcDbCircle
 62
7
  6
BYLAYER
 10
19.9316032346
 20
20.0966403338
 40
3.2999493181
100
AcDbArc
 50
32.0259087368
 51
147.9740912616
  0
ARC
  5
48D
100
AcDbEntity
  8
00_COMPONENTS_12
100
AcDbCircle
 62
7
  6
BYLAYER
 10
19.9316032346
 20
20.0966403338
 40
2.7635746716
100
AcDbArc
 50
179.9985731492
 51
0.0013289564
  0
ARC
  5
48E
100
AcDbEntity
  8
00_COMPONENTS_6
100
AcDbCircle
 62
7
  6
BYLAYER
 10
20.1701505448
 20
20.0031041085
 40
3.8787247081
100
AcDbArc
 50
34.4391221999
 51
41.9453784742
  0
ARC
  5
48F
100
AcDbEntity
  8
00_COMPONENTS_6
100
AcDbCircle
 62
7
  6
BYLAYER
 10
20.1842685686
 20
20.0899373835
 40
5.9190026534
100
AcDbArc
 50
20.8490561191
 51
21.7938968083
  0
ARC
  5
490
100
AcDbEntity
  8
00_COMPONENTS_6
100
AcDbCircle
 62
7
  6
BYLAYER
 10
20.2086463175
 20
20.0927071087
 40
5.8924009863
100
AcDbArc
 50
320.5084730111
 51
338.2141333141
  0
ARC
  5
491
100
AcDbEntity
  8
00_COMPONENTS_12
100
AcDbCircle
 62
7
  6
BYLAYER
 10
19.9316203004
 20
20.0966905244
 40
8.7000139723
100
AcDbArc
 50
239.6191093645
 51
263.6162532919
  0
ARC
  5
492
100
AcDbEntity
  8
00_COMPONENTS_12
100
AcDbCircle
 62
7
  6
BYLAYER
 10
19.9315861687
 20
20.0966905244
 40
8.7000139723
100
AcDbArc
 50
276.3837516311
 51
300.3808906355
  0
ARC
  5
493
100
AcDbEntity
  8
00_COMPONENTS_12
100
AcDbCircle
 62
7
  6
BYLAYER
 10
19.9318949059
 20
20.0973724132
 40
8.6975082581
100
AcDbArc
 50
239.6077573015
 51
263.6125967598
  0
ARC
  5
494
100
AcDbEntity
  8
00_COMPONENTS_12
100
AcDbCircle
 62
7
  6
BYLAYER
 10
19.9316199087
 20
20.0966893722
 40
8.5000505738
100
AcDbArc
 50
238.8255221684
 51
264.2798335132
  0
ARC
  5
495
100
AcDbEntity
  8
00_COMPONENTS_12
100
AcDbCircle
 62
7
  6
BYLAYER
 10
19.9315865604
 20
20.0966893722
 40
8.5000505738
100
AcDbArc
 50
275.7201664868
 51
301.1744778044
  0
ARC
  5
496
100
AcDbEntity
  8
00_COMPONENTS_12
100
AcDbCircle
 62
7
  6
BYLAYER
 10
19.9326524566
 20
20.0971912704
 40
7.7510751546
100
AcDbArc
 50
180.0040725253
 51
235.4030137972
  0
ARC
  5
497
100
AcDbEntity
  8
00_COMPONENTS_6
100
AcDbCircle
 62
7
  6
BYLAYER
 10
20.1802430548
 20
20.1049165868
 40
5.9233241183
100
AcDbArc
 50
338.206434714
 51
339.1505841025
  0
ARC
  5
498
100
AcDbEntity
  8
00_COMPONENTS_6
100
AcDbCircle
 62
7
  6
BYLAYER
 10
20.2085927929
 20
20.1005421593
 40
5.8924628696
100
AcDbArc
 50
21.7859626421
 51
39.4914384213
  0
ARC
  5
499
100
AcDbEntity
  8
00_COMPONENTS_6
100
AcDbCircle
 62
7
  6
BYLAYER
 10
20.168467992
 20
20.1919256633
 40
3.881127822
100
AcDbArc
 50
318.0517937755
 51
325.5536051269
  0
ARC
  5
49A
100
AcDbEntity
  8
00_COMPONENTS_6
100
AcDbCircle
 62
7
  6
BYLAYER
 10
16.6868558795
 20
22.1966857721
 40
0.300046042
100
AcDbArc
 50
270.0047198244
 51
327.0842317317
  0
ARC
  5
49B
100
AcDbEntity
  8
00_COMPONENTS_6
100
AcDbCircle
 62
7
  6
BYLAYER
 10
14.4282864551
 20
22.1639267538
 40
0.2696708016
100
AcDbArc
 50
228.7078325904
 51
236.9186955743
  0
ARC
  5
49C
100
AcDbEntity
  8
00_COMPONENTS_6
100
AcDbCircle
 62
7
  6
BYLAYER
 10
14.4182229726
 20
22.1392143887
 40
0.2425835977
100
AcDbArc
 50
265.3189756797
 51
269.9434926721
  0
ARC
  5
49D
100
AcDbEntity
  8
00_COMPONENTS_6
100
AcDbCircle
 62
7
  6
BYLAYER
 10
14.3139799762
 20
22.2784137541
 40
0.1855143976
100
AcDbArc
 50
202.9144154118
 51
206.1548606884
  0
ARC
  5
49E
100
AcDbEntity
  8
00_COMPONENTS_11
100
AcDbCircle
 62
7
  6
BYLAYER
 10
17.8203781171
 20
26.2663674074
 40
11.3072888731
100
AcDbArc
 50
92.6471935579
 51
93.2224143736
  0
ARC
  5
49F
100
AcDbEntity
  8
00_COMPONENTS_11
100
AcDbCircle
 62
7
  6
BYLAYER
 10
19.9316032346
 20
22.0966403338
 40
13.1000265389
100
AcDbArc
 50
167.2433325535
 51
168.0581028648
  0
ARC
  5
4A0
100
AcDbEntity
  8
00_COMPONENTS_11
100
AcDbCircle
 62
7
  6
BYLAYER
 10
19.9316032346
 20
22.0966403338
 40
13.0997379139
100
AcDbArc
 50
11.9418971351
 51
12.7567130154
  0
ARC
  5
4A1
100
AcDbEntity
  8
00_COMPONENTS_12
100
AcDbCircle
 62
7
  6
BYLAYER
 10
19.9316307866
 20
22.5966651799
 40
13.0000366217
100
AcDbArc
 50
211.7883597287
 51
232.2991438161
  0
ARC
  5
4A2
100
AcDbEntity
  8
00_COMPONENTS_12
100
AcDbCircle
 62
7
  6
BYLAYER
 10
19.9315756825
 20
22.5966651799
 40
13.0000366217
100
AcDbArc
 50
307.7008561839
 51
328.2116402713
  0
ARC
  5
4A3
100
AcDbEntity
  8
00_COMPONENTS_17
100
AcDbCircle
 62
7
  6
BYLAYER
 10
19.9174840671
 20
22.5394594719
 40
12.9149290378
100
AcDbArc
 50
341.4027328381
 51
343.9981562463
  0
ARC
  5
4A4
100
AcDbEntity
  8
00_COMPONENTS_17
100
AcDbCircle
 62
7
  6
BYLAYER
 10
19.945649206
 20
22.539408327
 40
12.9148448889
100
AcDbArc
 50
196.0017150649
 51
198.5971554668
  0
ARC
  5
4A5
100
AcDbEntity
  8
00_COMPONENTS_17
100
AcDbCircle
 62
7
  6
BYLAYER
 10
19.9265459519
 20
22.5338107349
 40
12.8949387541
100
AcDbArc
 50
195.6111869853
 51
196.0012059341
  0
ARC
  5
4A6
100
AcDbEntity
  8
00_COMPONENTS_17
100
AcDbCircle
 62
7
  6
BYLAYER
 10
19.9371740557
 20
22.533689477
 40
12.8944113765
100
AcDbArc
 50
343.9986828783
 51
344.3887178211
  0
ARC
  5
4A7
100
AcDbEntity
  8
00_COMPONENTS_12
100
AcDbCircle
 62
7
  6
BYLAYER
 10
19.9316032345
 20
23.1466403338
 40
12.007496507
100
AcDbArc
 50
209.1080371438
 51
330.8919629539
  0
ARC
  5
4A8
100
AcDbEntity
  8
00_COMPONENTS_12
100
AcDbCircle
 62
7
  6
BYLAYER
 10
19.9316032346
 20
23.1466403338
 40
11.9492787695
100
AcDbArc
 50
202.5580874249
 51
337.4401534264
  0
ARC
  5
4A9
100
AcDbEntity
  8
00_COMPONENTS_12
100
AcDbCircle
 62
7
  6
BYLAYER
 10
19.9316032346
 20
22.5966403338
 40
11.750059541
100
AcDbArc
 50
180.0
 51
360.0
  0
ARC
  5
4AA
100
AcDbEntity
  8
00_COMPONENTS_12
100
AcDbCircle
 62
7
  6
BYLAYER
 10
19.9316032346
 20
22.5966403338
 40
11.7476458056
100
AcDbArc
 50
182.0308679549
 51
357.969132045
  0
ARC
  5
4AB
100
AcDbEntity
  8
00_COMPONENTS_12
100
AcDbCircle
 62
7
  6
BYLAYER
 10
19.9316032345
 20
22.5966403338
 40
11.5315402162
100
AcDbArc
 50
183.240645733
 51
356.7593544169
  0
ARC
  5
4AC
100
AcDbEntity
  8
00_COMPONENTS_12
100
AcDbCircle
 62
7
  6
BYLAYER
 10
19.9316032346
 20
22.5966403338
 40
11.1728049429
100
AcDbArc
 50
184.3148130481
 51
355.6851869719
  0
ARC
  5
4AD
100
AcDbEntity
  8
00_COMPONENTS_12
100
AcDbCircle
 62
7
  6
BYLAYER
 10
19.9316032346
 20
22.5966403338
 40
11.1000125039
100
AcDbArc
 50
184.7540668262
 51
355.2459331738
  0
ARC
  5
4AE
100
AcDbEntity
  8
00_COMPONENTS_12
100
AcDbCircle
 62
7
  6
BYLAYER
 10
19.9316032346
 20
22.5966403338
 40
11.0982191843
100
AcDbArc
 50
184.7554874328
 51
355.2445112521
  0
ARC
  5
4AF
100
AcDbEntity
  8
00_COMPONENTS_12
100
AcDbCircle
 62
7
  6
BYLAYER
 10
17.5331273564
 20
26.8951162119
 40
2.0015875348
100
AcDbArc
 50
90.0436296187
 51
179.9563703813
  0
ARC
  5
4B0
100
AcDbEntity
  8
00_COMPONENTS_12
100
AcDbCircle
 62
7
  6
BYLAYER
 10
17.2378966259
 20
29.39700771
 40
0.5003675064
100
AcDbArc
 50
181.0413394136
 51
269.9586605865
  0
ARC
  5
4B1
100
AcDbEntity
  8
00_COMPONENTS_12
100
AcDbCircle
 62
7
  6
BYLAYER
 10
17.6312984102
 20
27.8969451582
 40
0.4003049404
100
AcDbArc
 50
270.043629619
 51
359.9563703817
  0
ARC
  5
4B2
100
AcDbEntity
  8
00_COMPONENTS_12
100
AcDbCircle
 62
7
  6
BYLAYER
 10
17.6312984174
 20
30.9969451475
 40
0.4003049332
100
AcDbArc
 50
270.0498351993
 51
359.9563752889
  0
ARC
  5
4B3
100
AcDbEntity
  8
00_COMPONENTS_4
100
AcDbCircle
 62
7
  6
BYLAYER
 10
19.9316032346
 20
32.3949084077
 40
15.0015911318
100
AcDbArc
 50
64.1721284574
 51
115.8278715426
  0
ARC
  5
4B4
100
AcDbEntity
  8
00_COMPONENTS_4
100
AcDbCircle
 62
7
  6
BYLAYER
 10
19.9316032346
 20
50.5973183103
 40
10.0006355409
100
AcDbArc
 50
247.3816290043
 51
292.6183709957
  0
ARC
  5
4B5
100
AcDbEntity
  8
00_COMPONENTS_4
100
AcDbCircle
 62
7
  6
BYLAYER
 10
19.9316032346
 20
35.5959623573
 40
10.0006355409
100
AcDbArc
 50
67.3816290043
 51
112.6183709957
  0
ARC
  5
4B6
100
AcDbEntity
  8
00_COMPONENTS_11
100
AcDbCircle
 62
7
  6
BYLAYER
 10
7.1149789274
 20
31.9096831439
 40
7.1023954303
100
AcDbArc
 50
269.4374585377
 51
270.00109162
  0
ARC
  5
4B7
100
AcDbEntity
  8
00_COMPONENTS_4
100
AcDbCircle
 62
7
  6
BYLAYER
 10
19.9316032345
 20
34.3966403338
 40
4.5003387722
100
AcDbArc
 50
36.0100290652
 51
137.8973532502
  0
ARC
  5
4B8
100
AcDbEntity
  8
00_COMPONENTS_11
100
AcDbCircle
 62
7
  6
BYLAYER
 10
10.8694146439
 20
39.1791245887
 40
1.9528104893
100
AcDbArc
 50
284.1376805597
 51
285.0083221699
  0
ARC
  5
4B9
100
AcDbEntity
  8
00_COMPONENTS_4
100
AcDbCircle
 62
7
  6
BYLAYER
 10
16.8066032346
 20
43.0966403338
 40
1.8749435174
100
AcDbArc
 50
112.619864948
 51
247.380135052
  0
ARC
  5
4BA
100
AcDbEntity
  8
00_COMPONENTS_4
100
AcDbCircle
 62
7
  6
BYLAYER
 10
13.8318369013
 20
44.9976842623
 40
1.0002407414
100
AcDbArc
 50
115.8391450808
 51
179.9916086171
  0
ARC
  5
4BB
100
AcDbEntity
  8
00_COMPONENTS_11
100
AcDbCircle
 62
7
  6
BYLAYER
 10
5.7571899003
 20
35.7503509397
 40
0.9949965738
100
AcDbArc
 50
96.7735177196
 51
98.2264324692
  0
ARC
  5
4BC
100
AcDbEntity
  8
00_COMPONENTS_21
100
AcDbCircle
 62
7
  6
BYLAYER
 10
17.7066026309
 20
37.5966403685
 40
0.5000000347
100
AcDbArc
 50
174.9999979296
 51
270.0000691766
  0
ARC
  5
4BD
100
AcDbEntity
  8
00_COMPONENTS
100
AcDbCircle
 62
7
  6
BYLAYER
 10
7.8306786786
 20
36.9975648898
 40
0.0990754728
100
AcDbArc
 50
90.0436296203
 51
179.9563703797
  0
ARC
  5
4BE
100
AcDbEntity
  8
00_COMPONENTS_11
100
AcDbCircle
 62
7
  6
BYLAYER
 10
26.2421251338
 20
12.4150208689
 40
24.973785981
100
AcDbArc
 50
84.7710953894
 51
85.000521642
  0
ARC
  5
4BF
100
AcDbEntity
  8
00_COMPONENTS_12
100
AcDbCircle
 62
7
  6
BYLAYER
 10
27.1472041062
 20
28.7970170859
 40
21.2603475419
100
AcDbArc
 50
193.0135980051
 51
194.0888240833
  0
ARC
  5
4C0
100
AcDbEntity
  8
00_COMPONENTS_11
100
AcDbCircle
 62
7
  6
BYLAYER
 10
32.7060460619
 20
18.2685349578
 40
6.7304968384
100
AcDbArc
 50
89.0438082132
 51
90.0000892153
  0
ARC
  5
4C1
100
AcDbEntity
  8
00_COMPONENTS_12
100
AcDbCircle
 62
7
  6
BYLAYER
 10
22.3300791127
 20
26.8951162119
 40
2.0015875348
100
AcDbArc
 50
0.0436296187
 51
89.9563703813
  0
ARC
  5
4C2
100
AcDbEntity
  8
00_COMPONENTS_12
100
AcDbCircle
 62
7
  6
BYLAYER
 10
22.6253098432
 20
29.39700771
 40
0.5003675064
100
AcDbArc
 50
270.0413394135
 51
358.9586605864
  0
ARC
  5
4C3
100
AcDbEntity
  8
00_COMPONENTS_6
100
AcDbCircle
 62
7
  6
BYLAYER
 10
22.5987124575
 20
25.3814089725
 40
0.4884805294
100
AcDbArc
 50
339.1005893511
 51
343.3425866025
  0
ARC
  5
4C4
100
AcDbEntity
  8
00_COMPONENTS_12
100
AcDbCircle
 62
7
  6
BYLAYER
 10
22.2319080589
 20
27.8969451582
 40
0.4003049404
100
AcDbArc
 50
180.0436296184
 51
269.9563703809
  0
ARC
  5
4C5
100
AcDbEntity
  8
00_COMPONENTS_12
100
AcDbCircle
 62
7
  6
BYLAYER
 10
22.2319080517
 20
30.9969451475
 40
0.4003049332
100
AcDbArc
 50
180.0436247109
 51
269.9501648008
  0
ARC
  5
4C6
100
AcDbEntity
  8
00_COMPONENTS_6
100
AcDbCircle
 62
7
  6
BYLAYER
 10
23.1763505896
 20
22.1966857721
 40
0.300046042
100
AcDbArc
 50
212.9157702297
 51
269.9952801765
  0
ARC
  5
4C7
100
AcDbEntity
  8
00_COMPONENTS_6
100
AcDbCircle
 62
7
  6
BYLAYER
 10
23.1763505896
 20
17.9965948955
 40
0.300046042
100
AcDbArc
 50
90.0047198242
 51
147.084231582
  0
ARC
  5
4C8
100
AcDbEntity
  8
00_COMPONENTS_6
100
AcDbCircle
 62
7
  6
BYLAYER
 10
25.4338611566
 20
22.1653245074
 40
0.2714201039
100
AcDbArc
 50
303.156974
 51
311.5386680833
  0
ARC
  5
4C9
100
AcDbEntity
  8
00_COMPONENTS_6
100
AcDbCircle
 62
7
  6
BYLAYER
 10
25.4349200147
 20
18.0293539146
 40
0.2696708006
100
AcDbArc
 50
48.7078292862
 51
56.9187000973
  0
ARC
  5
4CA
100
AcDbEntity
  8
00_COMPONENTS_6
100
AcDbCircle
 62
7
  6
BYLAYER
 10
25.4449802561
 20
22.1393200787
 40
0.242689291
100
AcDbArc
 50
270.0572477494
 51
274.8883756962
  0
ARC
  5
4CB
100
AcDbEntity
  8
00_COMPONENTS_6
100
AcDbCircle
 62
7
  6
BYLAYER
 10
25.4449834965
 20
18.0540662784
 40
0.2425835983
100
AcDbArc
 50
85.31897452
 51
89.9434926681
  0
ARC
  5
4CC
100
AcDbEntity
  8
00_COMPONENTS_12
100
AcDbCircle
 62
7
  6
BYLAYER
 10
20.7988350073
 20
11.4398535171
 40
0.200117781
100
AcDbArc
 50
95.7500558155
 51
178.9700251753
  0
ARC
  5
4CD
100
AcDbEntity
  8
00_COMPONENTS_6
100
AcDbCircle
 62
7
  6
BYLAYER
 10
25.5477819402
 20
22.2790728804
 40
0.1871011178
100
AcDbArc
 50
333.859411597
 51
337.0717387565
  0
ARC
  5
4CE
100
AcDbEntity
  8
00_COMPONENTS_6
100
AcDbCircle
 62
7
  6
BYLAYER
 10
25.5492264826
 20
17.9148671052
 40
0.1855138491
100
AcDbArc
 50
22.9144964461
 51
26.1543445685
  0
ARC
  5
4CF
100
AcDbEntity
  8
00_COMPONENTS_11
100
AcDbCircle
 62
7
  6
BYLAYER
 10
32.7482269928
 20
31.9094805307
 40
7.102192817
100
AcDbArc
 50
269.9989127767
 51
270.562466349
  0
ARC
  5
4D0
100
AcDbEntity
  8
00_COMPONENTS_4
100
AcDbCircle
 62
7
  6
BYLAYER
 10
23.0566032346
 20
43.0966403338
 40
1.8749435174
100
AcDbArc
 50
292.619864948
 51
67.380135052
  0
ARC
  5
4D1
100
AcDbEntity
  8
00_COMPONENTS_11
100
AcDbCircle
 62
7
  6
BYLAYER
 10
28.9352025189
 20
38.9948358154
 40
1.7598345807
100
AcDbArc
 50
255.2796446898
 51
256.2437177034
  0
ARC
  5
4D2
100
AcDbEntity
  8
00_COMPONENTS_4
100
AcDbCircle
 62
7
  6
BYLAYER
 10
26.0313695678
 20
44.9976842623
 40
1.0002407414
100
AcDbArc
 50
0.0083913829
 51
64.1608549192
  0
ARC
  5
4D3
100
AcDbEntity
  8
00_COMPONENTS_21
100
AcDbCircle
 62
7
  6
BYLAYER
 10
22.1566038382
 20
37.5966403685
 40
0.5000000347
100
AcDbArc
 50
269.9999308234
 51
5.0000020704
  0
ARC
  5
4D4
100
AcDbEntity
  8
00_COMPONENTS_12
100
AcDbCircle
 62
7
  6
BYLAYER
 10
34.8823939798
 20
32.2084588318
 40
0.3881786901
100
AcDbArc
 50
84.7134071792
 51
90.0786910871
  0
ARC
  5
4D5
100
AcDbEntity
  8
00_COMPONENTS
100
AcDbCircle
 62
7
  6
BYLAYER
 10
32.0325277905
 20
36.9975648898
 40
0.0990754728
100
AcDbArc
 50
0.0436296203
 51
89.9563703797
  0
ARC
  5
4D6
100
AcDbEntity
  8
00_COMPONENTS_12
100
AcDbCircle
 62
7
  6
BYLAYER
 10
-12.3852310612
 20
107.8667880225
 40
96.4554730606
100
AcDbArc
 50
296.7789573917
 51
297.0267213385
  0
ARC
  5
4D7
100
AcDbEntity
  8
00_COMPONENTS_12
100
AcDbCircle
 62
7
  6
BYLAYER
 10
51.9860251252
 20
107.3496165669
 40
95.8755372
100
AcDbArc
 50
242.9725270985
 51
243.221793984
  0
ARC
  5
4D8
100
AcDbEntity
  8
00_COMPONENTS_12
100
AcDbCircle
 62
7
  6
BYLAYER
 10
19.9313334217
 20
84.2372498843
 40
52.6401269702
100
AcDbArc
 50
258.8174041242
 51
281.1831723276
  0
ARC
  5
4D9
100
AcDbEntity
  8
00_COMPONENTS_12
100
AcDbCircle
 62
7
  6
BYLAYER
 10
1382.794923074
 20
33.2841190787
 40
1355.3608069906
100
AcDbArc
 50
180.2910641016
 51
180.4941672618
  0
ARC
  5
4DA
100
AcDbEntity
  8
00_COMPONENTS_12
100
AcDbCircle
 62
7
  6
BYLAYER
 10
1319.7696351727
 20
33.002926477
 40
1308.3347003662
100
AcDbArc
 50
180.2892116497
 51
180.5652129509
  0
SPLINE
  5
4DB
100
AcDbEntity
  8
00_COMPONENTS_3
100
AcDbSpline
 62
7
  6
BYLAYER
 70
0
 71
3
 72
15
 73
11
 74
0
 42
0.0000001
 43
0.0000001
 44
0.0000000001
 40
0.0
 40
0.0
 40
0.0
 40
0.0
 40
0.1268305598
 40
0.253410494
 40
0.3794531192
 40
0.5048293447
 40
0.629470163
 40
0.7534197261
 40
0.8768654236
 40
1.0
 40
1.0
 40
1.0
 40
1.0
 10
5.1992248682
 20
28.5966403338
 30
0.0
 10
5.1992489995
 20
28.5639802186
 30
0.0
 10
5.2054638308
 20
28.4985556634
 30
0.0
 10
5.2331886122
 20
28.4042595156
 30
0.0
 10
5.2782529638
 20
28.3172922117
 30
0.0
 10
5.3389093098
 20
28.241015674
 30
0.0
 10
5.4128835024
 20
28.1783852691
 30
0.0
 10
5.4973324662
 20
28.1317961951
 30
0.0
 10
5.5889836557
 20
28.1031048111
 30
0.0
 10
5.6526643693
 20
28.0966652183
 30
0.0
 10
5.6843727314
 20
28.0966403338
 30
0.0
  0
SPLINE
  5
4DC
100
AcDbEntity
  8
00_COMPONENTS_3
100
AcDbSpline
 62
7
  6
BYLAYER
 70
0
 71
3
 72
20
 73
16
 74
0
 42
0.0000001
 43
0.0000001
 44
0.0000000001
 40
0.0
 40
0.0
 40
0.0
 40
0.0
 40
0.1826686061
 40
0.358781692
 40
0.521962324
 40
0.6665976558
 40
0.7304566219
 40
0.788015718
 40
0.8389511181
 40
0.8830725072
 40
0.9204339127
 40
0.9514663386
 40
0.9772535345
 40
0.988842901
 40
1.0
 40
1.0
 40
1.0
 40
1.0
 10
5.1992248682
 20
32.0466403338
 30
0.0
 10
5.1992314583
 20
32.0824135096
 30
0.0
 10
5.2008701257
 20
32.1526873958
 30
0.0
 10
5.2082078198
 20
32.25468724
 30
0.0
 10
5.2201129003
 20
32.3487554774
 30
0.0
 10
5.2339010591
 20
32.4203072772
 30
0.0
 10
5.2472163856
 20
32.4707002767
 30
0.0
 10
5.2575872056
 20
32.5028414225
 30
0.0
 10
5.268644333
 20
32.5306386924
 30
0.0
 10
5.2802875286
 20
32.5538565524
 30
0.0
 10
5.2924428138
 20
32.5723206789
 30
0.0
 10
5.3050570557
 20
32.5859261764
 30
0.0
 10
5.3165071063
 20
32.5933197568
 30
0.0
 10
5.3256319553
 20
32.5961599584
 30
0.0
 10
5.3300969547
 20
32.5966334564
 30
0.0
 10
5.3322819108
 20
32.5966403338
 30
0.0
  0
SPLINE
  5
4DD
100
AcDbEntity
  8
00_COMPONENTS_20
100
AcDbSpline
 62
7
  6
BYLAYER
 70
0
 71
3
 72
20
 73
16
 74
0
 42
0.0000001
 43
0.0000001
 44
0.0000000001
 40
0.0
 40
0.0
 40
0.0
 40
0.0
 40
0.0111570998
 40
0.0227464688
 40
0.0485336703
 40
0.0795660951
 40
0.1169274982
 40
0.1610488796
 40
0.2119842673
 40
0.2695433539
 40
0.3334023136
 40
0.4780376558
 40
0.6412183262
 40
0.817331424
 40
1.0
 40
1.0
 40
1.0
 40
1.0
 10
34.5309245583
 20
32.5966403338
 30
0.0
 10
34.5331095146
 20
32.5966334564
 30
0.0
 10
34.5375745146
 20
32.5961599577
 30
0.0
 10
34.5466993647
 20
32.5933197538
 30
0.0
 10
34.5581494164
 20
32.5859261733
 30
0.0
 10
34.5707636612
 20
32.5723206778
 30
0.0
 10
34.5829189418
 20
32.5538565506
 30
0.0
 10
34.5945621348
 20
32.5306386944
 30
0.0
 10
34.605619261
 20
32.5028414302
 30
0.0
 10
34.6159900791
 20
32.4707002897
 30
0.0
 10
34.6293054072
 20
32.4203072917
 30
0.0
 10
34.6430935681
 20
32.3487554838
 30
0.0
 10
34.6549986492
 20
32.2546872344
 30
0.0
 10
34.6623363441
 20
32.1526873864
 30
0.0
 10
34.6639750108
 20
32.0824135037
 30
0.0
 10
34.6639816009
 20
32.0466403338
 30
0.0
  0
SPLINE
  5
4DE
100
AcDbEntity
  8
00_COMPONENTS_20
100
AcDbSpline
 62
7
  6
BYLAYER
 70
0
 71
3
 72
15
 73
11
 74
0
 42
0.0000001
 43
0.0000001
 44
0.0000000001
 40
0.0
 40
0.0
 40
0.0
 40
0.0
 40
0.123134597
 40
0.2465802862
 40
0.370529821
 40
0.4951706271
 40
0.6205468646
 40
0.7465895187
 40
0.8731694613
 40
1.0
 40
1.0
 40
1.0
 40
1.0
 10
34.1788337377
 20
28.0966403338
 30
0.0
 10
34.2105421051
 20
28.0966652183
 30
0.0
 10
34.2742228216
 20
28.1031048138
 30
0.0
 10
34.3658740077
 20
28.1317961947
 30
0.0
 10
34.4503229589
 20
28.1783852655
 30
0.0
 10
34.524297148
 20
28.2410156623
 30
0.0
 10
34.5849535018
 20
28.3172922038
 30
0.0
 10
34.6300178565
 20
28.4042595206
 30
0.0
 10
34.657742641
 20
28.4985556719
 30
0.0
 10
34.6639574696
 20
28.5639802241
 30
0.0
 10
34.6639816009
 20
28.5966403338
 30
0.0
  0
SPLINE
  5
4DF
100
AcDbEntity
  8
00_COMPONENTS_6
100
AcDbSpline
 62
7
  6
BYLAYER
 70
0
 71
3
 72
12
 73
8
 74
0
 42
0.0000001
 43
0.0000001
 44
0.0000000001
 40
0.0
 40
0.0
 40
0.0
 40
0.0
 40
0.2481511381
 40
0.4979646557
 40
0.623407994
 40
0.7489152526
 40
1.0
 40
1.0
 40
1.0
 40
1.0
 10
16.6868868201
 20
21.8963984201
 30
0.0
 10
16.7115144717
 20
21.8966122252
 30
0.0
 10
16.7610532169
 20
21.9035077358
 30
0.0
 10
16.8190992938
 20
21.9265620961
 30
0.0
 10
16.8614557213
 20
21.9527749769
 30
0.0
 10
16.90044847
 20
21.9839211674
 30
0.0
 10
16.9251699203
 20
22.0126859765
 30
0.0
 10
16.9387125794
 20
22.0336046188
 30
0.0
  0
SPLINE
  5
4E0
100
AcDbEntity
  8
00_COMPONENTS_6
100
AcDbSpline
 62
7
  6
BYLAYER
 70
0
 71
3
 72
9
 73
5
 74
0
 42
0.0000001
 43
0.0000001
 44
0.0000000001
 40
0.0
 40
0.0
 40
0.0
 40
0.0
 40
0.5975187583
 40
1.0
 40
1.0
 40
1.0
 40
1.0
 10
14.3966272158
 20
21.8974601495
 30
0.0
 10
14.3073913474
 20
21.904289971
 30
0.0
 10
14.1640277918
 20
21.9863395556
 30
0.0
 10
14.1191673851
 20
22.1362777506
 30
0.0
 10
14.1187606004
 20
22.1966452095
 30
0.0
  0
SPLINE
  5
4E1
100
AcDbEntity
  8
00_COMPONENTS_6
100
AcDbSpline
 62
7
  6
BYLAYER
 70
0
 71
3
 72
8
 73
4
 74
0
 42
0.0000001
 43
0.0000001
 44
0.0000000001
 40
0.0
 40
0.0
 40
0.0
 40
0.0
 40
1.0
 40
1.0
 40
1.0
 40
1.0
 10
14.1376301408
 20
17.8898608277
 30
0.0
 10
14.1246817651
 20
17.9238572778
 30
0.0
 10
14.1185154179
 20
17.9602500277
 30
0.0
 10
14.1187606004
 20
17.9966354581
 30
0.0
  0
SPLINE
  5
4E2
100
AcDbEntity
  8
00_COMPONENTS_6
100
AcDbSpline
 62
7
  6
BYLAYER
 70
0
 71
3
 72
12
 73
8
 74
0
 42
0.0000001
 43
0.0000001
 44
0.0000000001
 40
0.0
 40
0.0
 40
0.0
 40
0.0
 40
0.2481418603
 40
0.4979476193
 40
0.6233897779
 40
0.7488988635
 40
1.0
 40
1.0
 40
1.0
 40
1.0
 10
23.1763570625
 20
21.8963881828
 30
0.0
 10
23.1517269454
 20
21.8965995579
 30
0.0
 10
23.1021823783
 20
21.9034912473
 30
0.0
 10
23.0441285523
 20
21.9265447771
 30
0.0
 10
23.0017660665
 20
21.9527595039
 30
0.0
 10
22.9627660988
 20
21.9839103598
 30
0.0
 10
22.9380401736
 20
22.0126806241
 30
0.0
 10
22.924494668
 20
22.0336034181
 30
0.0
  0
SPLINE
  5
4E3
100
AcDbEntity
  8
00_COMPONENTS_6
100
AcDbSpline
 62
7
  6
BYLAYER
 70
0
 71
3
 72
12
 73
8
 74
0
 42
0.0000001
 43
0.0000001
 44
0.0000000001
 40
0.0
 40
0.0
 40
0.0
 40
0.0
 40
0.248151152
 40
0.4979646734
 40
0.6234080064
 40
0.7489152587
 40
1.0
 40
1.0
 40
1.0
 40
1.0
 10
23.1763185329
 20
18.2968822335
 30
0.0
 10
23.1516909729
 20
18.2966683311
 30
0.0
 10
23.1021524398
 20
18.2897726852
 30
0.0
 10
23.044106633
 20
18.2667182864
 30
0.0
 10
23.0017504055
 20
18.2405054395
 30
0.0
 10
22.9627578393
 20
18.2093593232
 30
0.0
 10
22.9380364988
 20
18.1805946135
 30
0.0
 10
22.9244938905
 20
18.15967605
 30
0.0
  0
SPLINE
  5
4E4
100
AcDbEntity
  8
00_COMPONENTS_6
100
AcDbSpline
 62
7
  6
BYLAYER
 70
0
 71
3
 72
12
 73
8
 74
0
 42
0.0000001
 43
0.0000001
 44
0.0000000001
 40
0.0
 40
0.0
 40
0.0
 40
0.0
 40
0.2481418729
 40
0.4979476387
 40
0.623389797
 40
0.7488988798
 40
1.0
 40
1.0
 40
1.0
 40
1.0
 10
16.6868497963
 20
18.2968924776
 30
0.0
 10
16.7114798825
 20
18.2966810709
 30
0.0
 10
16.7610243781
 20
18.2897893358
 30
0.0
 10
16.8190781113
 20
18.26673579
 30
0.0
 10
16.8614405273
 20
18.2405210729
 30
0.0
 10
16.9004404296
 20
18.2093702421
 30
0.0
 10
16.9251663155
 20
18.1806000131
 30
0.0
 10
16.9387118025
 20
18.1596772475
 30
0.0
  0
SPLINE
  5
4E5
100
AcDbEntity
  8
00_COMPONENTS_6
100
AcDbSpline
 62
7
  6
BYLAYER
 70
0
 71
3
 72
8
 73
4
 74
0
 42
0.0000001
 43
0.0000001
 44
0.0000000001
 40
0.0
 40
0.0
 40
0.0
 40
0.0
 40
1.0
 40
1.0
 40
1.0
 40
1.0
 10
25.7255763013
 20
22.303419911
 30
0.0
 10
25.7385246954
 20
22.2694234405
 30
0.0
 10
25.7446910513
 20
22.2330306653
 30
0.0
 10
25.7444458687
 20
22.1966452095
 30
0.0
  0
SPLINE
  5
4E6
100
AcDbEntity
  8
00_COMPONENTS_6
100
AcDbSpline
 62
7
  6
BYLAYER
 70
0
 71
3
 72
9
 73
5
 74
0
 42
0.0000001
 43
0.0000001
 44
0.0000000001
 40
0.0
 40
0.0
 40
0.0
 40
0.0
 40
0.5975187537
 40
1.0
 40
1.0
 40
1.0
 40
1.0
 10
25.4665792585
 20
18.2958205177
 30
0.0
 10
25.555815125
 20
18.2889906947
 30
0.0
 10
25.6991786778
 20
18.2069411102
 30
0.0
 10
25.744039084
 20
18.057002917
 30
0.0
 10
25.7444458687
 20
17.9966354581
 30
0.0
  0
SPLINE
  5
4E7
100
AcDbEntity
  8
00_COMPONENTS_6
100
AcDbSpline
 62
7
  6
BYLAYER
 70
0
 71
3
 72
9
 73
5
 74
0
 42
0.0000001
 43
0.0000001
 44
0.0000000001
 40
0.0
 40
0.0
 40
0.0
 40
0.0
 40
0.4033202952
 40
1.0
 40
1.0
 40
1.0
 40
1.0
 10
25.7444458687
 20
22.1966452095
 30
0.0
 10
25.744039084
 20
22.1362777506
 30
0.0
 10
25.6992720033
 20
21.9866514819
 30
0.0
 10
25.5564111925
 20
21.9046316511
 30
0.0
 10
25.4675111925
 20
21.8975330209
 30
0.0
  0
SPLINE
  5
4E8
100
AcDbEntity
  8
00_COMPONENTS_6
100
AcDbSpline
 62
7
  6
BYLAYER
 70
0
 71
3
 72
9
 73
5
 74
0
 42
0.0000001
 43
0.0000001
 44
0.0000000001
 40
0.0
 40
0.0
 40
0.0
 40
0.0
 40
0.40332029
 40
1.0
 40
1.0
 40
1.0
 40
1.0
 10
14.1187606004
 20
17.9966354581
 30
0.0
 10
14.1191673851
 20
18.057002917
 30
0.0
 10
14.1639344664
 20
18.2066291877
 30
0.0
 10
14.3067952803
 20
18.2886490187
 30
0.0
 10
14.3956952824
 20
18.2957476472
 30
0.0
  0
SPLINE
  5
4E9
100
AcDbEntity
  8
00_COMPONENTS_6
100
AcDbSpline
 62
7
  6
BYLAYER
 70
0
 71
3
 72
8
 73
4
 74
0
 42
0.0000001
 43
0.0000001
 44
0.0000000001
 40
0.0
 40
0.0
 40
0.0
 40
0.0
 40
1.0
 40
1.0
 40
1.0
 40
1.0
 10
25.7444458687
 20
17.9966354581
 30
0.0
 10
25.7446910513
 20
17.9602500047
 30
0.0
 10
25.7385246962
 20
17.9238572318
 30
0.0
 10
25.7255763038
 20
17.8898607632
 30
0.0
  0
SPLINE
  5
4EA
100
AcDbEntity
  8
00_COMPONENTS_6
100
AcDbSpline
 62
7
  6
BYLAYER
 70
0
 71
3
 72
8
 73
4
 74
0
 42
0.0000001
 43
0.0000001
 44
0.0000000001
 40
0.0
 40
0.0
 40
0.0
 40
0.0
 40
1.0
 40
1.0
 40
1.0
 40
1.0
 10
14.1187606004
 20
22.1966452095
 30
0.0
 10
14.118515418
 20
22.2330306375
 30
0.0
 10
14.1246817643
 20
22.269423385
 30
0.0
 10
14.1376301382
 20
22.3034198332
 30
0.0
  0
SPLINE
  5
4EB
100
AcDbEntity
  8
00_COMPONENTS_6
100
AcDbSpline
 62
7
  6
BYLAYER
 70
0
 71
3
 72
15
 73
11
 74
0
 42
0.0000001
 43
0.0000001
 44
0.0000000001
 40
0.0
 40
0.0
 40
0.0
 40
0.0
 40
0.0971671877
 40
0.200001414
 40
0.3120056126
 40
0.4347581134
 40
0.5679294404
 40
0.7087774183
 40
0.8540887376
 40
1.0
 40
1.0
 40
1.0
 40
1.0
 10
21.5595694568
 20
14.1141875289
 30
0.0
 10
21.5456473718
 20
14.1100910813
 30
0.0
 10
21.5152158517
 20
14.107046571
 30
0.0
 10
21.4691645052
 20
14.1174860685
 30
0.0
 10
21.4241751987
 20
14.1413149925
 30
0.0
 10
21.382137265
 20
14.1773213461
 30
0.0
 10
21.3453539284
 20
14.2241807771
 30
0.0
 10
21.3147709206
 20
14.2790927094
 30
0.0
 10
21.2916703189
 20
14.3395615037
 30
0.0
 10
21.2819284965
 20
14.3821408879
 30
0.0
 10
21.2787278684
 20
14.4036969093
 30
0.0
  0
SPLINE
  5
4EC
100
AcDbEntity
  8
00_COMPONENTS_6
100
AcDbSpline
 62
7
  6
BYLAYER
 70
0
 71
3
 72
14
 73
10
 74
0
 42
0.0000001
 43
0.0000001
 44
0.0000000001
 40
0.0
 40
0.0
 40
0.0
 40
0.0
 40
0.1188420196
 40
0.2387601749
 40
0.3603899027
 40
0.4840885531
 40
0.6103513348
 40
0.7391358557
 40
1.0
 40
1.0
 40
1.0
 40
1.0
 10
24.4854019865
 20
21.8966400071
 30
0.0
 10
24.5031079542
 20
21.8966399976
 30
0.0
 10
24.5387920063
 20
21.900757284
 30
0.0
 10
24.5899368105
 20
21.918275864
 30
0.0
 10
24.6370955489
 20
21.9461710116
 30
0.0
 10
24.6784244775
 20
21.9835778988
 30
0.0
 10
24.7119231053
 20
22.0294708713
 30
0.0
 10
24.7451912492
 20
22.099060319
 30
0.0
 10
24.7559866011
 20
22.1577748795
 30
0.0
 10
24.7559247973
 20
22.1966403102
 30
0.0
  0
SPLINE
  5
4ED
100
AcDbEntity
  8
00_COMPONENTS_6
100
AcDbSpline
 62
7
  6
BYLAYER
 70
0
 71
3
 72
17
 73
13
 74
0
 42
0.0000001
 43
0.0000001
 44
0.0000000001
 40
0.0
 40
0.0
 40
0.0
 40
0.0
 40
0.0534410283
 40
0.1103473668
 40
0.2328798186
 40
0.3641308665
 40
0.5000032345
 40
0.6358750657
 40
0.7671252355
 40
0.8896557735
 40
0.9465606179
 40
1.0
 40
1.0
 40
1.0
 40
1.0
 10
21.2787753669
 20
14.4036873262
 30
0.0
 10
21.2324167252
 20
14.3886494504
 30
0.0
 10
21.1359050211
 20
14.3599988859
 30
0.0
 10
20.9300969641
 20
14.3074801546
 30
0.0
 10
20.6522807816
 20
14.2505031399
 30
0.0
 10
20.2992192702
 20
14.2068617496
 30
0.0
 10
19.931599181
 20
14.1914606089
 30
0.0
 10
19.5639802673
 20
14.2068643272
 30
0.0
 10
19.2109211726
 20
14.2505039838
 30
0.0
 10
18.9331115147
 20
14.3074915814
 30
0.0
 10
18.7273034755
 20
14.3599903903
 30
0.0
 10
18.6307886704
 20
14.3886200929
 30
0.0
 10
18.584428394
 20
14.4036480609
 30
0.0
  0
SPLINE
  5
4EE
100
AcDbEntity
  8
00_COMPONENTS_6
100
AcDbSpline
 62
7
  6
BYLAYER
 70
0
 71
3
 72
15
 73
11
 74
0
 42
0.0000001
 43
0.0000001
 44
0.0000000001
 40
0.0
 40
0.0
 40
0.0
 40
0.0
 40
0.1117280506
 40
0.2346323799
 40
0.3653445865
 40
0.5000048607
 40
0.634664322
 40
0.7653741834
 40
0.8882750975
 40
1.0
 40
1.0
 40
1.0
 40
1.0
 10
18.5844748386
 20
16.5556983332
 30
0.0
 10
18.6774574775
 20
16.5089164246
 30
0.0
 10
18.8777415323
 20
16.4202965331
 30
0.0
 10
19.2026118923
 20
16.3164251584
 30
0.0
 10
19.5586813903
 20
16.2476209668
 30
0.0
 10
19.9316158049
 20
16.2235197549
 30
0.0
 10
20.3045480592
 20
16.2476209318
 30
0.0
 10
20.6606113331
 20
16.3164253304
 30
0.0
 10
20.9854728797
 20
16.4202972797
 30
0.0
 10
21.1857501873
 20
16.5089170666
 30
0.0
 10
21.2787301994
 20
16.5556976705
 30
0.0
  0
SPLINE
  5
4EF
100
AcDbEntity
  8
00_COMPONENTS_6
100
AcDbSpline
 62
7
  6
BYLAYER
 70
0
 71
3
 72
18
 73
14
 74
0
 42
0.0000001
 43
0.0000001
 44
0.0000000001
 40
0.0
 40
0.0
 40
0.0
 40
0.0
 40
0.145915852
 40
0.2189625595
 40
0.2913670519
 40
0.3626708282
 40
0.4323915279
 40
0.5654270051
 40
0.6882566067
 40
0.7997552351
 40
0.8521658331
 40
0.9030745874
 40
1.0
 40
1.0
 40
1.0
 40
1.0
 10
18.5844153062
 20
14.403664523
 30
0.0
 10
18.5811761497
 20
14.3820616694
 30
0.0
 10
18.5744147187
 20
14.3498567944
 30
0.0
 10
18.5607734419
 20
14.3083866241
 30
0.0
 10
18.548184816
 20
14.2784410541
 30
0.0
 10
18.5335675144
 20
14.2499920234
 30
0.0
 10
18.5120509313
 20
14.2150248857
 30
0.0
 10
18.4815909645
 20
14.1766306579
 30
0.0
 10
18.4395986397
 20
14.1405399541
 30
0.0
 10
18.4010777334
 20
14.1204648471
 30
0.0
 10
18.3699577639
 20
14.1119090141
 30
0.0
 10
18.3401430189
 20
14.1082423675
 30
0.0
 10
18.3176442246
 20
14.1103811197
 30
0.0
 10
18.3036421325
 20
14.1141874447
 30
0.0
  0
SPLINE
  5
4F0
100
AcDbEntity
  8
00_COMPONENTS_6
100
AcDbSpline
 62
7
  6
BYLAYER
 70
0
 71
3
 72
15
 73
11
 74
0
 42
0.0000001
 43
0.0000001
 44
0.0000000001
 40
0.0
 40
0.0
 40
0.0
 40
0.0
 40
0.091882219
 40
0.1891776867
 40
0.2956307788
 40
0.4133005583
 40
0.5431251236
 40
0.6852322768
 40
0.838271403
 40
1.0
 40
1.0
 40
1.0
 40
1.0
 10
16.8333218177
 20
14.7262909822
 30
0.0
 10
16.8262285604
 20
14.7303853985
 30
0.0
 10
16.8128923133
 20
14.74117803
 30
0.0
 10
16.7976223616
 20
14.7629787981
 30
0.0
 10
16.7868411505
 20
14.7897437981
 30
0.0
 10
16.7806484868
 20
14.8208310342
 30
0.0
 10
16.7792004486
 20
14.8556493569
 30
0.0
 10
16.7827067246
 20
14.8934616456
 30
0.0
 10
16.7908648737
 20
14.9334265371
 30
0.0
 10
16.7990377388
 20
14.9603132598
 30
0.0
 10
16.8038060676
 20
14.9739179054
 30
0.0
  0
SPLINE
  5
4F1
100
AcDbEntity
  8
00_COMPONENTS_6
100
AcDbSpline
 62
7
  6
BYLAYER
 70
0
 71
3
 72
13
 73
9
 74
0
 42
0.0000001
 43
0.0000001
 44
0.0000000001
 40
0.0
 40
0.0
 40
0.0
 40
0.0
 40
0.2275484221
 40
0.3469972487
 40
0.4704505562
 40
0.5978855532
 40
0.7289717692
 40
1.0
 40
1.0
 40
1.0
 40
1.0
 10
15.1462553101
 20
16.1545054777
 30
0.0
 10
15.1365484504
 20
16.1662884972
 30
0.0
 10
15.1239290672
 20
16.1862014035
 30
0.0
 10
15.11200537
 20
16.2154817569
 30
0.0
 10
15.1055063033
 20
16.2395305441
 30
0.0
 10
15.1017268823
 20
16.2649330803
 30
0.0
 10
15.1003680799
 20
16.300488919
 30
0.0
 10
15.1037641712
 20
16.3275056543
 30
0.0
 10
15.1077194221
 20
16.3452537536
 30
0.0
  0
SPLINE
  5
4F2
100
AcDbEntity
  8
00_COMPONENTS_6
100
AcDbSpline
 62
7
  6
BYLAYER
 70
0
 71
3
 72
16
 73
12
 74
0
 42
0.0000001
 43
0.0000001
 44
0.0000000001
 40
0.0
 40
0.0
 40
0.0
 40
0.0
 40
0.1428392922
 40
0.2809101303
 40
0.3481716194
 40
0.4142462274
 40
0.5427187671
 40
0.6660323963
 40
0.783684082
 40
0.8951010752
 40
1.0
 40
1.0
 40
1.0
 40
1.0
 10
16.8081354671
 20
14.9860926755
 30
0.0
 10
16.7172375873
 20
15.0370327789
 30
0.0
 10
16.5399778883
 20
15.1399339784
 30
0.0
 10
16.3255221584
 20
15.2761941864
 30
0.0
 10
16.1626384241
 20
15.3887825135
 30
0.0
 10
16.0083957082
 20
15.5014369323
 30
0.0
 10
15.8261982371
 20
15.6450068491
 30
0.0
 10
15.6220915789
 20
15.8211110773
 30
0.0
 10
15.4345350858
 20
15.9969936498
 30
0.0
 10
15.2631732174
 20
16.1702395429
 30
0.0
 10
15.1571122818
 20
16.2871791001
 30
0.0
 10
15.1072816722
 20
16.3452521726
 30
0.0
  0
SPLINE
  5
4F3
100
AcDbEntity
  8
00_COMPONENTS_6
100
AcDbSpline
 62
7
  6
BYLAYER
 70
0
 71
3
 72
15
 73
11
 74
0
 42
0.0000001
 43
0.0000001
 44
0.0000000001
 40
0.0
 40
0.0
 40
0.0
 40
0.0
 40
0.0974455147
 40
0.199971162
 40
0.3108238662
 40
0.4316569592
 40
0.5629913662
 40
0.70334507
 40
0.8500237197
 40
1.0
 40
1.0
 40
1.0
 40
1.0
 10
16.686880684
 20
18.2966406605
 30
0.0
 10
16.6741879895
 20
18.2966406705
 30
0.0
 10
16.6480025698
 20
18.2923010582
 30
0.0
 10
16.6112497918
 20
18.2742661386
 30
0.0
 10
16.5776876737
 20
18.2459584569
 30
0.0
 10
16.5485109376
 20
18.2083589467
 30
0.0
 10
16.5250146367
 20
18.1626812995
 30
0.0
 10
16.5075417642
 20
18.110880047
 30
0.0
 10
16.4966185672
 20
18.0548627886
 30
0.0
 10
16.4941026427
 20
18.016175372
 30
0.0
 10
16.4941248038
 20
17.9966403336
 30
0.0
  0
SPLINE
  5
4F4
100
AcDbEntity
  8
00_COMPONENTS_6
100
AcDbSpline
 62
7
  6
BYLAYER
 70
0
 71
3
 72
20
 73
16
 74
0
 42
0.0000001
 43
0.0000001
 44
0.0000000001
 40
0.0
 40
0.0
 40
0.0
 40
0.0
 40
0.0328433764
 40
0.0686247984
 40
0.1090446021
 40
0.1549820285
 40
0.2067402972
 40
0.2642816557
 40
0.3956898296
 40
0.5439773194
 40
0.6217216412
 40
0.7002679189
 40
0.8553129887
 40
0.9296848354
 40
1.0
 40
1.0
 40
1.0
 40
1.0
 10
16.9387353586
 20
18.1596408557
 30
0.0
 10
16.9357036617
 20
18.1643324747
 30
0.0
 10
16.9275046788
 20
18.1730037428
 30
0.0
 10
16.9110830612
 20
18.1820638039
 30
0.0
 10
16.8909354421
 20
18.1876731005
 30
0.0
 10
16.8674692187
 20
18.1899583707
 30
0.0
 10
16.8410225142
 20
18.1890309749
 30
0.0
 10
16.8004328505
 20
18.1832190872
 30
0.0
 10
16.7451324909
 20
18.166946495
 30
0.0
 10
16.6895887156
 20
18.1418752661
 30
0.0
 10
16.6443272076
 20
18.1166324115
 30
0.0
 10
16.5994979246
 20
18.0884227183
 30
0.0
 10
16.5573561833
 20
18.0570900717
 30
0.0
 10
16.5194001402
 20
18.0230198003
 30
0.0
 10
16.5022349092
 20
18.0053465847
 30
0.0
 10
16.4942788266
 20
17.9964180351
 30
0.0
  0
SPLINE
  5
4F5
100
AcDbEntity
  8
00_COMPONENTS_6
100
AcDbSpline
 62
7
  6
BYLAYER
 70
0
 71
3
 72
21
 73
17
 74
0
 42
0.0000001
 43
0.0000001
 44
0.0000000001
 40
0.0
 40
0.0
 40
0.0
 40
0.0
 40
0.033460643
 40
0.0694500652
 40
0.1096531937
 40
0.1550316591
 40
0.205985135
 40
0.2625609015
 40
0.3245618787
 40
0.391559315
 40
0.4627900655
 40
0.5373984137
 40
0.6144258846
 40
0.69283098
 40
0.8497235185
 40
1.0
 40
1.0
 40
1.0
 40
1.0
 10
17.2120655301
 20
17.791545457
 30
0.0
 10
17.2085807302
 20
17.795652799
 30
0.0
 10
17.199916418
 20
17.8030370847
 30
0.0
 10
17.1836241298
 20
17.8102977335
 30
0.0
 10
17.1642693096
 20
17.8140006867
 30
0.0
 10
17.1422032945
 20
17.8142449014
 30
0.0
 10
17.1177284067
 20
17.8110788396
 30
0.0
 10
17.0911820749
 20
17.8045507432
 30
0.0
 10
17.0629196102
 20
17.7947629
 30
0.0
 10
17.0333624607
 20
17.7818321148
 30
0.0
 10
17.002984563
 20
17.7659297452
 30
0.0
 10
16.972338646
 20
17.7472313899
 30
0.0
 10
16.9418782512
 20
17.7261383807
 30
0.0
 10
16.9020736368
 20
17.6953929087
 30
0.0
 10
16.8558875025
 20
17.6537570571
 30
0.0
 10
16.8229477932
 20
17.6166855353
 30
0.0
 10
16.8081462044
 20
17.5975508198
 30
0.0
  0
SPLINE
  5
4F6
100
AcDbEntity
  8
00_COMPONENTS_6
100
AcDbSpline
 62
7
  6
BYLAYER
 70
0
 71
3
 72
11
 73
7
 74
0
 42
0.0000001
 43
0.0000001
 44
0.0000000001
 40
0.0
 40
0.0
 40
0.0
 40
0.0
 40
0.2550592829
 40
0.5081232913
 40
0.7567087397
 40
1.0
 40
1.0
 40
1.0
 40
1.0
 10
14.1474525401
 20
17.996640341
 30
0.0
 10
14.1474678862
 20
18.0189893132
 30
0.0
 10
14.152022932
 20
18.0636372834
 30
0.0
 10
14.1720250427
 20
18.127328969
 30
0.0
 10
14.2043253286
 20
18.1845993966
 30
0.0
 10
14.2333989582
 20
18.2169847783
 30
0.0
 10
14.2493597719
 20
18.2311163875
 30
0.0
  0
SPLINE
  5
4F7
100
AcDbEntity
  8
00_COMPONENTS_6
100
AcDbSpline
 62
7
  6
BYLAYER
 70
0
 71
3
 72
9
 73
5
 74
0
 42
0.0000001
 43
0.0000001
 44
0.0000000001
 40
0.0
 40
0.0
 40
0.0
 40
0.0
 40
0.5034743234
 40
1.0
 40
1.0
 40
1.0
 40
1.0
 10
14.2808962221
 20
18.2551823478
 30
0.0
 10
14.2983896541
 20
18.2665953284
 30
0.0
 10
14.3359675989
 20
18.2852419995
 30
0.0
 10
14.3770212697
 20
18.2940141941
 30
0.0
 10
14.3975455039
 20
18.2957671236
 30
0.0
  0
SPLINE
  5
4F8
100
AcDbEntity
  8
00_COMPONENTS_6
100
AcDbSpline
 62
7
  6
BYLAYER
 70
0
 71
3
 72
14
 73
10
 74
0
 42
0.0000001
 43
0.0000001
 44
0.0000000001
 40
0.0
 40
0.0
 40
0.0
 40
0.0
 40
0.1188420196
 40
0.2387601749
 40
0.3603899027
 40
0.4840885531
 40
0.6103513348
 40
0.7391358557
 40
1.0
 40
1.0
 40
1.0
 40
1.0
 10
15.3778044826
 20
18.2966406605
 30
0.0
 10
15.3600985149
 20
18.29664067
 30
0.0
 10
15.3244144628
 20
18.2925233836
 30
0.0
 10
15.2732696586
 20
18.2750048036
 30
0.0
 10
15.2261109202
 20
18.247109656
 30
0.0
 10
15.1847819916
 20
18.2097027688
 30
0.0
 10
15.1512833638
 20
18.1638097963
 30
0.0
 10
15.1180152199
 20
18.0942203486
 30
0.0
 10
15.107219868
 20
18.0355057881
 30
0.0
 10
15.1072816719
 20
17.9966403574
 30
0.0
  0
SPLINE
  5
4F9
100
AcDbEntity
  8
00_COMPONENTS_6
100
AcDbSpline
 62
7
  6
BYLAYER
 70
0
 71
3
 72
9
 73
5
 74
0
 42
0.0000001
 43
0.0000001
 44
0.0000000001
 40
0.0
 40
0.0
 40
0.0
 40
0.0
 40
0.4965177083
 40
1.0
 40
1.0
 40
1.0
 40
1.0
 10
25.4647803679
 20
18.2958407312
 30
0.0
 10
25.4854167464
 20
18.2941532544
 30
0.0
 10
25.526713755
 20
18.285454338
 30
0.0
 10
25.564519673
 20
18.2667670131
 30
0.0
 10
25.5821140283
 20
18.2553102445
 30
0.0
  0
SPLINE
  5
4FA
100
AcDbEntity
  8
00_COMPONENTS_6
100
AcDbSpline
 62
7
  6
BYLAYER
 70
0
 71
3
 72
11
 73
7
 74
0
 42
0.0000001
 43
0.0000001
 44
0.0000000001
 40
0.0
 40
0.0
 40
0.0
 40
0.0
 40
0.2432378669
 40
0.491807995
 40
0.7448919627
 40
1.0
 40
1.0
 40
1.0
 40
1.0
 10
25.6128755074
 20
18.2319722338
 30
0.0
 10
25.6289770754
 20
18.2178496421
 30
0.0
 10
25.6583198126
 20
18.1854213945
 30
0.0
 10
25.6909344337
 20
18.1279580416
 30
0.0
 10
25.7111376697
 20
18.0639769209
 30
0.0
 10
25.7157385048
 20
18.0191029942
 30
0.0
 10
25.715753929
 20
17.996640341
 30
0.0
  0
SPLINE
  5
4FB
100
AcDbEntity
  8
00_COMPONENTS_6
100
AcDbSpline
 62
7
  6
BYLAYER
 70
0
 71
3
 72
14
 73
10
 74
0
 42
0.0000001
 43
0.0000001
 44
0.0000000001
 40
0.0
 40
0.0
 40
0.0
 40
0.0
 40
0.2608641443
 40
0.3896486652
 40
0.5159114469
 40
0.6396100973
 40
0.7612398251
 40
0.8811579804
 40
1.0
 40
1.0
 40
1.0
 40
1.0
 10
24.7559247974
 20
17.9966403574
 30
0.0
 10
24.7559866012
 20
18.0355057881
 30
0.0
 10
24.7451912493
 20
18.0942203486
 30
0.0
 10
24.7119231054
 20
18.1638097963
 30
0.0
 10
24.6784244776
 20
18.2097027688
 30
0.0
 10
24.637095549
 20
18.247109656
 30
0.0
 10
24.5899368106
 20
18.2750048036
 30
0.0
 10
24.5387920064
 20
18.2925233836
 30
0.0
 10
24.5031079543
 20
18.29664067
 30
0.0
 10
24.4854019866
 20
18.2966406605
 30
0.0
  0
SPLINE
  5
4FC
100
AcDbEntity
  8
00_COMPONENTS_6
100
AcDbSpline
 62
7
  6
BYLAYER
 70
0
 71
3
 72
11
 73
7
 74
0
 42
0.0000001
 43
0.0000001
 44
0.0000000001
 40
0.0
 40
0.0
 40
0.0
 40
0.0
 40
0.2674425243
 40
0.52182237
 40
0.7646840101
 40
1.0
 40
1.0
 40
1.0
 40
1.0
 10
25.7201008269
 20
22.2061823489
 30
0.0
 10
25.7235596071
 20
22.2143674616
 30
0.0
 10
25.7291510075
 20
22.2308668
 30
0.0
 10
25.7332044508
 20
22.2560838705
 30
0.0
 10
25.732360174
 20
22.2805783464
 30
0.0
 10
25.7283398676
 20
22.2961060456
 30
0.0
 10
25.7255618866
 20
22.3034143613
 30
0.0
  0
SPLINE
  5
4FD
100
AcDbEntity
  8
00_COMPONENTS_6
100
AcDbSpline
 62
7
  6
BYLAYER
 70
0
 71
3
 72
15
 73
11
 74
0
 42
0.0000001
 43
0.0000001
 44
0.0000000001
 40
0.0
 40
0.0
 40
0.0
 40
0.0
 40
0.1499762803
 40
0.29665493
 40
0.4370086338
 40
0.5683430408
 40
0.6891761338
 40
0.800028838
 40
0.9025544853
 40
1.0
 40
1.0
 40
1.0
 40
1.0
 10
23.3690816653
 20
17.9966403336
 30
0.0
 10
23.3691038264
 20
18.016175372
 30
0.0
 10
23.3665879019
 20
18.0548627886
 30
0.0
 10
23.3556647049
 20
18.110880047
 30
0.0
 10
23.3381918324
 20
18.1626812994
 30
0.0
 10
23.3146955315
 20
18.2083589467
 30
0.0
 10
23.2855187954
 20
18.2459584569
 30
0.0
 10
23.2519566773
 20
18.2742661386
 30
0.0
 10
23.2152038993
 20
18.2923010582
 30
0.0
 10
23.1890184796
 20
18.2966406705
 30
0.0
 10
23.1763257851
 20
18.2966406605
 30
0.0
  0
SPLINE
  5
4FE
100
AcDbEntity
  8
00_COMPONENTS_6
100
AcDbSpline
 62
7
  6
BYLAYER
 70
0
 71
3
 72
18
 73
14
 74
0
 42
0.0000001
 43
0.0000001
 44
0.0000000001
 40
0.0
 40
0.0
 40
0.0
 40
0.0
 40
0.0328106678
 40
0.0684110121
 40
0.1086188426
 40
0.1544548656
 40
0.2063163275
 40
0.2641502364
 40
0.3959541729
 40
0.544176469
 40
0.7003176872
 40
0.8552906082
 40
1.0
 40
1.0
 40
1.0
 40
1.0
 10
22.9244712992
 20
18.1596345841
 30
0.0
 10
22.9275019006
 20
18.1643215202
 30
0.0
 10
22.9355835042
 20
18.1730298215
 30
0.0
 10
22.9518195676
 20
18.1822878542
 30
0.0
 10
22.9718525579
 20
18.1880409368
 30
0.0
 10
22.9952882187
 20
18.1903809504
 30
0.0
 10
23.0217922185
 20
18.1893651522
 30
0.0
 10
23.0624856376
 20
18.1832788153
 30
0.0
 10
23.117833456
 20
18.1668015439
 30
0.0
 10
23.1856386078
 20
18.1362884443
 30
0.0
 10
23.2529732756
 20
18.0963257779
 30
0.0
 10
23.3151930932
 20
18.0498356664
 30
0.0
 10
23.3524563681
 20
18.0147975347
 30
0.0
 10
23.369060374
 20
17.9966241285
 30
0.0
  0
SPLINE
  5
4FF
100
AcDbEntity
  8
00_COMPONENTS_6
100
AcDbSpline
 62
7
  6
BYLAYER
 70
0
 71
3
 72
21
 73
17
 74
0
 42
0.0000001
 43
0.0000001
 44
0.0000000001
 40
0.0
 40
0.0
 40
0.0
 40
0.0
 40
0.0334676819
 40
0.0696035693
 40
0.1100007904
 40
0.1554912629
 40
0.2063925821
 40
0.262764802
 40
0.3245753918
 40
0.3915330639
 40
0.4628136146
 40
0.5374718531
 40
0.6145215545
 40
0.6929029605
 40
0.8497561244
 40
1.0
 40
1.0
 40
1.0
 40
1.0
 10
22.6511487163
 20
17.7915812006
 30
0.0
 10
22.6546324984
 20
17.7956875324
 30
0.0
 10
22.6633988956
 20
17.8030093856
 30
0.0
 10
22.6798448439
 20
17.8100289222
 30
0.0
 10
22.6992888965
 20
17.8135514396
 30
0.0
 10
22.721380182
 20
17.8137072451
 30
0.0
 10
22.7458204787
 20
17.810582859
 30
0.0
 10
22.7723112052
 20
17.8041866079
 30
0.0
 10
22.8005233954
 20
17.7945040214
 30
0.0
 10
22.8300438663
 20
17.7815960043
 30
0.0
 10
22.8603969307
 20
17.7656583889
 30
0.0
 10
22.8909981728
 20
17.7468809946
 30
0.0
 10
22.9214030919
 20
17.7257272937
 30
0.0
 10
22.961188885
 20
17.6950103992
 30
0.0
 10
23.0074702872
 20
17.6535592811
 30
0.0
 10
23.0405087163
 20
17.6166098006
 30
0.0
 10
23.0552908235
 20
17.5974811953
 30
0.0
  0
SPLINE
  5
500
100
AcDbEntity
  8
00_COMPONENTS_6
100
AcDbSpline
 62
7
  6
BYLAYER
 70
0
 71
3
 72
22
 73
18
 74
0
 42
0.0000001
 43
0.0000001
 44
0.0000000001
 40
0.0
 40
0.0
 40
0.0
 40
0.0
 40
0.0011823727
 40
0.0048752977
 40
0.0110264203
 40
0.019583322
 40
0.0304935782
 40
0.0437047622
 40
0.0768336558
 40
0.1186502587
 40
0.1688688528
 40
0.2271898105
 40
0.293081487
 40
0.4446801768
 40
0.61762038
 40
0.8052815565
 40
1.0
 40
1.0
 40
1.0
 40
1.0
 10
22.6510615196
 20
17.7914781793
 30
0.0
 10
22.6509879357
 20
17.7915707277
 30
0.0
 10
22.6517759164
 20
17.7908423166
 30
0.0
 10
22.6522103594
 20
17.7905402416
 30
0.0
 10
22.653847834
 20
17.7891174254
 30
0.0
 10
22.6556992721
 20
17.7875628979
 30
0.0
 10
22.6582294141
 20
17.7854085221
 30
0.0
 10
22.6625735255
 20
17.7817195907
 30
0.0
 10
22.6692997958
 20
17.7759954125
 30
0.0
 10
22.6788273971
 20
17.7678895967
 30
0.0
 10
22.6902827128
 20
17.7581470593
 30
0.0
 10
22.7035747459
 20
17.7468532632
 30
0.0
 10
22.7245990095
 20
17.7290009603
 30
0.0
 10
22.7543584319
 20
17.703728556
 30
0.0
 10
22.7933925532
 20
17.6705654939
 30
0.0
 10
22.8357788333
 20
17.6346885992
 30
0.0
 10
22.8650114065
 20
17.610039575
 30
0.0
 10
22.8799056424
 20
17.5974973362
 30
0.0
  0
SPLINE
  5
501
100
AcDbEntity
  8
00_COMPONENTS_6
100
AcDbSpline
 62
7
  6
BYLAYER
 70
0
 71
3
 72
14
 73
10
 74
0
 42
0.0000001
 43
0.0000001
 44
0.0000000001
 40
0.0
 40
0.0
 40
0.0
 40
0.0
 40
0.1011780227
 40
0.2059789401
 40
0.3173662234
 40
0.4371375228
 40
0.5660139292
 40
0.7036618308
 40
1.0
 40
1.0
 40
1.0
 40
1.0
 10
21.3605086338
 20
16.8305334175
 30
0.0
 10
21.3509538831
 20
16.8263522535
 30
0.0
 10
21.3325332201
 20
16.8152669841
 30
0.0
 10
21.3092527661
 20
16.7918751419
 30
0.0
 10
21.2907260465
 20
16.7623187882
 30
0.0
 10
21.277267163
 20
16.7275272845
 30
0.0
 10
21.2691932824
 20
16.6883685327
 30
0.0
 10
21.2656451587
 20
16.6303172707
 30
0.0
 10
21.2716246828
 20
16.5854272805
 30
0.0
 10
21.2787287684
 20
16.5557179668
 30
0.0
  0
SPLINE
  5
502
100
AcDbEntity
  8
00_COMPONENTS_6
100
AcDbSpline
 62
7
  6
BYLAYER
 70
0
 71
3
 72
15
 73
11
 74
0
 42
0.0000001
 43
0.0000001
 44
0.0000000001
 40
0.0
 40
0.0
 40
0.0
 40
0.0
 40
0.1011146746
 40
0.2058165418
 40
0.3171661996
 40
0.4368734854
 40
0.5656595469
 40
0.7032706778
 40
0.8485529444
 40
1.0
 40
1.0
 40
1.0
 40
1.0
 10
18.502658296
 20
16.8305521775
 30
0.0
 10
18.5122652969
 20
16.8264732752
 30
0.0
 10
18.5307785381
 20
16.8154784191
 30
0.0
 10
18.5540461522
 20
16.7920347171
 30
0.0
 10
18.5725985149
 20
16.762469178
 30
0.0
 10
18.5860809973
 20
16.727652833
 30
0.0
 10
18.5942435494
 20
16.6884898746
 30
0.0
 10
18.5969481752
 20
16.6459442986
 30
0.0
 10
18.593830344
 20
16.601121579
 30
0.0
 10
18.588431863
 20
16.57089179
 30
0.0
 10
18.5846995374
 20
16.5557115384
 30
0.0
  0
SPLINE
  5
503
100
AcDbEntity
  8
00_COMPONENTS_6
100
AcDbSpline
 62
7
  6
BYLAYER
 70
0
 71
3
 72
11
 73
7
 74
0
 42
0.0000001
 43
0.0000001
 44
0.0000000001
 40
0.0
 40
0.0
 40
0.0
 40
0.0
 40
0.2674426499
 40
0.5218225914
 40
0.7646842194
 40
1.0
 40
1.0
 40
1.0
 40
1.0
 10
14.1431056544
 20
17.9870982653
 30
0.0
 10
14.1396468428
 20
17.9789131594
 30
0.0
 10
14.134055375
 20
17.9624138331
 30
0.0
 10
14.1300018085
 20
17.9371967722
 30
0.0
 10
14.1308459303
 20
17.912702292
 30
0.0
 10
14.1348661273
 20
17.8971745693
 30
0.0
 10
14.1376440545
 20
17.8898662389
 30
0.0
  0
SPLINE
  5
504
100
AcDbEntity
  8
00_COMPONENTS_6
100
AcDbSpline
 62
7
  6
BYLAYER
 70
0
 71
3
 72
15
 73
11
 74
0
 42
0.0000001
 43
0.0000001
 44
0.0000000001
 40
0.0
 40
0.0
 40
0.0
 40
0.0
 40
0.0974455147
 40
0.199971162
 40
0.3108238662
 40
0.4316569592
 40
0.5629913662
 40
0.70334507
 40
0.8500237197
 40
1.0
 40
1.0
 40
1.0
 40
1.0
 10
23.1763257851
 20
21.8966400071
 30
0.0
 10
23.1890184796
 20
21.8966399971
 30
0.0
 10
23.2152038993
 20
21.9009796094
 30
0.0
 10
23.2519566773
 20
21.919014529
 30
0.0
 10
23.2855187954
 20
21.9473222107
 30
0.0
 10
23.3146955315
 20
21.9849217209
 30
0.0
 10
23.3381918324
 20
22.0305993681
 30
0.0
 10
23.3556647049
 20
22.0824006206
 30
0.0
 10
23.3665879019
 20
22.138417879
 30
0.0
 10
23.3691038264
 20
22.1771052956
 30
0.0
 10
23.3690816653
 20
22.196640334
 30
0.0
  0
SPLINE
  5
505
100
AcDbEntity
  8
00_COMPONENTS_6
100
AcDbSpline
 62
7
  6
BYLAYER
 70
0
 71
3
 72
11
 73
7
 74
0
 42
0.0000001
 43
0.0000001
 44
0.0000000001
 40
0.0
 40
0.0
 40
0.0
 40
0.0
 40
0.2550592823
 40
0.5081232904
 40
0.756708739
 40
1.0
 40
1.0
 40
1.0
 40
1.0
 10
25.715753929
 20
22.1966403266
 30
0.0
 10
25.7157385829
 20
22.1742913559
 30
0.0
 10
25.7111835377
 20
22.1296433886
 30
0.0
 10
25.6911814296
 20
22.0659517067
 30
0.0
 10
25.6588811477
 20
22.0086812816
 30
0.0
 10
25.6298075216
 20
21.9762959005
 30
0.0
 10
25.6138467097
 20
21.9621642912
 30
0.0
  0
SPLINE
  5
506
100
AcDbEntity
  8
00_COMPONENTS_6
100
AcDbSpline
 62
7
  6
BYLAYER
 70
0
 71
3
 72
9
 73
5
 74
0
 42
0.0000001
 43
0.0000001
 44
0.0000000001
 40
0.0
 40
0.0
 40
0.0
 40
0.0
 40
0.5034743225
 40
1.0
 40
1.0
 40
1.0
 40
1.0
 10
25.582310231
 20
21.9380983093
 30
0.0
 10
25.5648168016
 20
21.9266853323
 30
0.0
 10
25.5272388634
 20
21.9080386668
 30
0.0
 10
25.4861852008
 20
21.8992664741
 30
0.0
 10
25.4656609707
 20
21.8975135445
 30
0.0
  0
SPLINE
  5
507
100
AcDbEntity
  8
00_COMPONENTS_6
100
AcDbSpline
 62
7
  6
BYLAYER
 70
0
 71
3
 72
11
 73
7
 74
0
 42
0.0000001
 43
0.0000001
 44
0.0000000001
 40
0.0
 40
0.0
 40
0.0
 40
0.0
 40
0.2353159988
 40
0.4781776426
 40
0.7325574846
 40
1.0
 40
1.0
 40
1.0
 40
1.0
 10
25.7255619037
 20
17.8898663121
 30
0.0
 10
25.7283398806
 20
17.8971746206
 30
0.0
 10
25.7323601815
 20
17.9127023034
 30
0.0
 10
25.7332044597
 20
17.9371967527
 30
0.0
 10
25.729151026
 20
17.9624137961
 30
0.0
 10
25.7235596367
 20
17.9789131177
 30
0.0
 10
25.7201008631
 20
17.9870982224
 30
0.0
  0
SPLINE
  5
508
100
AcDbEntity
  8
00_COMPONENTS_6
100
AcDbSpline
 62
7
  6
BYLAYER
 70
0
 71
3
 72
11
 73
7
 74
0
 42
0.0000001
 43
0.0000001
 44
0.0000000001
 40
0.0
 40
0.0
 40
0.0
 40
0.0
 40
0.2362154945
 40
0.4824569974
 40
0.7380457425
 40
1.0
 40
1.0
 40
1.0
 40
1.0
 10
24.7169523221
 20
16.1545025449
 30
0.0
 10
24.7270270775
 20
16.1667324119
 30
0.0
 10
24.7445177114
 20
16.1944230591
 30
0.0
 10
24.7600671989
 20
16.241929835
 30
0.0
 10
24.7641929866
 20
16.2934096692
 30
0.0
 10
24.7598120175
 20
16.3281162217
 30
0.0
 10
24.7559248609
 20
16.3452526182
 30
0.0
  0
SPLINE
  5
509
100
AcDbEntity
  8
00_COMPONENTS_6
100
AcDbSpline
 62
7
  6
BYLAYER
 70
0
 71
3
 72
15
 73
11
 74
0
 42
0.0000001
 43
0.0000001
 44
0.0000000001
 40
0.0
 40
0.0
 40
0.0
 40
0.0
 40
0.0907302765
 40
0.1872683546
 40
0.2936279555
 40
0.4118863794
 40
0.5425392702
 40
0.6851005883
 40
0.8384124994
 40
1.0
 40
1.0
 40
1.0
 40
1.0
 10
23.0298167219
 20
14.7262563959
 30
0.0
 10
23.0371597243
 20
14.730492846
 30
0.0
 10
23.0510022505
 20
14.7417096989
 30
0.0
 10
23.066612539
 20
14.7646497807
 30
0.0
 10
23.0771629235
 20
14.7929865774
 30
0.0
 10
23.082762589
 20
14.8258593013
 30
0.0
 10
23.0834075891
 20
14.8625460966
 30
0.0
 10
23.0790639511
 20
14.902255226
 30
0.0
 10
23.0697001331
 20
14.9440373367
 30
0.0
 10
23.0604594244
 20
14.9720250823
 30
0.0
 10
23.0550909545
 20
14.9861364486
 30
0.0
  0
SPLINE
  5
50A
100
AcDbEntity
  8
00_COMPONENTS_6
100
AcDbSpline
 62
7
  6
BYLAYER
 70
0
 71
3
 72
16
 73
12
 74
0
 42
0.0000001
 43
0.0000001
 44
0.0000000001
 40
0.0
 40
0.0
 40
0.0
 40
0.0
 40
0.1049131007
 40
0.2163224845
 40
0.3339704765
 40
0.4572839338
 40
0.585756409
 40
0.6518323915
 40
0.7190967565
 40
0.8571701146
 40
1.0
 40
1.0
 40
1.0
 40
1.0
 10
24.7559248938
 20
16.3452522758
 30
0.0
 10
24.7061148923
 20
16.2871480433
 30
0.0
 10
24.6000630757
 20
16.1701917197
 30
0.0
 10
24.428664316
 20
15.9969800453
 30
0.0
 10
24.2411103655
 20
15.8211082741
 30
0.0
 10
24.0370021255
 20
15.6450102166
 30
0.0
 10
23.8547912673
 20
15.5014568298
 30
0.0
 10
23.7005542534
 20
15.3887904369
 30
0.0
 10
23.5376991568
 20
15.2761529441
 30
0.0
 10
23.3232797309
 20
15.1398397696
 30
0.0
 10
23.145993731
 20
15.036990041
 30
0.0
 10
23.055064515
 20
14.9861202398
 30
0.0
  0
SPLINE
  5
50B
100
AcDbEntity
  8
00_COMPONENTS_6
100
AcDbSpline
 62
7
  6
BYLAYER
 70
0
 71
3
 72
20
 73
16
 74
0
 42
0.0000001
 43
0.0000001
 44
0.0000000001
 40
0.0
 40
0.0
 40
0.0
 40
0.0
 40
0.0328434045
 40
0.0686248394
 40
0.1090446464
 40
0.1549820694
 40
0.2067403293
 40
0.2642816751
 40
0.3956898189
 40
0.54397729
 40
0.6217216106
 40
0.7002678919
 40
0.855312985
 40
0.9296848383
 40
1.0
 40
1.0
 40
1.0
 40
1.0
 10
22.9244711112
 20
22.0336398108
 30
0.0
 10
22.9275028081
 20
22.0289481872
 30
0.0
 10
22.9357017879
 20
22.0202769099
 30
0.0
 10
22.9521234029
 20
22.0112168347
 30
0.0
 10
22.9722710175
 20
22.005607527
 30
0.0
 10
22.9957372343
 20
22.0033222478
 30
0.0
 10
23.0221839303
 20
22.004249637
 30
0.0
 10
23.0627735787
 20
22.0100615187
 30
0.0
 10
23.1180739171
 20
22.0263341109
 30
0.0
 10
23.1736176699
 20
22.0514053427
 30
0.0
 10
23.2188791594
 20
22.0766482061
 30
0.0
 10
23.2637084196
 20
22.1048579269
 30
0.0
 10
23.3058501321
 20
22.1361906012
 30
0.0
 10
23.3438062039
 20
22.170260832
 30
0.0
 10
23.3609714623
 20
22.187934015
 30
0.0
 10
23.3689275611
 20
22.1968625467
 30
0.0
  0
SPLINE
  5
50C
100
AcDbEntity
  8
00_COMPONENTS_6
100
AcDbSpline
 62
7
  6
BYLAYER
 70
0
 71
3
 72
21
 73
17
 74
0
 42
0.0000001
 43
0.0000001
 44
0.0000000001
 40
0.0
 40
0.0
 40
0.0
 40
0.0
 40
0.0334607786
 40
0.0694502894
 40
0.1096534614
 40
0.1550319422
 40
0.2059854234
 40
0.2625611905
 40
0.3245621605
 40
0.3915595862
 40
0.4627903316
 40
0.5373986809
 40
0.61442615
 40
0.6928312437
 40
0.8497238016
 40
1.0
 40
1.0
 40
1.0
 40
1.0
 10
22.6511407702
 20
22.4017354314
 30
0.0
 10
22.6546255789
 20
22.397628073
 30
0.0
 10
22.6632898993
 20
22.3902437548
 30
0.0
 10
22.6795821986
 20
22.3829830538
 30
0.0
 10
22.6989370218
 20
22.3792800573
 30
0.0
 10
22.7210030321
 20
22.379035805
 30
0.0
 10
22.7454779117
 20
22.3822018263
 30
0.0
 10
22.7720242353
 20
22.388729878
 30
0.0
 10
22.8002866907
 20
22.398517678
 30
0.0
 10
22.8298438294
 20
22.4114484241
 30
0.0
 10
22.8602217237
 20
22.4273507434
 30
0.0
 10
22.8908676565
 20
22.4460490236
 30
0.0
 10
22.9213280639
 20
22.4671419712
 30
0.0
 10
22.9611326216
 20
22.4978874711
 30
0.0
 10
23.0073186295
 20
22.539523306
 30
0.0
 10
23.0402588866
 20
22.5765941777
 30
0.0
 10
23.0550609212
 20
22.5957284699
 30
0.0
  0
SPLINE
  5
50D
100
AcDbEntity
  8
00_COMPONENTS_6
100
AcDbSpline
 62
7
  6
BYLAYER
 70
0
 71
3
 72
15
 73
11
 74
0
 42
0.0000001
 43
0.0000001
 44
0.0000000001
 40
0.0
 40
0.0
 40
0.0
 40
0.0
 40
0.1011524903
 40
0.2058479078
 40
0.3171946874
 40
0.4368981305
 40
0.5656800757
 40
0.7032861658
 40
0.8485621066
 40
1.0
 40
1.0
 40
1.0
 40
1.0
 10
21.3605480962
 20
23.3627283142
 30
0.0
 10
21.3509371197
 20
23.3668104757
 30
0.0
 10
21.3324190317
 20
23.3778078152
 30
0.0
 10
21.3091504523
 20
23.4012596143
 30
0.0
 10
21.2905996595
 20
23.4308283952
 30
0.0
 10
21.277119764
 20
23.4656485456
 30
0.0
 10
21.2689600001
 20
23.5048146787
 30
0.0
 10
21.2662585539
 20
23.5473631047
 30
0.0
 10
21.2693801765
 20
23.5921877465
 30
0.0
 10
21.2747803492
 20
23.6224189038
 30
0.0
 10
21.2785162882
 20
23.6375988806
 30
0.0
  0
SPLINE
  5
50E
100
AcDbEntity
  8
00_COMPONENTS_6
100
AcDbSpline
 62
7
  6
BYLAYER
 70
0
 71
3
 72
14
 73
10
 74
0
 42
0.0000001
 43
0.0000001
 44
0.0000000001
 40
0.0
 40
0.0
 40
0.0
 40
0.0
 40
0.2764915616
 40
0.4228237977
 40
0.5645978701
 40
0.6949911674
 40
0.8102839809
 40
0.9109237365
 40
1.0
 40
1.0
 40
1.0
 40
1.0
 10
21.2787276484
 20
25.7896154523
 30
0.0
 10
21.2847896531
 20
25.8303934094
 30
0.0
 10
21.3027897118
 20
25.8919070844
 30
0.0
 10
21.3431907097
 20
25.9660551049
 30
0.0
 10
21.3820319774
 20
26.015356391
 30
0.0
 10
21.4263173588
 20
26.0531446142
 30
0.0
 10
21.4728552708
 20
26.0768212882
 30
0.0
 10
21.5180918777
 20
26.0857533345
 30
0.0
 10
21.5467121813
 20
26.0825861515
 30
0.0
 10
21.5595289285
 20
26.0791028602
 30
0.0
  0
SPLINE
  5
50F
100
AcDbEntity
  8
00_COMPONENTS_6
100
AcDbSpline
 62
7
  6
BYLAYER
 70
0
 71
3
 72
15
 73
11
 74
0
 42
0.0000001
 43
0.0000001
 44
0.0000000001
 40
0.0
 40
0.0
 40
0.0
 40
0.0
 40
0.1459083605
 40
0.2912287118
 40
0.4319310451
 40
0.5648589594
 40
0.6877252664
 40
0.7998492994
 40
0.9027480738
 40
1.0
 40
1.0
 40
1.0
 40
1.0
 10
18.5844796383
 20
25.7896327924
 30
0.0
 10
18.5813228942
 20
25.8111791937
 30
0.0
 10
18.5717977519
 20
25.8537744513
 30
0.0
 10
18.5487837596
 20
25.9142221387
 30
0.0
 10
18.5180061687
 20
25.9689358151
 30
0.0
 10
18.4809036833
 20
26.01541146
 30
0.0
 10
18.4390068732
 20
26.0514778607
 30
0.0
 10
18.3940491019
 20
26.0754184567
 30
0.0
 10
18.3479607078
 20
26.0857883301
 30
0.0
 10
18.3175884498
 20
26.0828921879
 30
0.0
 10
18.3035840343
 20
26.0790778191
 30
0.0
  0
SPLINE
  5
510
100
AcDbEntity
  8
00_COMPONENTS_6
100
AcDbSpline
 62
7
  6
BYLAYER
 70
0
 71
3
 72
13
 73
9
 74
0
 42
0.0000001
 43
0.0000001
 44
0.0000000001
 40
0.0
 40
0.0
 40
0.0
 40
0.0
 40
0.1109560241
 40
0.2337600349
 40
0.4999064897
 40
0.7660824835
 40
0.8889519793
 40
1.0
 40
1.0
 40
1.0
 40
1.0
 10
18.5844731907
 20
25.7896849454
 30
0.0
 10
18.6809929945
 20
25.8198909571
 30
0.0
 10
18.8865172047
 20
25.8768306675
 30
0.0
 10
19.3334209571
 20
25.9673497178
 30
0.0
 10
19.9313772581
 20
26.0167816483
 30
0.0
 10
20.5293897701
 20
25.9673512149
 30
0.0
 10
20.9764720705
 20
25.8768586709
 30
0.0
 10
21.1821432052
 20
25.8199088678
 30
0.0
 10
21.2787440982
 20
25.7896812056
 30
0.0
  0
SPLINE
  5
511
100
AcDbEntity
  8
00_COMPONENTS_6
100
AcDbSpline
 62
7
  6
BYLAYER
 70
0
 71
3
 72
15
 73
11
 74
0
 42
0.0000001
 43
0.0000001
 44
0.0000000001
 40
0.0
 40
0.0
 40
0.0
 40
0.0
 40
0.1117260178
 40
0.2346282259
 40
0.3653390239
 40
0.4999988568
 40
0.6346588648
 40
0.7653701711
 40
0.8882731477
 40
1.0
 40
1.0
 40
1.0
 40
1.0
 10
21.278731467
 20
23.6375821636
 30
0.0
 10
21.1857505331
 20
23.6843632464
 30
0.0
 10
20.985470874
 20
23.7729833298
 30
0.0
 10
20.6606061417
 20
23.8768554831
 30
0.0
 10
20.3045404307
 20
23.9456600029
 30
0.0
 10
19.9316072021
 20
23.969761121
 30
0.0
 10
19.5586735318
 20
23.9456597348
 30
0.0
 10
19.2026064432
 20
23.8768553809
 30
0.0
 10
18.8777394687
 20
23.7729839093
 30
0.0
 10
18.6774579613
 20
23.6843642245
 30
0.0
 10
18.5844763058
 20
23.6375828462
 30
0.0
  0
SPLINE
  5
512
100
AcDbEntity
  8
00_COMPONENTS_6
100
AcDbSpline
 62
7
  6
BYLAYER
 70
0
 71
3
 72
14
 73
10
 74
0
 42
0.0000001
 43
0.0000001
 44
0.0000000001
 40
0.0
 40
0.0
 40
0.0
 40
0.0
 40
0.1011779888
 40
0.2059787583
 40
0.3173658545
 40
0.4371369971
 40
0.5660133321
 40
0.7036612843
 40
1.0
 40
1.0
 40
1.0
 40
1.0
 10
18.5026993254
 20
23.3627479024
 30
0.0
 10
18.5122540274
 20
23.3669290291
 30
0.0
 10
18.5306745898
 20
23.3780142093
 30
0.0
 10
18.5539548862
 20
23.4014059102
 30
0.0
 10
18.5724814217
 20
23.4309621022
 30
0.0
 10
18.5859401017
 20
23.4657534264
 30
0.0
 10
18.5940137674
 20
23.5049119859
 30
0.0
 10
18.5975615937
 20
23.5629630089
 30
0.0
 10
18.5915818556
 20
23.6078527885
 30
0.0
 10
18.5844776473
 20
23.6375619621
 30
0.0
  0
SPLINE
  5
513
100
AcDbEntity
  8
00_COMPONENTS_6
100
AcDbSpline
 62
7
  6
BYLAYER
 70
0
 71
3
 72
22
 73
18
 74
0
 42
0.0000001
 43
0.0000001
 44
0.0000000001
 40
0.0
 40
0.0
 40
0.0
 40
0.0
 40
0.0011823738
 40
0.0048753098
 40
0.0110264504
 40
0.0195833763
 40
0.0304936618
 40
0.0437048798
 40
0.07683385
 40
0.1186505336
 40
0.1688692085
 40
0.2271902391
 40
0.2930819666
 40
0.4446807408
 40
0.6176209875
 40
0.8052820337
 40
1.0
 40
1.0
 40
1.0
 40
1.0
 10
17.2121449495
 20
22.4018024883
 30
0.0
 10
17.2122187791
 20
22.4017101342
 30
0.0
 10
17.2114302857
 20
22.4024381976
 30
0.0
 10
17.2109963954
 20
22.4027407008
 30
0.0
 10
17.2093586302
 20
22.4041633497
 30
0.0
 10
17.2075073255
 20
22.4057180221
 30
0.0
 10
17.2049771198
 20
22.4078724081
 30
0.0
 10
17.200632994
 20
22.4115614179
 30
0.0
 10
17.1939066207
 20
22.4172856416
 30
0.0
 10
17.1843788884
 20
22.425391522
 30
0.0
 10
17.1729234113
 20
22.435134129
 30
0.0
 10
17.1596312192
 20
22.4464280271
 30
0.0
 10
17.1386067459
 20
22.4642805231
 30
0.0
 10
17.1088471155
 20
22.4895532872
 30
0.0
 10
17.0698128091
 20
22.5227168882
 30
0.0
 10
17.0274261212
 20
22.5585940368
 30
0.0
 10
16.9981931101
 20
22.5832430154
 30
0.0
 10
16.983298637
 20
22.5957851875
 30
0.0
  0
SPLINE
  5
514
100
AcDbEntity
  8
00_COMPONENTS_6
100
AcDbSpline
 62
7
  6
BYLAYER
 70
0
 71
3
 72
21
 73
17
 74
0
 42
0.0000001
 43
0.0000001
 44
0.0000000001
 40
0.0
 40
0.0
 40
0.0
 40
0.0
 40
0.0334692961
 40
0.0696052103
 40
0.1100003242
 40
0.1554865116
 40
0.2063816231
 40
0.2627458578
 40
0.3245469546
 40
0.3914951507
 40
0.4627676306
 40
0.5374198966
 40
0.6144668607
 40
0.6928498862
 40
0.8497176626
 40
1.0
 40
1.0
 40
1.0
 40
1.0
 10
17.2120575524
 20
22.4016992308
 30
0.0
 10
17.2085751334
 20
22.3975945147
 30
0.0
 10
17.199813002
 20
22.3902752274
 30
0.0
 10
17.1833755379
 20
22.3832562948
 30
0.0
 10
17.1639417777
 20
22.3797317624
 30
0.0
 10
17.1418623017
 20
22.3795714801
 30
0.0
 10
17.1174350803
 20
22.3826889975
 30
0.0
 10
17.0909583861
 20
22.3890759075
 30
0.0
 10
17.06276063
 20
22.3987466765
 30
0.0
 10
17.0332543794
 20
22.4116409012
 30
0.0
 10
17.0029145031
 20
22.4275629676
 30
0.0
 10
16.9723247669
 20
22.4463236997
 30
0.0
 10
16.9419296986
 20
22.4674609991
 30
0.0
 10
16.9021534337
 20
22.4981575089
 30
0.0
 10
16.8558752383
 20
22.5395841885
 30
0.0
 10
16.8228336809
 20
22.576512656
 30
0.0
 10
16.8080462055
 20
22.5956314623
 30
0.0
  0
SPLINE
  5
515
100
AcDbEntity
  8
00_COMPONENTS_6
100
AcDbSpline
 62
7
  6
BYLAYER
 70
0
 71
3
 72
18
 73
14
 74
0
 42
0.0000001
 43
0.0000001
 44
0.0000000001
 40
0.0
 40
0.0
 40
0.0
 40
0.0
 40
0.032810639
 40
0.0684109701
 40
0.1086188002
 40
0.1544548321
 40
0.2063163084
 40
0.2641502343
 40
0.3959542071
 40
0.5441765388
 40
0.700317778
 40
0.855290694
 40
1.0
 40
1.0
 40
1.0
 40
1.0
 10
16.9387351686
 20
22.0336460913
 30
0.0
 10
16.9357045678
 20
22.0289591603
 30
0.0
 10
16.9276229621
 20
22.0202508695
 30
0.0
 10
16.9113868967
 20
22.0109928539
 30
0.0
 10
16.8913539024
 20
22.0052397857
 30
0.0
 10
16.8679182358
 20
22.0028997837
 30
0.0
 10
16.8414142285
 20
22.0039155895
 30
0.0
 10
16.8007207969
 20
22.0100019316
 30
0.0
 10
16.745372961
 20
22.0264792029
 30
0.0
 10
16.6775677807
 20
22.0569922842
 30
0.0
 10
16.6102330888
 20
22.0969549361
 30
0.0
 10
16.54801327
 20
22.1434450274
 30
0.0
 10
16.5107499226
 20
22.1784830528
 30
0.0
 10
16.4941458586
 20
22.1966563876
 30
0.0
  0
SPLINE
  5
516
100
AcDbEntity
  8
00_COMPONENTS_6
100
AcDbSpline
 62
7
  6
BYLAYER
 70
0
 71
3
 72
17
 73
13
 74
0
 42
0.0000001
 43
0.0000001
 44
0.0000000001
 40
0.0
 40
0.0
 40
0.0
 40
0.0
 40
0.1048922862
 40
0.2163121247
 40
0.3339642508
 40
0.457276369
 40
0.5857475228
 40
0.6518211477
 40
0.7190812765
 40
0.7875238667
 40
0.8571593881
 40
1.0
 40
1.0
 40
1.0
 40
1.0
 10
15.1072816045
 20
23.8480286037
 30
0.0
 10
15.1571214144
 20
23.9060882705
 30
0.0
 10
15.2631857427
 20
24.0230218096
 30
0.0
 10
15.4345300859
 20
24.1962846774
 30
0.0
 10
15.622087764
 20
24.3721715405
 30
0.0
 10
15.8261952739
 20
24.5482753271
 30
0.0
 10
16.0083896739
 20
24.6918482602
 30
0.0
 10
16.162635898
 20
24.8044956004
 30
0.0
 10
16.2837382932
 20
24.8881927235
 30
0.0
 10
16.4091304276
 20
24.970161321
 30
0.0
 10
16.5831617325
 20
25.0783890123
 30
0.0
 10
16.7172471302
 20
25.156230091
 30
0.0
 10
16.8081372552
 20
25.2071878417
 30
0.0
  0
SPLINE
  5
517
100
AcDbEntity
  8
00_COMPONENTS_6
100
AcDbSpline
 62
7
  6
BYLAYER
 70
0
 71
3
 72
11
 73
7
 74
0
 42
0.0000001
 43
0.0000001
 44
0.0000000001
 40
0.0
 40
0.0
 40
0.0
 40
0.0
 40
0.2362156895
 40
0.4824572374
 40
0.7380458928
 40
1.0
 40
1.0
 40
1.0
 40
1.0
 10
15.1462537012
 20
24.0387765542
 30
0.0
 10
15.1361791419
 20
24.0265467502
 30
0.0
 10
15.1186888612
 20
23.9988563263
 30
0.0
 10
15.1031396892
 20
23.9513500661
 30
0.0
 10
15.099013954
 20
23.8998708594
 30
0.0
 10
15.1033947981
 20
23.8651647267
 30
0.0
 10
15.1072818592
 20
23.8480285306
 30
0.0
  0
SPLINE
  5
518
100
AcDbEntity
  8
00_COMPONENTS_6
100
AcDbSpline
 62
7
  6
BYLAYER
 70
0
 71
3
 72
9
 73
5
 74
0
 42
0.0000001
 43
0.0000001
 44
0.0000000001
 40
0.0
 40
0.0
 40
0.0
 40
0.0
 40
0.4965177073
 40
1.0
 40
1.0
 40
1.0
 40
1.0
 10
14.3984261061
 20
21.897439936
 30
0.0
 10
14.3777897234
 20
21.8991274127
 30
0.0
 10
14.3364927061
 20
21.9078263312
 30
0.0
 10
14.2986867812
 20
21.9265136623
 30
0.0
 10
14.2810924231
 20
21.9379704346
 30
0.0
  0
SPLINE
  5
519
100
AcDbEntity
  8
00_COMPONENTS_6
100
AcDbSpline
 62
7
  6
BYLAYER
 70
0
 71
3
 72
11
 73
7
 74
0
 42
0.0000001
 43
0.0000001
 44
0.0000000001
 40
0.0
 40
0.0
 40
0.0
 40
0.0
 40
0.2432378663
 40
0.4918079942
 40
0.7448919621
 40
1.0
 40
1.0
 40
1.0
 40
1.0
 10
14.2503309734
 20
21.9613084235
 30
0.0
 10
14.2342294037
 20
21.9754310151
 30
0.0
 10
14.2048866632
 20
22.0078592632
 30
0.0
 10
14.1722720383
 20
22.0653226185
 30
0.0
 10
14.1520687999
 20
22.1293037426
 30
0.0
 10
14.1474679643
 20
22.174177672
 30
0.0
 10
14.1474525401
 20
22.1966403266
 30
0.0
  0
SPLINE
  5
51A
100
AcDbEntity
  8
00_COMPONENTS_6
100
AcDbSpline
 62
7
  6
BYLAYER
 70
0
 71
3
 72
14
 73
10
 74
0
 42
0.0000001
 43
0.0000001
 44
0.0000000001
 40
0.0
 40
0.0
 40
0.0
 40
0.0
 40
0.2608641443
 40
0.3896486652
 40
0.5159114469
 40
0.6396100973
 40
0.7612398251
 40
0.8811579804
 40
1.0
 40
1.0
 40
1.0
 40
1.0
 10
15.1072816718
 20
22.1966403102
 30
0.0
 10
15.1072198679
 20
22.1577748796
 30
0.0
 10
15.1180152198
 20
22.099060319
 30
0.0
 10
15.1512833637
 20
22.0294708713
 30
0.0
 10
15.1847819915
 20
21.9835778988
 30
0.0
 10
15.2261109201
 20
21.9461710116
 30
0.0
 10
15.2732696585
 20
21.918275864
 30
0.0
 10
15.3244144627
 20
21.900757284
 30
0.0
 10
15.3600985148
 20
21.8966399977
 30
0.0
 10
15.3778044825
 20
21.8966400071
 30
0.0
  0
SPLINE
  5
51B
100
AcDbEntity
  8
00_COMPONENTS_6
100
AcDbSpline
 62
7
  6
BYLAYER
 70
0
 71
3
 72
11
 73
7
 74
0
 42
0.0000001
 43
0.0000001
 44
0.0000000001
 40
0.0
 40
0.0
 40
0.0
 40
0.0
 40
0.2353159571
 40
0.478177656
 40
0.7325575288
 40
1.0
 40
1.0
 40
1.0
 40
1.0
 10
14.1376437746
 20
22.3034136991
 30
0.0
 10
14.1348658753
 20
22.2961054414
 30
0.0
 10
14.1308457046
 20
22.2805778838
 30
0.0
 10
14.1300015206
 20
22.2560836654
 30
0.0
 10
14.1340549376
 20
22.2308668652
 30
0.0
 10
14.1396462599
 20
22.2143676963
 30
0.0
 10
14.1431049883
 20
22.2061826651
 30
0.0
  0
SPLINE
  5
51C
100
AcDbEntity
  8
00_COMPONENTS_6
100
AcDbSpline
 62
7
  6
BYLAYER
 70
0
 71
3
 72
15
 73
11
 74
0
 42
0.0000001
 43
0.0000001
 44
0.0000000001
 40
0.0
 40
0.0
 40
0.0
 40
0.0
 40
0.1499762803
 40
0.29665493
 40
0.4370086338
 40
0.5683430408
 40
0.6891761338
 40
0.800028838
 40
0.9025544853
 40
1.0
 40
1.0
 40
1.0
 40
1.0
 10
16.4941248037
 20
22.196640334
 30
0.0
 10
16.4941026427
 20
22.1771052956
 30
0.0
 10
16.4966185672
 20
22.138417879
 30
0.0
 10
16.5075417642
 20
22.0824006206
 30
0.0
 10
16.5250146367
 20
22.0305993682
 30
0.0
 10
16.5485109376
 20
21.9849217209
 30
0.0
 10
16.5776876737
 20
21.9473222107
 30
0.0
 10
16.6112497918
 20
21.9190145291
 30
0.0
 10
16.6480025698
 20
21.9009796094
 30
0.0
 10
16.6741879895
 20
21.8966399972
 30
0.0
 10
16.686880684
 20
21.8966400072
 30
0.0
  0
SPLINE
  5
51D
100
AcDbEntity
  8
00_COMPONENTS_6
100
AcDbSpline
 62
7
  6
BYLAYER
 70
0
 71
3
 72
16
 73
12
 74
0
 42
0.0000001
 43
0.0000001
 44
0.0000000001
 40
0.0
 40
0.0
 40
0.0
 40
0.0
 40
0.1428270803
 40
0.2809005678
 40
0.3481655565
 40
0.4142418684
 40
0.5427147646
 40
0.666028822
 40
0.7836748529
 40
0.8950798703
 40
1.0
 40
1.0
 40
1.0
 40
1.0
 10
23.0550586428
 20
25.2071557617
 30
0.0
 10
23.1459963381
 20
25.1563048687
 30
0.0
 10
23.3232908418
 20
25.0534717475
 30
0.0
 10
23.5377022318
 20
24.9171470303
 30
0.0
 10
23.700548349
 20
24.8044945378
 30
0.0
 10
23.8547830992
 20
24.6918228293
 30
0.0
 10
24.0369966636
 20
24.5482705801
 30
0.0
 10
24.2411035902
 20
24.3721710765
 30
0.0
 10
24.4286581334
 20
24.1963057312
 30
0.0
 10
24.6000780067
 20
24.0231135857
 30
0.0
 10
24.7061251551
 20
23.9061487403
 30
0.0
 10
24.7559247129
 20
23.8480285943
 30
0.0
  0
SPLINE
  5
51E
100
AcDbEntity
  8
00_COMPONENTS_6
100
AcDbSpline
 62
7
  6
BYLAYER
 70
0
 71
3
 72
14
 73
10
 74
0
 42
0.0000001
 43
0.0000001
 44
0.0000000001
 40
0.0
 40
0.0
 40
0.0
 40
0.0
 40
0.31014087
 40
0.4543238757
 40
0.5872236548
 40
0.7073738485
 40
0.8147443696
 40
0.9111033285
 40
1.0
 40
1.0
 40
1.0
 40
1.0
 10
23.0666548252
 20
25.2413831916
 30
0.0
 10
23.0738366941
 20
25.2655776868
 30
0.0
 10
23.0815436828
 20
25.302055754
 30
0.0
 10
23.0835674969
 20
25.3498903161
 30
0.0
 10
23.0808108519
 20
25.3822078622
 30
0.0
 10
23.0738247218
 20
25.4108309957
 30
0.0
 10
23.0628728063
 20
25.4350216985
 30
0.0
 10
23.0481770161
 20
25.4540479071
 30
0.0
 10
23.0360995376
 20
25.4633998177
 30
0.0
 10
23.029833347
 20
25.4670145107
 30
0.0
  0
SPLINE
  5
51F
100
AcDbEntity
  8
00_COMPONENTS_6
100
AcDbSpline
 62
7
  6
BYLAYER
 70
0
 71
3
 72
13
 73
9
 74
0
 42
0.0000001
 43
0.0000001
 44
0.0000000001
 40
0.0
 40
0.0
 40
0.0
 40
0.0
 40
0.2275500919
 40
0.3469991514
 40
0.4704523331
 40
0.5978871156
 40
0.7289730057
 40
1.0
 40
1.0
 40
1.0
 40
1.0
 10
24.7169479056
 20
24.0387741866
 30
0.0
 10
24.7266554028
 20
24.0269915203
 30
0.0
 10
24.7392757484
 20
24.0070790149
 30
0.0
 10
24.7512006623
 20
23.977798979
 30
0.0
 10
24.757700583
 20
23.9537503884
 30
0.0
 10
24.7614807423
 20
23.9283479689
 30
0.0
 10
24.7628405766
 20
23.8927922427
 30
0.0
 10
24.7594452909
 20
23.8657754721
 30
0.0
 10
24.7554905444
 20
23.8480273201
 30
0.0
  0
SPLINE
  5
520
100
AcDbEntity
  8
00_COMPONENTS_6
100
AcDbSpline
 62
7
  6
BYLAYER
 70
0
 71
3
 72
15
 73
11
 74
0
 42
0.0000001
 43
0.0000001
 44
0.0000000001
 40
0.0
 40
0.0
 40
0.0
 40
0.0
 40
0.1547542813
 40
0.3072548022
 40
0.4530033116
 40
0.5881976649
 40
0.7100785117
 40
0.8179808279
 40
0.9132743877
 40
1.0
 40
1.0
 40
1.0
 40
1.0
 10
16.8081540809
 20
25.2071011859
 30
0.0
 10
16.8030124804
 20
25.2206171361
 30
0.0
 10
16.7939612152
 20
25.2479103174
 30
0.0
 10
16.7844470153
 20
25.2892335544
 30
0.0
 10
16.7798490811
 20
25.3295697082
 30
0.0
 10
16.7803519367
 20
25.3673358103
 30
0.0
 10
16.7862193996
 20
25.4010991764
 30
0.0
 10
16.7971005834
 20
25.4297281518
 30
0.0
 10
16.8128501428
 20
25.4521530886
 30
0.0
 10
16.8263451526
 20
25.4629618187
 30
0.0
 10
16.833364664
 20
25.467011664
 30
0.0
  0
SPLINE
  5
521
100
AcDbEntity
  8
00_COMPONENTS_11
100
AcDbSpline
 62
7
  6
BYLAYER
 70
0
 71
3
 72
11
 73
7
 74
0
 42
0.0000001
 43
0.0000001
 44
0.0000000001
 40
0.0
 40
0.0
 40
0.0
 40
0.0
 40
0.249961113
 40
0.4999754782
 40
0.7500033024
 40
1.0
 40
1.0
 40
1.0
 40
1.0
 10
33.7316032346
 20
25.0743446145
 30
0.0
 10
33.6924399944
 20
25.0743215133
 30
0.0
 10
33.6132246987
 20
25.058448852
 30
0.0
 10
33.5135786428
 20
24.9907127293
 30
0.0
 10
33.4470877701
 20
24.8902949939
 30
0.0
 10
33.4316259584
 20
24.8111047222
 30
0.0
 10
33.4316032346
 20
24.7719359065
 30
0.0
  0
SPLINE
  5
522
100
AcDbEntity
  8
00_COMPONENTS_11
100
AcDbSpline
 62
7
  6
BYLAYER
 70
0
 71
3
 72
9
 73
5
 74
0
 42
0.0000001
 43
0.0000001
 44
0.0000000001
 40
0.0
 40
0.0
 40
0.0
 40
0.0
 40
0.5997867045
 40
1.0
 40
1.0
 40
1.0
 40
1.0
 10
33.5258143456
 20
24.9203593939
 30
0.0
 10
33.5307615739
 20
24.9177619558
 30
0.0
 10
33.5387657351
 20
24.9130465853
 30
0.0
 10
33.5449191716
 20
24.9051604147
 30
0.0
 10
33.545671523
 20
24.9015087047
 30
0.0
  0
SPLINE
  5
523
100
AcDbEntity
  8
00_COMPONENTS_11
100
AcDbSpline
 62
7
  6
BYLAYER
 70
0
 71
3
 72
16
 73
12
 74
0
 42
0.0000001
 43
0.0000001
 44
0.0000000001
 40
0.0
 40
0.0
 40
0.0
 40
0.0
 40
0.0245784461
 40
0.0540671992
 40
0.0890190145
 40
0.1296217012
 40
0.2276633858
 40
0.3472496806
 40
0.4865802154
 40
0.6434975307
 40
1.0
 40
1.0
 40
1.0
 40
1.0
 10
32.9744043469
 20
16.381050352
 30
0.0
 10
32.967262219
 20
16.3811225438
 30
0.0
 10
32.9515836374
 20
16.3838503969
 30
0.0
 10
32.9274090352
 20
16.3932982336
 30
0.0
 10
32.9006489545
 20
16.408130296
 30
0.0
 10
32.859041522
 20
16.4367479047
 30
0.0
 10
32.8020900605
 20
16.4858982575
 30
0.0
 10
32.7294205886
 20
16.5599980389
 30
0.0
 10
32.6499357527
 20
16.6510959492
 30
0.0
 10
32.5314658541
 20
16.799286134
 30
0.0
 10
32.44430949
 20
16.9205152345
 30
0.0
 10
32.3855533277
 20
17.0058415672
 30
0.0
  0
SPLINE
  5
524
100
AcDbEntity
  8
00_COMPONENTS_11
100
AcDbSpline
 62
7
  6
BYLAYER
 70
0
 71
3
 72
16
 73
12
 74
0
 42
0.0000001
 43
0.0000001
 44
0.0000000001
 40
0.0
 40
0.0
 40
0.0
 40
0.0
 40
0.0245073138
 40
0.0539476861
 40
0.0889372567
 40
0.1296757501
 40
0.2281886162
 40
0.3482438379
 40
0.487755101
 40
0.6443916169
 40
1.0
 40
1.0
 40
1.0
 40
1.0
 10
6.889175695
 20
16.3817714527
 30
0.0
 10
6.8962906626
 20
16.3818089535
 30
0.0
 10
6.9119354845
 20
16.3844536405
 30
0.0
 10
6.9360798898
 20
16.3938594502
 30
0.0
 10
6.9628356687
 20
16.4087163596
 30
0.0
 10
7.0045084763
 20
16.437487443
 30
0.0
 10
7.0615150178
 20
16.4869431164
 30
0.0
 10
7.1342582558
 20
16.5612834243
 30
0.0
 10
7.2136840399
 20
16.6524217741
 30
0.0
 10
7.3319665701
 20
16.8001556835
 30
0.0
 10
7.4190999276
 20
16.9208099585
 30
0.0
 10
7.4776531414
 20
17.0058415672
 30
0.0
  0
SPLINE
  5
525
100
AcDbEntity
  8
00_COMPONENTS_11
100
AcDbSpline
 62
7
  6
BYLAYER
 70
0
 71
3
 72
11
 73
7
 74
0
 42
0.0000001
 43
0.0000001
 44
0.0000000001
 40
0.0
 40
0.0
 40
0.0
 40
0.0
 40
0.249993315
 40
0.5000317584
 40
0.7500517949
 40
1.0
 40
1.0
 40
1.0
 40
1.0
 10
6.4316032346
 20
24.7719359065
 30
0.0
 10
6.431580511
 20
24.8111042094
 30
0.0
 10
6.4161188622
 20
24.8902956852
 30
0.0
 10
6.3496261755
 20
24.9907150347
 30
0.0
 10
6.2499787062
 20
25.0584505715
 30
0.0
 10
6.1707644695
 20
25.0743215144
 30
0.0
 10
6.1316032346
 20
25.0743446145
 30
0.0
  0
SPLINE
  5
526
100
AcDbEntity
  8
00_COMPONENTS_11
100
AcDbSpline
 62
7
  6
BYLAYER
 70
0
 71
3
 72
9
 73
5
 74
0
 42
0.0000001
 43
0.0000001
 44
0.0000000001
 40
0.0
 40
0.0
 40
0.0
 40
0.0
 40
0.4001655188
 40
1.0
 40
1.0
 40
1.0
 40
1.0
 10
6.3175337449
 20
24.9015087012
 30
0.0
 10
6.3182865276
 20
24.9051625051
 30
0.0
 10
6.3244468141
 20
24.9130528189
 30
0.0
 10
6.3324572909
 20
24.9177694772
 30
0.0
 10
6.3374088245
 20
24.9203680014
 30
0.0
  0
SPLINE
  5
527
100
AcDbEntity
  8
00_COMPONENTS_11
100
AcDbSpline
 62
7
  6
BYLAYER
 70
0
 71
3
 72
9
 73
5
 74
0
 42
0.0000001
 43
0.0000001
 44
0.0000000001
 40
0.0
 40
0.0
 40
0.0
 40
0.0
 40
0.5106641648
 40
1.0
 40
1.0
 40
1.0
 40
1.0
 10
7.530206744
 20
20.0166354417
 30
0.0
 10
7.4792478229
 20
20.0423799667
 30
0.0
 10
7.3737902742
 20
20.0826158825
 30
0.0
 10
7.2615892163
 20
20.0966402702
 30
0.0
 10
7.2068809095
 20
20.0966403338
 30
0.0
  0
LINE
  5
528
100
AcDbEntity
  8
00_COMPONENTS_11
100
AcDbLine
 62
7
  6
BYLAYER
 10
7.5750170228
 20
22.5764272993
 11
7.7316094166
 21
22.5927241877
  0
SPLINE
  5
529
100
AcDbEntity
  8
00_COMPONENTS_11
100
AcDbSpline
 62
7
  6
BYLAYER
 70
0
 71
3
 72
9
 73
5
 74
0
 42
0.0000001
 43
0.0000001
 44
0.0000000001
 40
0.0
 40
0.0
 40
0.0
 40
0.0
 40
0.4893358352
 40
1.0
 40
1.0
 40
1.0
 40
1.0
 10
32.6563255596
 20
20.0966403338
 30
0.0
 10
32.6016172528
 20
20.0966402702
 30
0.0
 10
32.4894161949
 20
20.0826158825
 30
0.0
 10
32.3839586462
 20
20.0423799667
 30
0.0
 10
32.3329997251
 20
20.0166354417
 30
0.0
  0
LINE
  5
52A
100
AcDbEntity
  8
00_COMPONENTS_11
100
AcDbLine
 62
7
  6
BYLAYER
 10
32.2879794451
 20
22.5764273822
 11
32.1316093712
 21
22.5927324609
  0
SPLINE
  5
52B
100
AcDbEntity
  8
00_COMPONENTS_11
100
AcDbSpline
 62
7
  6
BYLAYER
 70
0
 71
3
 72
15
 73
11
 74
0
 42
0.0000001
 43
0.0000001
 44
0.0000000001
 40
0.0
 40
0.0
 40
0.0
 40
0.0
 40
0.1287298566
 40
0.2565728602
 40
0.3832608438
 40
0.5086653917
 40
0.6328290907
 40
0.7558932577
 40
0.8781471504
 40
1.0
 40
1.0
 40
1.0
 40
1.0
 10
4.5838191176
 20
35.7391171458
 30
0.0
 10
4.5849342903
 20
35.8006394593
 30
0.0
 10
4.5981957645
 20
35.9233291351
 30
0.0
 10
4.6498157578
 20
36.1000603315
 30
0.0
 10
4.7317973287
 20
36.2633013461
 30
0.0
 10
4.8421299798
 20
36.4067396268
 30
0.0
 10
4.9762473809
 20
36.5254845259
 30
0.0
 10
5.127780694
 20
36.6178809287
 30
0.0
 10
5.2915887944
 20
36.6830903681
 30
0.0
 10
5.4064075919
 20
36.7073002322
 30
0.0
 10
5.4642025901
 20
36.7145283381
 30
0.0
  0
LINE
  5
52C
100
AcDbEntity
  8
00_COMPONENTS_11
100
AcDbLine
 62
7
  6
BYLAYER
 10
4.5828973847
 20
35.6975605199
 11
4.5836268955
 21
35.738549537
  0
SPLINE
  5
52D
100
AcDbEntity
  8
00_COMPONENTS_11
100
AcDbSpline
 62
7
  6
BYLAYER
 70
0
 71
3
 72
15
 73
11
 74
0
 42
0.0000001
 43
0.0000001
 44
0.0000000001
 40
0.0
 40
0.0
 40
0.0
 40
0.0
 40
0.1218531136
 40
0.2441096431
 40
0.3671755651
 40
0.4913374678
 40
0.6167395159
 40
0.7434292387
 40
0.8712729868
 40
1.0
 40
1.0
 40
1.0
 40
1.0
 10
34.3990130275
 20
36.7145271366
 30
0.0
 10
34.456804943
 20
36.7073055096
 30
0.0
 10
34.5716180743
 20
36.6830958708
 30
0.0
 10
34.7354130659
 20
36.6178796058
 30
0.0
 10
34.886926786
 20
36.5254698098
 30
0.0
 10
35.0210048677
 20
36.406699239
 30
0.0
 10
35.1312938567
 20
36.2632468513
 30
0.0
 10
35.2132738385
 20
36.1000233364
 30
0.0
 10
35.2649534944
 20
35.9233261607
 30
0.0
 10
35.2782717536
 20
35.8006507438
 30
0.0
 10
35.2794031366
 20
35.7391343001
 30
0.0
  0
LINE
  5
52E
100
AcDbEntity
  8
00_COMPONENTS_11
100
AcDbLine
 62
7
  6
BYLAYER
 10
35.2795734087
 20
35.738886689
 11
35.2803088021
 21
35.6975605234
  0
SPLINE
  5
52F
100
AcDbEntity
  8
00_COMPONENTS_11
100
AcDbSpline
 62
7
  6
BYLAYER
 70
0
 71
3
 72
11
 73
7
 74
0
 42
0.0000001
 43
0.0000001
 44
0.0000000001
 40
0.0
 40
0.0
 40
0.0
 40
0.0
 40
0.2513826269
 40
0.4998452618
 40
0.7483947337
 40
1.0
 40
1.0
 40
1.0
 40
1.0
 10
32.6755738645
 20
17.8857350672
 30
0.0
 10
32.6536679979
 20
17.9413168683
 30
0.0
 10
32.6192172181
 20
18.0558006041
 30
0.0
 10
32.6018188756
 20
18.2340134395
 30
0.0
 10
32.6211277354
 20
18.4120762037
 30
0.0
 10
32.6566908434
 20
18.5262836259
 30
0.0
 10
32.6791017199
 20
18.5817208085
 30
0.0
  0
SPLINE
  5
530
100
AcDbEntity
  8
00_COMPONENTS_11
100
AcDbSpline
 62
7
  6
BYLAYER
 70
0
 71
3
 72
8
 73
4
 74
0
 42
0.0000001
 43
0.0000001
 44
0.0000000001
 40
0.0
 40
0.0
 40
0.0
 40
0.0
 40
1.0
 40
1.0
 40
1.0
 40
1.0
 10
34.9455790693
 20
35.6974485684
 30
0.0
 10
34.9660479351
 20
34.5298463779
 30
0.0
 10
34.9862896131
 20
33.3622400339
 30
0.0
 10
35.0074429267
 20
32.194650043
 30
0.0
  0
SPLINE
  5
531
100
AcDbEntity
  8
00_COMPONENTS_11
100
AcDbSpline
 62
7
  6
BYLAYER
 70
0
 71
3
 72
9
 73
5
 74
0
 42
0.0000001
 43
0.0000001
 44
0.0000000001
 40
0.0
 40
0.0
 40
0.0
 40
0.0
 40
0.2518151913
 40
1.0
 40
1.0
 40
1.0
 40
1.0
 10
32.1350309063
 20
36.0093058013
 30
0.0
 10
32.3712359639
 20
35.9858834564
 30
0.0
 10
33.3089746199
 20
35.8901623911
 30
0.0
 10
34.2456104026
 20
35.7835979253
 30
0.0
 10
34.9455752901
 20
35.6974485076
 30
0.0
  0
SPLINE
  5
532
100
AcDbEntity
  8
00_COMPONENTS_11
100
AcDbSpline
 62
7
  6
BYLAYER
 70
0
 71
3
 72
11
 73
7
 74
0
 42
0.0000001
 43
0.0000001
 44
0.0000000001
 40
0.0
 40
0.0
 40
0.0
 40
0.0
 40
0.1576093672
 40
0.3575718392
 40
0.6341271582
 40
1.0
 40
1.0
 40
1.0
 40
1.0
 10
33.5456715568
 20
24.9015085403
 30
0.0
 10
33.5461767489
 20
24.8990562963
 30
0.0
 10
33.545147494
 20
24.8929909686
 30
0.0
 10
33.5380311878
 20
24.8854510273
 30
0.0
 10
33.5266778806
 20
24.8783146554
 30
0.0
 10
33.5172748378
 20
24.8742415012
 30
0.0
 10
33.5118531504
 20
24.8721471008
 30
0.0
  0
SPLINE
  5
533
100
AcDbEntity
  8
00_COMPONENTS_11
100
AcDbSpline
 62
7
  6
BYLAYER
 70
0
 71
3
 72
14
 73
10
 74
0
 42
0.0000001
 43
0.0000001
 44
0.0000000001
 40
0.0
 40
0.0
 40
0.0
 40
0.0
 40
0.3759904018
 40
0.5290065917
 40
0.6591235804
 40
0.7678583246
 40
0.8576901639
 40
0.9330502268
 40
1.0
 40
1.0
 40
1.0
 40
1.0
 10
11.0009308877
 20
37.1127226741
 30
0.0
 10
11.0063362955
 20
37.1356443722
 30
0.0
 10
11.0151236811
 20
37.1676961811
 30
0.0
 10
11.0303183373
 20
37.2061263515
 30
0.0
 10
11.0414410588
 20
37.2280574921
 30
0.0
 10
11.0529796972
 20
37.2451930374
 30
0.0
 10
11.0649833606
 20
37.2576234957
 30
0.0
 10
11.0774527585
 20
37.2654465293
 30
0.0
 10
11.0862783106
 20
37.267668282
 30
0.0
 10
11.0904601824
 20
37.2679796448
 30
0.0
  0
SPLINE
  5
534
100
AcDbEntity
  8
00_COMPONENTS_11
100
AcDbSpline
 62
7
  6
BYLAYER
 70
0
 71
3
 72
9
 73
5
 74
0
 42
0.0000001
 43
0.0000001
 44
0.0000000001
 40
0.0
 40
0.0
 40
0.0
 40
0.0
 40
0.2524454526
 40
1.0
 40
1.0
 40
1.0
 40
1.0
 10
28.032280828
 20
37.3129974724
 30
0.0
 10
28.0583439544
 20
37.3112322279
 30
0.0
 10
28.1615858036
 20
37.3042431571
 30
0.0
 10
28.264847794
 20
37.2974353886
 30
0.0
 10
28.3421023799
 20
37.2934697783
 30
0.0
  0
SPLINE
  5
535
100
AcDbEntity
  8
00_COMPONENTS_11
100
AcDbSpline
 62
7
  6
BYLAYER
 70
0
 71
3
 72
9
 73
5
 74
0
 42
0.0000001
 43
0.0000001
 44
0.0000000001
 40
0.0
 40
0.0
 40
0.0
 40
0.0
 40
0.5017892396
 40
1.0
 40
1.0
 40
1.0
 40
1.0
 10
28.3421023799
 20
37.2934697783
 30
0.0
 10
28.3713426328
 20
37.291968826
 30
0.0
 10
28.4296279904
 20
37.289255436
 30
0.0
 10
28.4879177418
 20
37.2865968872
 30
0.0
 10
28.5169407993
 20
37.2849463746
 30
0.0
  0
SPLINE
  5
536
100
AcDbEntity
  8
00_COMPONENTS_11
100
AcDbSpline
 62
7
  6
BYLAYER
 70
0
 71
3
 72
9
 73
5
 74
0
 42
0.0000001
 43
0.0000001
 44
0.0000000001
 40
0.0
 40
0.0
 40
0.0
 40
0.0
 40
0.5401011194
 40
1.0
 40
1.0
 40
1.0
 40
1.0
 10
28.1164686226
 20
37.1050258628
 30
0.0
 10
28.1058025728
 20
37.1321278071
 30
0.0
 10
28.083613744
 20
37.1814057066
 30
0.0
 10
28.0548979498
 20
37.2273827417
 30
0.0
 10
28.0397040225
 20
37.246983745
 30
0.0
  0
SPLINE
  5
537
100
AcDbEntity
  8
00_COMPONENTS_11
100
AcDbSpline
 62
7
  6
BYLAYER
 70
0
 71
3
 72
9
 73
5
 74
0
 42
0.0000001
 43
0.0000001
 44
0.0000000001
 40
0.0
 40
0.0
 40
0.0
 40
0.0
 40
0.2512841384
 40
1.0
 40
1.0
 40
1.0
 40
1.0
 10
28.0318248872
 20
37.3270716642
 30
0.0
 10
28.0567330449
 20
37.3248796479
 30
0.0
 10
28.1558637877
 20
37.3162386518
 30
0.0
 10
28.255018565
 20
37.3078773134
 30
0.0
 10
28.3292487946
 20
37.3015177647
 30
0.0
  0
LINE
  5
538
100
AcDbEntity
  8
00_COMPONENTS_11
100
AcDbLine
 62
7
  6
BYLAYER
 10
28.3292487946
 20
37.3015177647
 11
28.4185074947
 21
37.29379387
  0
SPLINE
  5
539
100
AcDbEntity
  8
00_COMPONENTS_11
100
AcDbSpline
 62
7
  6
BYLAYER
 70
0
 71
3
 72
11
 73
7
 74
0
 42
0.0000001
 43
0.0000001
 44
0.0000000001
 40
0.0
 40
0.0
 40
0.0
 40
0.0
 40
0.2499638758
 40
0.4999802722
 40
0.7500073578
 40
1.0
 40
1.0
 40
1.0
 40
1.0
 10
5.3316032346
 20
24.8072878537
 30
0.0
 10
5.2924662562
 20
24.8072658473
 30
0.0
 10
5.2133070603
 20
24.7914377878
 30
0.0
 10
5.1136619279
 20
24.7238542801
 30
0.0
 10
5.0471119406
 20
24.6235688315
 30
0.0
 10
5.031624932
 20
24.5444306002
 30
0.0
 10
5.0316032346
 20
24.5052891177
 30
0.0
  0
SPLINE
  5
53A
100
AcDbEntity
  8
00_COMPONENTS_11
100
AcDbSpline
 62
7
  6
BYLAYER
 70
0
 71
3
 72
9
 73
5
 74
0
 42
0.0000001
 43
0.0000001
 44
0.0000000001
 40
0.0
 40
0.0
 40
0.0
 40
0.0
 40
0.2679668285
 40
1.0
 40
1.0
 40
1.0
 40
1.0
 10
22.6030523047
 20
37.1133977751
 30
0.0
 10
22.6309968037
 20
37.1178364257
 30
0.0
 10
22.735187366
 20
37.134968158
 30
0.0
 10
22.8390172338
 20
37.1543807843
 30
0.0
 10
22.9146340173
 20
37.1704045886
 30
0.0
  0
SPLINE
  5
53B
100
AcDbEntity
  8
00_COMPONENTS_11
100
AcDbSpline
 62
7
  6
BYLAYER
 70
0
 71
3
 72
9
 73
5
 74
0
 42
0.0000001
 43
0.0000001
 44
0.0000000001
 40
0.0
 40
0.0
 40
0.0
 40
0.0
 40
0.537357449
 40
1.0
 40
1.0
 40
1.0
 40
1.0
 10
22.9146340173
 20
37.1704045886
 30
0.0
 10
22.961960728
 20
37.1804334991
 30
0.0
 10
23.049756959
 20
37.2004482298
 30
0.0
 10
23.1366835521
 20
37.2240275117
 30
0.0
 10
23.1765577623
 20
37.2360635371
 30
0.0
  0
LINE
  5
53C
100
AcDbEntity
  8
00_COMPONENTS_11
100
AcDbLine
 62
7
  6
BYLAYER
 10
23.5111319352
 20
37.1118198424
 11
23.4522129517
 21
37.0973260557
  0
LINE
  5
53D
100
AcDbEntity
  8
00_COMPONENTS_11
100
AcDbLine
 62
7
  6
BYLAYER
 10
16.4021613945
 20
37.099879197
 11
16.3492381698
 21
37.112766202
  0
SPLINE
  5
53E
100
AcDbEntity
  8
00_COMPONENTS_11
100
AcDbSpline
 62
7
  6
BYLAYER
 70
0
 71
3
 72
10
 73
6
 74
0
 42
0.0000001
 43
0.0000001
 44
0.0000000001
 40
0.0
 40
0.0
 40
0.0
 40
0.0
 40
0.5579805593
 40
0.7938140519
 40
1.0
 40
1.0
 40
1.0
 40
1.0
 10
17.1847717169
 20
37.5557777624
 30
0.0
 10
17.0915239407
 20
37.5505008447
 30
0.0
 10
16.9589201298
 20
37.5412863591
 30
0.0
 10
16.7924994003
 20
37.5231933432
 30
0.0
 10
16.71922611
 20
37.5127770987
 30
0.0
 10
16.6851831089
 20
37.5071055263
 30
0.0
  0
SPLINE
  5
53F
100
AcDbEntity
  8
00_COMPONENTS_11
100
AcDbSpline
 62
7
  6
BYLAYER
 70
0
 71
3
 72
9
 73
5
 74
0
 42
0.0000001
 43
0.0000001
 44
0.0000000001
 40
0.0
 40
0.0
 40
0.0
 40
0.0
 40
0.2247931308
 40
1.0
 40
1.0
 40
1.0
 40
1.0
 10
16.7098901463
 20
37.228962932
 30
0.0
 10
16.7277380266
 20
37.2237721621
 30
0.0
 10
16.8074149551
 20
37.2016438525
 30
0.0
 10
16.8880295371
 20
37.1829922143
 30
0.0
 10
16.9507585172
 20
37.1698093481
 30
0.0
  0
SPLINE
  5
540
100
AcDbEntity
  8
00_COMPONENTS_11
100
AcDbSpline
 62
7
  6
BYLAYER
 70
0
 71
3
 72
9
 73
5
 74
0
 42
0.0000001
 43
0.0000001
 44
0.0000000001
 40
0.0
 40
0.0
 40
0.0
 40
0.0
 40
0.2306948213
 40
1.0
 40
1.0
 40
1.0
 40
1.0
 10
16.9507585172
 20
37.1698093481
 30
0.0
 10
16.9764826335
 20
37.1644032729
 30
0.0
 10
17.0881901693
 20
37.1419237859
 30
0.0
 10
17.2005550674
 20
37.1227968338
 30
0.0
 10
17.2871746836
 20
37.109351816
 30
0.0
  0
SPLINE
  5
541
100
AcDbEntity
  8
00_COMPONENTS_11
100
AcDbSpline
 62
7
  6
BYLAYER
 70
0
 71
3
 72
11
 73
7
 74
0
 42
0.0000001
 43
0.0000001
 44
0.0000000001
 40
0.0
 40
0.0
 40
0.0
 40
0.0
 40
0.3248128176
 40
0.6009388636
 40
0.8264228025
 40
1.0
 40
1.0
 40
1.0
 40
1.0
 10
17.2871480313
 20
37.2815087118
 30
0.0
 10
17.231030505
 20
37.2781595752
 30
0.0
 10
17.1272640839
 20
37.2709201183
 30
0.0
 10
16.9849247543
 20
37.2563760145
 30
0.0
 10
16.869321135
 20
37.2391217814
 30
0.0
 10
16.8017579624
 20
37.2240433368
 30
0.0
 10
16.7730184825
 20
37.2152929506
 30
0.0
  0
SPLINE
  5
542
100
AcDbEntity
  8
00_COMPONENTS_11
100
AcDbSpline
 62
7
  6
BYLAYER
 70
0
 71
3
 72
9
 73
5
 74
0
 42
0.0000001
 43
0.0000001
 44
0.0000000001
 40
0.0
 40
0.0
 40
0.0
 40
0.0
 40
0.5405959055
 40
1.0
 40
1.0
 40
1.0
 40
1.0
 10
11.7453712669
 20
37.1014134093
 30
0.0
 10
11.7562194169
 20
37.1292966621
 30
0.0
 10
11.7788149636
 20
37.179953952
 30
0.0
 10
11.8082391907
 20
37.2271849352
 30
0.0
 10
11.8238393129
 20
37.247262277
 30
0.0
  0
LINE
  5
543
100
AcDbEntity
  8
00_COMPONENTS_11
100
AcDbLine
 62
7
  6
BYLAYER
 10
11.4447615592
 20
37.2937965004
 11
11.5338726195
 21
37.3015040648
  0
SPLINE
  5
544
100
AcDbEntity
  8
00_COMPONENTS_11
100
AcDbSpline
 62
7
  6
BYLAYER
 70
0
 71
3
 72
9
 73
5
 74
0
 42
0.0000001
 43
0.0000001
 44
0.0000000001
 40
0.0
 40
0.0
 40
0.0
 40
0.0
 40
0.2485996775
 40
1.0
 40
1.0
 40
1.0
 40
1.0
 10
11.5338726195
 20
37.3015040648
 30
0.0
 10
11.5585267457
 20
37.3036157606
 30
0.0
 10
11.6577030114
 20
37.3120598079
 30
0.0
 10
11.7568786554
 20
37.3205141136
 30
0.0
 10
11.8313812996
 20
37.3270721147
 30
0.0
  0
SPLINE
  5
545
100
AcDbEntity
  8
00_COMPONENTS_11
100
AcDbSpline
 62
7
  6
BYLAYER
 70
0
 71
3
 72
9
 73
5
 74
0
 42
0.0000001
 43
0.0000001
 44
0.0000000001
 40
0.0
 40
0.0
 40
0.0
 40
0.0
 40
0.4982257807
 40
1.0
 40
1.0
 40
1.0
 40
1.0
 10
11.3461875461
 20
37.2849427201
 30
0.0
 10
11.375206638
 20
37.286593301
 30
0.0
 10
11.4334872301
 20
37.2892409829
 30
0.0
 10
11.4917633007
 20
37.2919451839
 30
0.0
 10
11.5209979147
 20
37.2934439657
 30
0.0
  0
SPLINE
  5
546
100
AcDbEntity
  8
00_COMPONENTS_11
100
AcDbSpline
 62
7
  6
BYLAYER
 70
0
 71
3
 72
9
 73
5
 74
0
 42
0.0000001
 43
0.0000001
 44
0.0000000001
 40
0.0
 40
0.0
 40
0.0
 40
0.0
 40
0.2465385805
 40
1.0
 40
1.0
 40
1.0
 40
1.0
 10
11.5209979147
 20
37.2934439657
 30
0.0
 10
11.5464854917
 20
37.2947506467
 30
0.0
 10
11.6498459174
 20
37.3004791183
 30
0.0
 10
11.7531130617
 20
37.3077243179
 30
0.0
 10
11.8309309972
 20
37.3129978759
 30
0.0
  0
SPLINE
  5
547
100
AcDbEntity
  8
00_COMPONENTS_11
100
AcDbSpline
 62
7
  6
BYLAYER
 70
0
 71
3
 72
11
 73
7
 74
0
 42
0.0000001
 43
0.0000001
 44
0.0000000001
 40
0.0
 40
0.0
 40
0.0
 40
0.0
 40
0.3368799096
 40
0.6139225325
 40
0.8326038997
 40
1.0
 40
1.0
 40
1.0
 40
1.0
 10
11.0772321733
 20
37.110721742
 30
0.0
 10
11.0819773338
 20
37.129471968
 30
0.0
 10
11.0917096695
 20
37.1633891892
 30
0.0
 10
11.1092573602
 20
37.2079796542
 30
0.0
 10
11.1280136431
 20
37.2412570574
 30
0.0
 10
11.1431205621
 20
37.2579965656
 30
0.0
 10
11.1508400563
 20
37.2637215753
 30
0.0
  0
SPLINE
  5
548
100
AcDbEntity
  8
00_COMPONENTS_11
100
AcDbSpline
 62
7
  6
BYLAYER
 70
0
 71
3
 72
9
 73
5
 74
0
 42
0.0000001
 43
0.0000001
 44
0.0000000001
 40
0.0
 40
0.0
 40
0.0
 40
0.0
 40
0.2639022422
 40
1.0
 40
1.0
 40
1.0
 40
1.0
 10
11.1508400563
 20
37.2637215753
 30
0.0
 10
11.151933171
 20
37.2645322621
 30
0.0
 10
11.1561618731
 20
37.2674834565
 30
0.0
 10
11.1607596777
 20
37.2699229344
 30
0.0
 10
11.1642922922
 20
37.2713122676
 30
0.0
  0
SPLINE
  5
549
100
AcDbEntity
  8
00_COMPONENTS_11
100
AcDbSpline
 62
7
  6
BYLAYER
 70
0
 71
3
 72
9
 73
5
 74
0
 42
0.0000001
 43
0.0000001
 44
0.0000000001
 40
0.0
 40
0.0
 40
0.0
 40
0.0
 40
0.2566587058
 40
1.0
 40
1.0
 40
1.0
 40
1.0
 10
11.1642922922
 20
37.2713122676
 30
0.0
 10
11.1652146516
 20
37.2716750201
 30
0.0
 10
11.1688487338
 20
37.2729828667
 30
0.0
 10
11.1726435072
 20
37.2738494973
 30
0.0
 10
11.1754908074
 20
37.2742139612
 30
0.0
  0
SPLINE
  5
54A
100
AcDbEntity
  8
00_COMPONENTS_11
100
AcDbSpline
 62
7
  6
BYLAYER
 70
0
 71
3
 72
11
 73
7
 74
0
 42
0.0000001
 43
0.0000001
 44
0.0000000001
 40
0.0
 40
0.0
 40
0.0
 40
0.0
 40
0.248976799
 40
0.4997816889
 40
0.7502330136
 40
1.0
 40
1.0
 40
1.0
 40
1.0
 10
11.3751131641
 20
37.2929279357
 30
0.0
 10
11.4130287519
 20
37.3030840316
 30
0.0
 10
11.4885796754
 20
37.3255218592
 30
0.0
 10
11.6014174963
 20
37.3609685436
 30
0.0
 10
11.7153274036
 20
37.3933555472
 30
0.0
 10
11.7918340904
 20
37.4125252701
 30
0.0
 10
11.8301221755
 20
37.4217207011
 30
0.0
  0
SPLINE
  5
54B
100
AcDbEntity
  8
00_COMPONENTS_11
100
AcDbSpline
 62
7
  6
BYLAYER
 70
0
 71
3
 72
12
 73
8
 74
0
 42
0.0000001
 43
0.0000001
 44
0.0000000001
 40
0.0
 40
0.0
 40
0.0
 40
0.0
 40
0.2497570278
 40
0.3749135934
 40
0.5003497289
 40
0.7512361601
 40
1.0
 40
1.0
 40
1.0
 40
1.0
 10
28.0331389841
 20
37.4218478212
 30
0.0
 10
28.0714226261
 20
37.4126525233
 30
0.0
 10
28.1287422097
 20
37.3982074775
 30
0.0
 10
28.2047657743
 20
37.3771719883
 30
0.0
 10
28.2805524472
 20
37.3546604942
 30
0.0
 10
28.3745235109
 20
37.3250180563
 30
0.0
 10
28.4500946497
 20
37.3027189622
 30
0.0
 10
28.4880257942
 20
37.292763335
 30
0.0
  0
LINE
  5
54C
100
AcDbEntity
  8
00_COMPONENTS_11
100
AcDbLine
 62
7
  6
BYLAYER
 10
17.0475206629
 20
37.7827156395
 11
17.219269551
 21
37.786721451
  0
LINE
  5
54D
100
AcDbEntity
  8
00_COMPONENTS_11
100
AcDbLine
 62
7
  6
BYLAYER
 10
22.643936926
 20
37.7867214508
 11
22.828873685
 21
37.7823978528
  0
LINE
  5
54E
100
AcDbEntity
  8
00_COMPONENTS_11
100
AcDbLine
 62
7
  6
BYLAYER
 10
17.0786054013
 20
37.5917355469
 11
17.2095613897
 21
37.5948109551
  0
SPLINE
  5
54F
100
AcDbEntity
  8
00_COMPONENTS_11
100
AcDbSpline
 62
7
  6
BYLAYER
 70
0
 71
3
 72
11
 73
7
 74
0
 42
0.0000001
 43
0.0000001
 44
0.0000000001
 40
0.0
 40
0.0
 40
0.0
 40
0.0
 40
0.3250972645
 40
0.6013160561
 40
0.8267021418
 40
1.0
 40
1.0
 40
1.0
 40
1.0
 10
22.5766191901
 20
37.281517536
 30
0.0
 10
22.6327313992
 20
37.2781560979
 30
0.0
 10
22.7364618385
 20
37.2708930779
 30
0.0
 10
22.8787084727
 20
37.2563065787
 30
0.0
 10
22.9941420199
 20
37.2390037377
 30
0.0
 10
23.0615619738
 20
37.2238734996
 30
0.0
 10
23.0902100837
 20
37.2150876868
 30
0.0
  0
SPLINE
  5
550
100
AcDbEntity
  8
00_COMPONENTS_11
100
AcDbSpline
 62
7
  6
BYLAYER
 70
0
 71
3
 72
15
 73
11
 74
0
 42
0.0000001
 43
0.0000001
 44
0.0000000001
 40
0.0
 40
0.0
 40
0.0
 40
0.0
 40
0.153470622
 40
0.3008537606
 40
0.4395683144
 40
0.5688280996
 40
0.6885052861
 40
0.7989790801
 40
0.9013966754
 40
1.0
 40
1.0
 40
1.0
 40
1.0
 10
4.9147372433
 20
35.7800776218
 30
0.0
 10
4.9130004269
 20
35.8402923748
 30
0.0
 10
4.9170977898
 20
35.9587007179
 30
0.0
 10
4.9457240266
 20
36.129369828
 30
0.0
 10
4.9952543792
 20
36.2853045506
 30
0.0
 10
5.0627147161
 20
36.422392286
 30
0.0
 10
5.1456888028
 20
36.537408437
 30
0.0
 10
5.2415789171
 20
36.6273787952
 30
0.0
 10
5.3483446343
 20
36.6894071511
 30
0.0
 10
5.4257595002
 20
36.7098191228
 30
0.0
 10
5.4641761195
 20
36.7145224421
 30
0.0
  0
SPLINE
  5
551
100
AcDbEntity
  8
00_COMPONENTS_11
100
AcDbSpline
 62
7
  6
BYLAYER
 70
0
 71
3
 72
13
 73
9
 74
0
 42
0.0000001
 43
0.0000001
 44
0.0000000001
 40
0.0
 40
0.0
 40
0.0
 40
0.0
 40
0.2507880321
 40
0.3762751298
 40
0.5017770086
 40
0.6268971611
 40
0.7516558172
 40
1.0
 40
1.0
 40
1.0
 40
1.0
 10
4.917628823
 20
35.6975430106
 30
0.0
 10
4.9177509652
 20
35.7044695954
 30
0.0
 10
4.9177955979
 20
35.7148644767
 30
0.0
 10
4.9182315254
 20
35.7287195937
 30
0.0
 10
4.9187025614
 20
35.7390977534
 30
0.0
 10
4.9188460419
 20
35.749472195
 30
0.0
 10
4.9179666543
 20
35.7632213456
 30
0.0
 10
4.916140119
 20
35.7733988162
 30
0.0
 10
4.9146380306
 20
35.7800925028
 30
0.0
  0
SPLINE
  5
552
100
AcDbEntity
  8
00_COMPONENTS_11
100
AcDbSpline
 62
7
  6
BYLAYER
 70
0
 71
3
 72
17
 73
13
 74
0
 42
0.0000001
 43
0.0000001
 44
0.0000000001
 40
0.0
 40
0.0
 40
0.0
 40
0.0
 40
0.0280105683
 40
0.0518845739
 40
0.0834372758
 40
0.1228654462
 40
0.1700740192
 40
0.2248570659
 40
0.2869694626
 40
0.4319238577
 40
0.6018202666
 40
1.0
 40
1.0
 40
1.0
 40
1.0
 10
4.5836383862
 20
35.7388888924
 30
0.0
 10
4.5835108049
 20
35.7420426834
 30
0.0
 10
4.5888940498
 20
35.7468642657
 30
0.0
 10
4.5970633449
 20
35.7506371416
 30
0.0
 10
4.6073154135
 20
35.7541925138
 30
0.0
 10
4.6201840914
 20
35.7574483191
 30
0.0
 10
4.6358269689
 20
35.7606066055
 30
0.0
 10
4.6540767864
 20
35.7635736967
 30
0.0
 10
4.6833271951
 20
35.7674927128
 30
0.0
 10
4.7256075202
 20
35.771689809
 30
0.0
 10
4.8057719362
 20
35.7772230457
 30
0.0
 10
4.86977615
 20
35.7793001409
 30
0.0
 10
4.9146380306
 20
35.7800925028
 30
0.0
  0
SPLINE
  5
553
100
AcDbEntity
  8
00_COMPONENTS_11
100
AcDbSpline
 62
7
  6
BYLAYER
 70
0
 71
3
 72
17
 73
13
 74
0
 42
0.0000001
 43
0.0000001
 44
0.0000000001
 40
0.0
 40
0.0
 40
0.0
 40
0.0
 40
0.0038873053
 40
0.0152856264
 40
0.0347263416
 40
0.062238703
 40
0.1413754553
 40
0.2524085806
 40
0.3948622033
 40
0.56771704
 40
0.7698160748
 40
1.0
 40
1.0
 40
1.0
 40
1.0
 10
4.5829017997
 20
35.6975603741
 30
0.0
 10
4.5828526815
 20
35.6976682827
 30
0.0
 10
4.5835126601
 20
35.6979480902
 30
0.0
 10
4.5843462452
 20
35.6980244338
 30
0.0
 10
4.586237806
 20
35.6982780613
 30
0.0
 10
4.5899983762
 20
35.6985195038
 30
0.0
 10
4.5966891536
 20
35.6988282717
 30
0.0
 10
4.6068031978
 20
35.6990830537
 30
0.0
 10
4.6198156627
 20
35.6992978805
 30
0.0
 10
4.6355919271
 20
35.6994479219
 30
0.0
 10
4.6540496046
 20
35.6995389353
 30
0.0
 10
4.6672337713
 20
35.6995563108
 30
0.0
 10
4.6742543107
 20
35.6995562265
 30
0.0
  0
SPLINE
  5
554
100
AcDbEntity
  8
00_COMPONENTS_11
100
AcDbSpline
 62
7
  6
BYLAYER
 70
0
 71
3
 72
9
 73
5
 74
0
 42
0.0000001
 43
0.0000001
 44
0.0000000001
 40
0.0
 40
0.0
 40
0.0
 40
0.0
 40
0.2027513569
 40
1.0
 40
1.0
 40
1.0
 40
1.0
 10
4.6742543107
 20
35.6995562265
 30
0.0
 10
4.6907031361
 20
35.699556029
 30
0.0
 10
4.7718311277
 20
35.6993031161
 30
0.0
 10
4.8529557545
 20
35.6984143754
 30
0.0
 10
4.91762936
 20
35.6975606384
 30
0.0
  0
SPLINE
  5
555
100
AcDbEntity
  8
00_COMPONENTS_11
100
AcDbSpline
 62
7
  6
BYLAYER
 70
0
 71
3
 72
11
 73
7
 74
0
 42
0.0000001
 43
0.0000001
 44
0.0000000001
 40
0.0
 40
0.0
 40
0.0
 40
0.0
 40
0.2499905912
 40
0.5000270018
 40
0.7500476113
 40
1.0
 40
1.0
 40
1.0
 40
1.0
 10
34.8316032346
 20
24.5052891177
 30
0.0
 10
34.8315815373
 20
24.544430293
 30
0.0
 10
34.8160945345
 20
24.6235697194
 30
0.0
 10
34.749542841
 20
24.7238565244
 30
0.0
 10
34.6498965455
 20
24.791439335
 30
0.0
 10
34.5707384284
 20
24.8072658481
 30
0.0
 10
34.5316032346
 20
24.8072878537
 30
0.0
  0
SPLINE
  5
556
100
AcDbEntity
  8
00_COMPONENTS_11
100
AcDbSpline
 62
7
  6
BYLAYER
 70
0
 71
3
 72
9
 73
5
 74
0
 42
0.0000001
 43
0.0000001
 44
0.0000000001
 40
0.0
 40
0.0
 40
0.0
 40
0.0
 40
0.2671411925
 40
1.0
 40
1.0
 40
1.0
 40
1.0
 10
6.4588080694
 20
24.8463465026
 30
0.0
 10
6.4544692695
 20
24.8470674367
 30
0.0
 10
6.4382419466
 20
24.849849599
 30
0.0
 10
6.4220712189
 20
24.8529748283
 30
0.0
 10
6.4102815256
 20
24.8555421809
 30
0.0
  0
SPLINE
  5
557
100
AcDbEntity
  8
00_COMPONENTS_11
100
AcDbSpline
 62
7
  6
BYLAYER
 70
0
 71
3
 72
11
 73
7
 74
0
 42
0.0000001
 43
0.0000001
 44
0.0000000001
 40
0.0
 40
0.0
 40
0.0
 40
0.0
 40
0.3670359676
 40
0.6440258032
 40
0.8435771339
 40
1.0
 40
1.0
 40
1.0
 40
1.0
 10
6.3522949983
 20
24.8717852841
 30
0.0
 10
6.3467304996
 20
24.8739022992
 30
0.0
 10
6.3370817765
 20
24.8780175828
 30
0.0
 10
6.3254276836
 20
24.8852367654
 30
0.0
 10
6.318104408
 20
24.8928550859
 30
0.0
 10
6.3170217462
 20
24.8990235975
 30
0.0
 10
6.3175337449
 20
24.9015087012
 30
0.0
  0
SPLINE
  5
558
100
AcDbEntity
  8
00_COMPONENTS_11
100
AcDbSpline
 62
7
  6
BYLAYER
 70
0
 71
3
 72
17
 73
13
 74
0
 42
0.0000001
 43
0.0000001
 44
0.0000000001
 40
0.0
 40
0.0
 40
0.0
 40
0.0
 40
0.0276002373
 40
0.0514135075
 40
0.0829756151
 40
0.1224634912
 40
0.1697588395
 40
0.2246411193
 40
0.2868548896
 40
0.4319834601
 40
0.6020085376
 40
1.0
 40
1.0
 40
1.0
 40
1.0
 10
35.2795631676
 20
35.7391533604
 30
0.0
 10
35.2796939165
 20
35.7423003641
 30
0.0
 10
35.2741673719
 20
35.7470624348
 30
0.0
 10
35.2659295766
 20
35.7507757131
 30
0.0
 10
35.2555161236
 20
35.7543144666
 30
0.0
 10
35.242460152
 20
35.757573635
 30
0.0
 10
35.2265841633
 20
35.7607509683
 30
0.0
 10
35.2080671672
 20
35.7637423134
 30
0.0
 10
35.1783982759
 20
35.7676902568
 30
0.0
 10
35.1355285464
 20
35.7718920724
 30
0.0
 10
35.0543237218
 20
35.7773923216
 30
0.0
 10
34.9895098913
 20
35.7794337138
 30
0.0
 10
34.9440976392
 20
35.7801865071
 30
0.0
  0
SPLINE
  5
559
100
AcDbEntity
  8
00_COMPONENTS_11
100
AcDbSpline
 62
7
  6
BYLAYER
 70
0
 71
3
 72
17
 73
13
 74
0
 42
0.0000001
 43
0.0000001
 44
0.0000000001
 40
0.0
 40
0.0
 40
0.0
 40
0.0
 40
0.0038876204
 40
0.0152861905
 40
0.034727079
 40
0.062239543
 40
0.1413762898
 40
0.2524091489
 40
0.394862328
 40
0.5677168149
 40
0.7698157764
 40
1.0
 40
1.0
 40
1.0
 40
1.0
 10
35.2803046697
 20
35.6975603826
 30
0.0
 10
35.2803537914
 20
35.6976682999
 30
0.0
 10
35.2796938373
 20
35.6979481662
 30
0.0
 10
35.2788602203
 20
35.6980246135
 30
0.0
 10
35.2769686778
 20
35.6982783602
 30
0.0
 10
35.2732081062
 20
35.6985199718
 30
0.0
 10
35.2665173539
 20
35.6988287622
 30
0.0
 10
35.2564033334
 20
35.699083092
 30
0.0
 10
35.2433909091
 20
35.6992967741
 30
0.0
 10
35.227614694
 20
35.6994458525
 30
0.0
 10
35.2091570585
 20
35.6995368681
 30
0.0
 10
35.1959729141
 20
35.69955538
 30
0.0
 10
35.1889523794
 20
35.6995562443
 30
0.0
  0
SPLINE
  5
55A
100
AcDbEntity
  8
00_COMPONENTS_11
100
AcDbSpline
 62
7
  6
BYLAYER
 70
0
 71
3
 72
9
 73
5
 74
0
 42
0.0000001
 43
0.0000001
 44
0.0000000001
 40
0.0
 40
0.0
 40
0.0
 40
0.0
 40
0.2027523958
 40
1.0
 40
1.0
 40
1.0
 40
1.0
 10
35.1889523794
 20
35.6995562443
 30
0.0
 10
35.1725035086
 20
35.6995582695
 30
0.0
 10
35.0913756335
 20
35.6993257119
 30
0.0
 10
35.0102514138
 20
35.6983766622
 30
0.0
 10
34.9455790693
 20
35.6974485684
 30
0.0
  0
SPLINE
  5
55B
100
AcDbEntity
  8
00_COMPONENTS_11
100
AcDbSpline
 62
7
  6
BYLAYER
 70
0
 71
3
 72
15
 73
11
 74
0
 42
0.0000001
 43
0.0000001
 44
0.0000000001
 40
0.0
 40
0.0
 40
0.0
 40
0.0
 40
0.0986137003
 40
0.2010325166
 40
0.311504785
 40
0.4311798171
 40
0.5604370172
 40
0.6991491517
 40
0.8465291194
 40
1.0
 40
1.0
 40
1.0
 40
1.0
 10
34.3990127328
 20
36.7145245981
 30
0.0
 10
34.4374343287
 20
36.709820894
 30
0.0
 10
34.5148557791
 20
36.6894092329
 30
0.0
 10
34.6216298808
 20
36.6273807945
 30
0.0
 10
34.7175185406
 20
36.5374052058
 30
0.0
 10
34.8004898613
 20
36.4223861674
 30
0.0
 10
34.8679492082
 20
36.285297743
 30
0.0
 10
34.9174899837
 20
36.1293651595
 30
0.0
 10
34.9460944672
 20
35.9586887758
 30
0.0
 10
34.9501860655
 20
35.8402813541
 30
0.0
 10
34.9484694977
 20
35.7800644962
 30
0.0
  0
SPLINE
  5
55C
100
AcDbEntity
  8
00_COMPONENTS_11
100
AcDbSpline
 62
7
  6
BYLAYER
 70
0
 71
3
 72
12
 73
8
 74
0
 42
0.0000001
 43
0.0000001
 44
0.0000000001
 40
0.0
 40
0.0
 40
0.0
 40
0.0
 40
0.1927448941
 40
0.3658449561
 40
0.5187594451
 40
0.6513140206
 40
1.0
 40
1.0
 40
1.0
 40
1.0
 10
28.8611442695
 20
37.117091591
 30
0.0
 10
28.8584341354
 20
37.1283629915
 30
0.0
 10
28.8528555659
 20
37.1496749434
 30
0.0
 10
28.8434568578
 20
37.1793710865
 30
0.0
 10
28.8332699854
 20
37.2052607862
 30
0.0
 10
28.816884906
 20
37.2386095807
 30
0.0
 10
28.7944711959
 20
37.266359774
 30
0.0
 10
28.773557542
 20
37.2679192286
 30
0.0
  0
SPLINE
  5
55D
100
AcDbEntity
  8
00_COMPONENTS_11
100
AcDbSpline
 62
7
  6
BYLAYER
 70
0
 71
3
 72
11
 73
7
 74
0
 42
0.0000001
 43
0.0000001
 44
0.0000000001
 40
0.0
 40
0.0
 40
0.0
 40
0.0
 40
0.2513453026
 40
0.4998471438
 40
0.7484339626
 40
1.0
 40
1.0
 40
1.0
 40
1.0
 10
7.1876326046
 20
17.8857350672
 30
0.0
 10
7.2095205302
 20
17.9412713465
 30
0.0
 10
7.2432784405
 20
18.0559227147
 30
0.0
 10
7.2600061109
 20
18.2340074436
 30
0.0
 10
7.2413712894
 20
18.4119497356
 30
0.0
 10
7.2064971045
 20
18.5263294413
 30
0.0
 10
7.1841047492
 20
18.5817208085
 30
0.0
  0
LINE
  5
55E
100
AcDbEntity
  8
00_COMPONENTS_11
100
AcDbLine
 62
7
  6
BYLAYER
 10
34.9440976392
 20
35.7801865071
 11
34.945579127
 21
35.6974568695
  0
SPLINE
  5
55F
100
AcDbEntity
  8
00_COMPONENTS_11
100
AcDbSpline
 62
7
  6
BYLAYER
 70
0
 71
3
 72
11
 73
7
 74
0
 42
0.0000001
 43
0.0000001
 44
0.0000000001
 40
0.0
 40
0.0
 40
0.0
 40
0.0
 40
0.3360821222
 40
0.6130083148
 40
0.8320258579
 40
1.0
 40
1.0
 40
1.0
 40
1.0
 10
28.7858491429
 20
37.1107898166
 30
0.0
 10
28.7811231569
 20
37.1294481676
 30
0.0
 10
28.7714244119
 20
37.1632282241
 30
0.0
 10
28.7539657621
 20
37.2076894401
 30
0.0
 10
28.7352875251
 20
37.2409492654
 30
0.0
 10
28.7202625171
 20
37.257750494
 30
0.0
 10
28.7125677544
 20
37.2635240654
 30
0.0
  0
SPLINE
  5
560
100
AcDbEntity
  8
00_COMPONENTS_11
100
AcDbSpline
 62
7
  6
BYLAYER
 70
0
 71
3
 72
9
 73
5
 74
0
 42
0.0000001
 43
0.0000001
 44
0.0000000001
 40
0.0
 40
0.0
 40
0.0
 40
0.0
 40
0.26424358
 40
1.0
 40
1.0
 40
1.0
 40
1.0
 10
28.7125677544
 20
37.2635240654
 30
0.0
 10
28.7114548643
 20
37.2643590944
 30
0.0
 10
28.7071527576
 20
37.267394313
 30
0.0
 10
28.7024636612
 20
37.2698995267
 30
0.0
 10
28.6988587989
 20
37.2713182737
 30
0.0
  0
SPLINE
  5
561
100
AcDbEntity
  8
00_COMPONENTS_11
100
AcDbSpline
 62
7
  6
BYLAYER
 70
0
 71
3
 72
9
 73
5
 74
0
 42
0.0000001
 43
0.0000001
 44
0.0000000001
 40
0.0
 40
0.0
 40
0.0
 40
0.0
 40
0.2565952971
 40
1.0
 40
1.0
 40
1.0
 40
1.0
 10
28.6988587989
 20
37.2713182737
 30
0.0
 10
28.6979412568
 20
37.2716793859
 30
0.0
 10
28.6943253289
 20
37.2729819872
 30
0.0
 10
28.6905498571
 20
37.2738468311
 30
0.0
 10
28.687716601
 20
37.27421252
 30
0.0
  0
SPLINE
  5
562
100
AcDbEntity
  8
00_COMPONENTS
100
AcDbSpline
 62
7
  6
BYLAYER
 70
0
 71
3
 72
12
 73
8
 74
0
 42
0.0000001
 43
0.0000001
 44
0.0000000001
 40
0.0
 40
0.0
 40
0.0
 40
0.0
 40
0.1250478166
 40
0.2494783648
 40
0.4991520601
 40
0.7498249618
 40
1.0
 40
1.0
 40
1.0
 40
1.0
 10
32.1316250743
 20
36.9976403736
 30
0.0
 10
32.1317185309
 20
37.0040523548
 30
0.0
 10
32.1304155311
 20
37.0169113061
 30
0.0
 10
32.1224030173
 20
37.0413811878
 30
0.0
 10
32.1035858543
 20
37.0682981694
 30
0.0
 10
32.0714287238
 20
37.0907838806
 30
0.0
 10
32.0455185376
 20
37.0967253504
 30
0.0
 10
32.0326891438
 20
37.0967336215
 30
0.0
  0
SPLINE
  5
563
100
AcDbEntity
  8
00_COMPONENTS
100
AcDbSpline
 62
7
  6
BYLAYER
 70
0
 71
3
 72
12
 73
8
 74
0
 42
0.0000001
 43
0.0000001
 44
0.0000000001
 40
0.0
 40
0.0
 40
0.0
 40
0.0
 40
0.1250478166
 40
0.2494783648
 40
0.4991520601
 40
0.7498249618
 40
1.0
 40
1.0
 40
1.0
 40
1.0
 10
7.7315813948
 20
36.9976403736
 30
0.0
 10
7.7314879382
 20
37.0040523548
 30
0.0
 10
7.732790938
 20
37.0169113061
 30
0.0
 10
7.7408034518
 20
37.0413811878
 30
0.0
 10
7.7596206148
 20
37.0682981694
 30
0.0
 10
7.7917777453
 20
37.0907838806
 30
0.0
 10
7.8176879315
 20
37.0967253504
 30
0.0
 10
7.8305173253
 20
37.0967336215
 30
0.0
  0
SPLINE
  5
564
100
AcDbEntity
  8
00_COMPONENTS
100
AcDbSpline
 62
7
  6
BYLAYER
 70
0
 71
3
 72
12
 73
8
 74
0
 42
0.0000001
 43
0.0000001
 44
0.0000000001
 40
0.0
 40
0.0
 40
0.0
 40
0.0
 40
0.2501750403
 40
0.5008479402
 40
0.7505216353
 40
0.8749521837
 40
1.0
 40
1.0
 40
1.0
 40
1.0
 10
7.8305173207
 20
7.8965470462
 30
0.0
 10
7.817687927
 20
7.8965553173
 30
0.0
 10
7.7917777414
 20
7.9024967872
 30
0.0
 10
7.7596206122
 20
7.9249824991
 30
0.0
 10
7.7408034509
 20
7.9518994807
 30
0.0
 10
7.7327909379
 20
7.9763693621
 30
0.0
 10
7.7314879382
 20
7.9892283131
 30
0.0
 10
7.7315813948
 20
7.9956402941
 30
0.0
  0
SPLINE
  5
565
100
AcDbEntity
  8
00_COMPONENTS
100
AcDbSpline
 62
7
  6
BYLAYER
 70
0
 71
3
 72
12
 73
8
 74
0
 42
0.0000001
 43
0.0000001
 44
0.0000000001
 40
0.0
 40
0.0
 40
0.0
 40
0.0
 40
0.2501750403
 40
0.5008479402
 40
0.7505216353
 40
0.8749521837
 40
1.0
 40
1.0
 40
1.0
 40
1.0
 10
32.0326891484
 20
7.8965470462
 30
0.0
 10
32.0455185421
 20
7.8965553173
 30
0.0
 10
32.0714287277
 20
7.9024967872
 30
0.0
 10
32.1035858569
 20
7.9249824991
 30
0.0
 10
32.1224030182
 20
7.9518994807
 30
0.0
 10
32.1304155312
 20
7.9763693621
 30
0.0
 10
32.1317185309
 20
7.9892283131
 30
0.0
 10
32.1316250743
 20
7.9956402941
 30
0.0
  0
SPLINE
  5
566
100
AcDbEntity
  8
00_COMPONENTS
100
AcDbSpline
 62
7
  6
BYLAYER
 70
0
 71
3
 72
16
 73
12
 74
0
 42
0.0000001
 43
0.0000001
 44
0.0000000001
 40
0.0
 40
0.0
 40
0.0
 40
0.0
 40
0.0089329047
 40
0.0250818651
 40
0.0832567641
 40
0.175834227
 40
0.2994557718
 40
0.4497398507
 40
0.6211138086
 40
0.8072570408
 40
1.0
 40
1.0
 40
1.0
 40
1.0
 10
31.2014370904
 20
7.8966403112
 30
0.0
 10
31.2017347607
 20
7.8966428569
 30
0.0
 10
31.202439249
 20
7.8973040191
 30
0.0
 10
31.2034688488
 20
7.8998162808
 30
0.0
 10
31.2046932073
 20
7.9053329975
 30
0.0
 10
31.2058888233
 20
7.9143598783
 30
0.0
 10
31.206998695
 20
7.9265415785
 30
0.0
 10
31.2079080331
 20
7.9413475766
 30
0.0
 10
31.2085950054
 20
7.958258653
 30
0.0
 10
31.2090145985
 20
7.976590961
 30
0.0
 10
31.2091115556
 20
7.9892173434
 30
0.0
 10
31.2091118857
 20
7.9956403338
 30
0.0
  0
SPLINE
  5
567
100
AcDbEntity
  8
00_COMPONENTS
100
AcDbSpline
 62
7
  6
BYLAYER
 70
0
 71
3
 72
16
 73
12
 74
0
 42
0.0000001
 43
0.0000001
 44
0.0000000001
 40
0.0
 40
0.0
 40
0.0
 40
0.0
 40
0.0089329045
 40
0.0250818648
 40
0.0832567637
 40
0.1758342266
 40
0.2994557715
 40
0.4497398504
 40
0.6211138084
 40
0.8072570407
 40
1.0
 40
1.0
 40
1.0
 40
1.0
 10
8.6617693787
 20
7.8966403112
 30
0.0
 10
8.6614717083
 20
7.8966428569
 30
0.0
 10
8.6607672201
 20
7.8973040191
 30
0.0
 10
8.6597376203
 20
7.8998162808
 30
0.0
 10
8.6585132618
 20
7.9053329975
 30
0.0
 10
8.6573176458
 20
7.9143598783
 30
0.0
 10
8.6562077741
 20
7.9265415785
 30
0.0
 10
8.655298436
 20
7.9413475766
 30
0.0
 10
8.6546114637
 20
7.958258653
 30
0.0
 10
8.6541918706
 20
7.976590961
 30
0.0
 10
8.6540949135
 20
7.9892173434
 30
0.0
 10
8.6540945834
 20
7.9956403338
 30
0.0
  0
SPLINE
  5
568
100
AcDbEntity
  8
00_COMPONENTS
100
AcDbSpline
 62
7
  6
BYLAYER
 70
0
 71
3
 72
16
 73
12
 74
0
 42
0.0000001
 43
0.0000001
 44
0.0000000001
 40
0.0
 40
0.0
 40
0.0
 40
0.0
 40
0.0089336193
 40
0.0250828891
 40
0.0832579347
 40
0.1758353006
 40
0.2994566717
 40
0.4497405551
 40
0.6211142947
 40
0.8072572883
 40
1.0
 40
1.0
 40
1.0
 40
1.0
 10
8.6617696253
 20
37.0966403564
 30
0.0
 10
8.6614719307
 20
37.0966378108
 30
0.0
 10
8.6607673725
 20
37.0959766882
 30
0.0
 10
8.6597376546
 20
37.0934643919
 30
0.0
 10
8.6585132473
 20
37.087947689
 30
0.0
 10
8.6573176262
 20
37.0789207864
 30
0.0
 10
8.65620778
 20
37.0667390897
 30
0.0
 10
8.6552984408
 20
37.0519330904
 30
0.0
 10
8.6546114626
 20
37.0350220148
 30
0.0
 10
8.6541918695
 20
37.0166897065
 30
0.0
 10
8.6540949135
 20
37.0040633242
 30
0.0
 10
8.6540945834
 20
36.9976403338
 30
0.0
  0
SPLINE
  5
569
100
AcDbEntity
  8
00_COMPONENTS
100
AcDbSpline
 62
7
  6
BYLAYER
 70
0
 71
3
 72
16
 73
12
 74
0
 42
0.0000001
 43
0.0000001
 44
0.0000000001
 40
0.0
 40
0.0
 40
0.0
 40
0.0
 40
0.008933619
 40
0.0250828887
 40
0.0832579343
 40
0.1758353002
 40
0.2994566714
 40
0.4497405547
 40
0.6211142945
 40
0.8072572882
 40
1.0
 40
1.0
 40
1.0
 40
1.0
 10
31.2014368439
 20
37.0966403564
 30
0.0
 10
31.2017345385
 20
37.0966378108
 30
0.0
 10
31.2024390967
 20
37.0959766882
 30
0.0
 10
31.2034688145
 20
37.0934643919
 30
0.0
 10
31.2046932218
 20
37.087947689
 30
0.0
 10
31.2058888429
 20
37.0789207864
 30
0.0
 10
31.2069986891
 20
37.0667390897
 30
0.0
 10
31.2079080283
 20
37.0519330904
 30
0.0
 10
31.2085950065
 20
37.0350220148
 30
0.0
 10
31.2090145996
 20
37.0166897065
 30
0.0
 10
31.2091115556
 20
37.0040633242
 30
0.0
 10
31.2091118857
 20
36.9976403338
 30
0.0
  0
SPLINE
  5
56A
100
AcDbEntity
  8
00_COMPONENTS_12
100
AcDbSpline
 62
7
  6
BYLAYER
 70
0
 71
3
 72
12
 73
8
 74
0
 42
0.0000001
 43
0.0000001
 44
0.0000000001
 40
0.0
 40
0.0
 40
0.0
 40
0.0
 40
0.2934715507
 40
0.5567191622
 40
0.7708720487
 40
0.9185588038
 40
1.0
 40
1.0
 40
1.0
 40
1.0
 10
17.2191119833
 20
30.4521289914
 30
0.0
 10
17.1674943356
 20
30.4516862023
 30
0.0
 10
17.0694312614
 20
30.4531004561
 30
0.0
 10
16.9345068844
 20
30.4642011065
 30
0.0
 10
16.825374339
 20
30.4864840775
 30
0.0
 10
16.75312
 20
30.5080589659
 30
0.0
 10
16.7175521407
 20
30.5399327368
 30
0.0
 10
16.7172532112
 20
30.5542545414
 30
0.0
  0
SPLINE
  5
56B
100
AcDbEntity
  8
00_COMPONENTS_12
100
AcDbSpline
 62
7
  6
BYLAYER
 70
0
 71
3
 72
10
 73
6
 74
0
 42
0.0000001
 43
0.0000001
 44
0.0000000001
 40
0.0
 40
0.0
 40
0.0
 40
0.0
 40
0.3332220276
 40
0.6665551995
 40
1.0
 40
1.0
 40
1.0
 40
1.0
 10
15.0252223782
 20
31.5966403338
 30
0.0
 10
15.0265990858
 20
30.9790352826
 30
0.0
 10
15.0296694085
 20
29.7436182436
 30
0.0
 10
15.0267082733
 20
27.8901772287
 30
0.0
 10
15.0315349005
 20
26.6543493333
 30
0.0
 10
15.0315942145
 20
26.0363298546
 30
0.0
  0
SPLINE
  5
56C
100
AcDbEntity
  8
00_COMPONENTS_12
100
AcDbSpline
 62
7
  6
BYLAYER
 70
0
 71
3
 72
33
 73
29
 74
0
 42
0.0000001
 43
0.0000001
 44
0.0000000001
 40
0.0
 40
0.0
 40
0.0
 40
0.0
 40
0.0663432072
 40
0.1263113539
 40
0.180564146
 40
0.2296507402
 40
0.2740373795
 40
0.3141219304
 40
0.3502475837
 40
0.3827275909
 40
0.4118546059
 40
0.4378859933
 40
0.4610421814
 40
0.4814948836
 40
0.499968605
 40
0.5184354945
 40
0.5388832948
 40
0.5620394978
 40
0.5880727842
 40
0.6172036716
 40
0.6496885303
 40
0.6858201021
 40
0.7259118197
 40
0.770306695
 40
0.8194025415
 40
0.8736655481
 40
0.9336448712
 40
1.0
 40
1.0
 40
1.0
 40
1.0
 10
27.4516014874
 20
26.3988793087
 30
0.0
 10
27.4570177469
 20
26.3478561945
 30
0.0
 10
27.4696156861
 20
26.2509361514
 30
0.0
 10
27.4943386104
 20
26.1134401869
 30
0.0
 10
27.5228587398
 20
25.9903437778
 30
0.0
 10
27.5545160394
 20
25.8805054757
 30
0.0
 10
27.5889059421
 20
25.783034904
 30
0.0
 10
27.6258094328
 20
25.6972850639
 30
0.0
 10
27.6652309744
 20
25.622918987
 30
0.0
 10
27.7069078277
 20
25.5596989032
 30
0.0
 10
27.750540617
 20
25.5075983291
 30
0.0
 10
27.795718603
 20
25.4668920456
 30
0.0
 10
27.8416217925
 20
25.4380954317
 30
0.0
 10
27.887051439
 20
25.4213770216
 30
0.0
 10
27.9315240777
 20
25.4159646547
 30
0.0
 10
27.975997428
 20
25.4213386856
 30
0.0
 10
28.021431975
 20
25.4380186724
 30
0.0
 10
28.0673513149
 20
25.4667864037
 30
0.0
 10
28.1125506969
 20
25.5074763667
 30
0.0
 10
28.1562047165
 20
25.5595703178
 30
0.0
 10
28.1979011307
 20
25.6227913244
 30
0.0
 10
28.2373401528
 20
25.6971640041
 30
0.0
 10
28.2742586012
 20
25.7829254784
 30
0.0
 10
28.3086611406
 20
25.8804118844
 30
0.0
 10
28.3403290036
 20
25.9902694913
 30
0.0
 10
28.3688576915
 20
26.1133882856
 30
0.0
 10
28.3935870983
 20
26.2509092951
 30
0.0
 10
28.4061877489
 20
26.3478470258
 30
0.0
 10
28.4116049817
 20
26.3988793087
 30
0.0
  0
SPLINE
  5
56D
100
AcDbEntity
  8
00_COMPONENTS_12
100
AcDbSpline
 62
7
  6
BYLAYER
 70
0
 71
3
 72
10
 73
6
 74
0
 42
0.0000001
 43
0.0000001
 44
0.0000000001
 40
0.0
 40
0.0
 40
0.0
 40
0.0
 40
0.3334448005
 40
0.6667779724
 40
1.0
 40
1.0
 40
1.0
 40
1.0
 10
24.8316122546
 20
26.0363298546
 30
0.0
 10
24.8316715686
 20
26.6543493333
 30
0.0
 10
24.8364981958
 20
27.8901772287
 30
0.0
 10
24.8335370606
 20
29.7436182436
 30
0.0
 10
24.8366073833
 20
30.9790352826
 30
0.0
 10
24.8379840909
 20
31.5966403338
 30
0.0
  0
SPLINE
  5
56E
100
AcDbEntity
  8
00_COMPONENTS_12
100
AcDbSpline
 62
7
  6
BYLAYER
 70
0
 71
3
 72
24
 73
20
 74
0
 42
0.0000001
 43
0.0000001
 44
0.0000000001
 40
0.0
 40
0.0
 40
0.0
 40
0.0
 40
0.0843469042
 40
0.1679405004
 40
0.2501844736
 40
0.3304794355
 40
0.4082310694
 40
0.4828597411
 40
0.5538130369
 40
0.6205835163
 40
0.682784301
 40
0.7403201429
 40
0.7932149914
 40
0.8415979014
 40
0.8857590905
 40
0.9262277871
 40
0.963865251
 40
0.9820319579
 40
1.0
 40
1.0
 40
1.0
 40
1.0
 10
17.2324956071
 20
29.4740744561
 30
0.0
 10
17.2162483798
 20
29.4737796274
 30
0.0
 10
17.1838817035
 20
29.4739088245
 30
0.0
 10
17.1357219229
 20
29.4761850766
 30
0.0
 10
17.0884814996
 20
29.4804653345
 30
0.0
 10
17.042590379
 20
29.4866713572
 30
0.0
 10
16.9984762842
 20
29.4947246341
 30
0.0
 10
16.9565658755
 20
29.5045462592
 30
0.0
 10
16.9172841689
 20
29.5160580581
 30
0.0
 10
16.881041639
 20
29.5291836887
 30
0.0
 10
16.8482120032
 20
29.5438779122
 30
0.0
 10
16.8190461441
 20
29.5599511357
 30
0.0
 10
16.7937306542
 20
29.577229887
 30
0.0
 10
16.7724431806
 20
29.595554693
 30
0.0
 10
16.755366376
 20
29.6147857475
 30
0.0
 10
16.7427037824
 20
29.634788691
 30
0.0
 10
16.7359651966
 20
29.6522349987
 30
0.0
 10
16.7331811332
 20
29.6662001352
 30
0.0
 10
16.7326347786
 20
29.6731606464
 30
0.0
 10
16.7325748259
 20
29.6766217708
 30
0.0
  0
LINE
  5
56F
100
AcDbEntity
  8
00_COMPONENTS_12
100
AcDbLine
 62
7
  6
BYLAYER
 10
10.9524927748
 20
32.0966403338
 11
10.8512830709
 21
32.0966403338
  0
SPLINE
  5
570
100
AcDbEntity
  8
00_COMPONENTS_12
100
AcDbSpline
 62
7
  6
BYLAYER
 70
0
 71
3
 72
11
 73
7
 74
0
 42
0.0000001
 43
0.0000001
 44
0.0000000001
 40
0.0
 40
0.0
 40
0.0
 40
0.0
 40
0.2486706693
 40
0.4999689819
 40
0.7512839284
 40
1.0
 40
1.0
 40
1.0
 40
1.0
 10
10.8512830996
 20
33.1220065687
 30
0.0
 10
12.3487234531
 20
33.2331991417
 30
0.0
 10
15.3638123433
 20
33.402007144
 30
0.0
 10
19.900561818
 20
33.4853945419
 30
0.0
 10
24.4376291406
 20
33.4041854298
 30
0.0
 10
27.4531618201
 20
33.2366335096
 30
0.0
 10
28.9509310993
 20
33.1261709144
 30
0.0
  0
LINE
  5
571
100
AcDbEntity
  8
00_COMPONENTS_12
100
AcDbLine
 62
7
  6
BYLAYER
 10
28.9515018859
 20
33.1262283968
 11
28.9106852378
 21
32.0966403338
  0
LINE
  5
572
100
AcDbEntity
  8
00_COMPONENTS_12
100
AcDbLine
 62
7
  6
BYLAYER
 10
23.1402221886
 20
31.5966403338
 11
23.1589802935
 21
32.5966403338
  0
SPLINE
  5
573
100
AcDbEntity
  8
00_COMPONENTS_12
100
AcDbSpline
 62
7
  6
BYLAYER
 70
0
 71
3
 72
12
 73
8
 74
0
 42
0.0000001
 43
0.0000001
 44
0.0000000001
 40
0.0
 40
0.0
 40
0.0
 40
0.0
 40
0.0805174934
 40
0.2284231634
 40
0.44465052
 40
0.7104596219
 40
1.0
 40
1.0
 40
1.0
 40
1.0
 10
23.1459532579
 20
30.5542545414
 30
0.0
 10
23.1456587323
 20
30.540143728
 30
0.0
 10
23.1106528223
 20
30.5082843346
 30
0.0
 10
23.0383151331
 20
30.4866156905
 30
0.0
 10
22.9287766698
 20
30.4641366512
 30
0.0
 10
22.7941680802
 20
30.4533318607
 30
0.0
 10
22.6966846496
 20
30.4512603527
 30
0.0
 10
22.6459380986
 20
30.452096811
 30
0.0
  0
SPLINE
  5
574
100
AcDbEntity
  8
00_COMPONENTS_12
100
AcDbSpline
 62
7
  6
BYLAYER
 70
0
 71
3
 72
12
 73
8
 74
0
 42
0.0000001
 43
0.0000001
 44
0.0000000001
 40
0.0
 40
0.0
 40
0.0
 40
0.0
 40
0.1204081058
 40
0.2795495234
 40
0.4868874116
 40
0.7328188125
 40
1.0
 40
1.0
 40
1.0
 40
1.0
 10
23.1306338943
 20
29.6766087854
 30
0.0
 10
23.1301894275
 20
29.6535042821
 30
0.0
 10
23.1055350343
 20
29.6008670156
 30
0.0
 10
23.0274665231
 20
29.5462966803
 30
0.0
 10
22.9170971549
 20
29.504022265
 30
0.0
 10
22.7806473413
 20
29.4782431138
 30
0.0
 10
22.6819824666
 20
29.4733037946
 30
0.0
 10
22.6307099716
 20
29.4740226577
 30
0.0
  0
SPLINE
  5
575
100
AcDbEntity
  8
00_COMPONENTS_12
100
AcDbSpline
 62
7
  6
BYLAYER
 70
0
 71
3
 72
10
 73
6
 74
0
 42
0.0000001
 43
0.0000001
 44
0.0000000001
 40
0.0
 40
0.0
 40
0.0
 40
0.0
 40
0.3108345053
 40
0.6471064264
 40
1.0
 40
1.0
 40
1.0
 40
1.0
 10
28.9515018859
 20
33.1262283968
 30
0.0
 10
29.3102295458
 20
33.0942834629
 30
0.0
 10
30.0571648036
 20
33.0291706364
 30
0.0
 10
31.2113079966
 20
32.9271201164
 30
0.0
 10
32.0067256961
 20
32.8570389978
 30
0.0
 10
32.4140385775
 20
32.8212887497
 30
0.0
  0
SPLINE
  5
576
100
AcDbEntity
  8
00_COMPONENTS_12
100
AcDbSpline
 62
7
  6
BYLAYER
 70
0
 71
3
 72
11
 73
7
 74
0
 42
0.0000001
 43
0.0000001
 44
0.0000000001
 40
0.0
 40
0.0
 40
0.0
 40
0.0
 40
0.146312896
 40
0.3636476068
 40
0.654338243
 40
1.0
 40
1.0
 40
1.0
 40
1.0
 10
5.3881116136
 20
32.2806262434
 30
0.0
 10
5.3881116134
 20
32.313315401
 30
0.0
 10
5.4355959186
 20
32.3904082607
 30
0.0
 10
5.5653653753
 20
32.4601979178
 30
0.0
 10
5.7476259337
 20
32.5191103896
 30
0.0
 10
5.888442516
 20
32.5419376833
 30
0.0
 10
5.9651824747
 20
32.5506024791
 30
0.0
  0
SPLINE
  5
577
100
AcDbEntity
  8
00_COMPONENTS_12
100
AcDbSpline
 62
7
  6
BYLAYER
 70
0
 71
3
 72
23
 73
19
 74
0
 42
0.0000001
 43
0.0000001
 44
0.0000000001
 40
0.0
 40
0.0
 40
0.0
 40
0.0
 40
0.0608932779
 40
0.1224311639
 40
0.1845206173
 40
0.2470687236
 40
0.3099828094
 40
0.3731705566
 40
0.4365401187
 40
0.5000002416
 40
0.5634603409
 40
0.6268298476
 40
0.6900175183
 40
0.7529315171
 40
0.8154795367
 40
0.877568914
 40
0.9391067452
 40
1.0
 40
1.0
 40
1.0
 40
1.0
 10
5.9652189642
 20
32.5506233851
 30
0.0
 10
6.5297866491
 20
32.6143739797
 30
0.0
 10
7.6658284623
 20
32.7344540811
 30
0.0
 10
9.3803512796
 20
32.89144087
 30
0.0
 10
11.1122869077
 20
33.0257888221
 30
0.0
 10
12.8587310746
 20
33.1369508715
 30
0.0
 10
14.616785271
 20
33.2243808068
 30
0.0
 10
16.383549487
 20
33.2875324831
 30
0.0
 10
18.1561238921
 20
33.3258600014
 30
0.0
 10
19.9316093237
 20
33.338817699
 30
0.0
 10
21.7070942384
 20
33.3258600096
 30
0.0
 10
23.4796671917
 20
33.2875324985
 30
0.0
 10
25.2464293653
 20
33.2243808288
 30
0.0
 10
27.0044812251
 20
33.1369508991
 30
0.0
 10
28.7509230572
 20
33.0257888544
 30
0.0
 10
30.4828566485
 20
32.8914409058
 30
0.0
 10
32.1973780232
 20
32.734454119
 30
0.0
 10
33.333419109
 20
32.6143740555
 30
0.0
 10
33.8979865804
 20
32.5506234895
 30
0.0
  0
SPLINE
  5
578
100
AcDbEntity
  8
00_COMPONENTS_12
100
AcDbSpline
 62
7
  6
BYLAYER
 70
0
 71
3
 72
11
 73
7
 74
0
 42
0.0000001
 43
0.0000001
 44
0.0000000001
 40
0.0
 40
0.0
 40
0.0
 40
0.0
 40
0.3475259709
 40
0.6414420105
 40
0.8551512474
 40
1.0
 40
1.0
 40
1.0
 40
1.0
 10
33.8980239945
 20
32.5506024791
 30
0.0
 10
33.9751837887
 20
32.5418893197
 30
0.0
 10
34.1171258883
 20
32.5188116044
 30
0.0
 10
34.2996627595
 20
32.4595210583
 30
0.0
 10
34.4287282922
 20
32.3891722928
 30
0.0
 10
34.4750948557
 20
32.3129908291
 30
0.0
 10
34.4750948555
 20
32.2806262434
 30
0.0
  0
SPLINE
  5
579
100
AcDbEntity
  8
00_COMPONENTS_12
100
AcDbSpline
 62
7
  6
BYLAYER
 70
0
 71
3
 72
10
 73
6
 74
0
 42
0.0000001
 43
0.0000001
 44
0.0000000001
 40
0.0
 40
0.0
 40
0.0
 40
0.0
 40
0.3333339682
 40
0.666667344
 40
1.0
 40
1.0
 40
1.0
 40
1.0
 10
10.8512828804
 20
33.1220065687
 30
0.0
 10
10.4732906402
 20
33.0883536101
 30
0.0
 10
9.7172840372
 20
33.0213038785
 30
0.0
 10
8.5832473573
 20
32.921045347
 30
0.0
 10
7.827200417
 20
32.8544690324
 30
0.0
 10
7.4491678916
 20
32.8212887497
 30
0.0
  0
SPLINE
  5
57A
100
AcDbEntity
  8
00_COMPONENTS_12
100
AcDbSpline
 62
7
  6
BYLAYER
 70
0
 71
3
 72
10
 73
6
 74
0
 42
0.0000001
 43
0.0000001
 44
0.0000000001
 40
0.0
 40
0.0
 40
0.0
 40
0.0
 40
0.3334690532
 40
0.6668023491
 40
1.0
 40
1.0
 40
1.0
 40
1.0
 10
8.1881812681
 20
8.7966403338
 30
0.0
 10
8.1868453843
 20
10.3305976823
 30
0.0
 10
8.1847072446
 20
13.397888748
 30
0.0
 10
8.1863106318
 20
17.9978898363
 30
0.0
 10
8.1841730723
 20
21.0639324513
 30
0.0
 10
8.1828366446
 20
22.5966413478
 30
0.0
  0
SPLINE
  5
57B
100
AcDbEntity
  8
00_COMPONENTS_12
100
AcDbSpline
 62
7
  6
BYLAYER
 70
0
 71
3
 72
9
 73
5
 74
0
 42
0.0000001
 43
0.0000001
 44
0.0000000001
 40
0.0
 40
0.0
 40
0.0
 40
0.0
 40
0.5
 40
1.0
 40
1.0
 40
1.0
 40
1.0
 10
31.675025201
 20
8.7966403338
 30
0.0
 10
31.675025201
 20
11.0966406753
 30
0.0
 10
31.6776975128
 20
15.6966408409
 30
0.0
 10
31.6803698245
 20
20.2966410065
 30
0.0
 10
31.6803698245
 20
22.596641348
 30
0.0
  0
SPLINE
  5
57C
100
AcDbEntity
  8
00_COMPONENTS_12
100
AcDbSpline
 62
7
  6
BYLAYER
 70
0
 71
3
 72
11
 73
7
 74
0
 42
0.0000001
 43
0.0000001
 44
0.0000000001
 40
0.0
 40
0.0
 40
0.0
 40
0.0
 40
0.3733265208
 40
0.6936100169
 40
0.9114608891
 40
1.0
 40
1.0
 40
1.0
 40
1.0
 10
33.6316032346
 20
22.8804921169
 30
0.0
 10
33.6514334542
 20
22.8804921169
 30
0.0
 10
33.6875535958
 20
22.8813266758
 30
0.0
 10
33.7384692031
 20
22.8848570864
 30
0.0
 10
33.7660963173
 20
22.8899610465
 30
0.0
 10
33.7881116127
 20
22.8949920536
 30
0.0
 10
33.7881116136
 20
22.8996950413
 30
0.0
  0
SPLINE
  5
57D
100
AcDbEntity
  8
00_COMPONENTS_12
100
AcDbSpline
 62
7
  6
BYLAYER
 70
0
 71
3
 72
23
 73
19
 74
0
 42
0.0000001
 43
0.0000001
 44
0.0000000001
 40
0.0
 40
0.0
 40
0.0
 40
0.0
 40
0.060912036
 40
0.1224610904
 40
0.1845552439
 40
0.2471026974
 40
0.3100118842
 40
0.3731915803
 40
0.4365510178
 40
0.5000000009
 40
0.5634489839
 40
0.6268084211
 40
0.689988117
 40
0.7528973035
 40
0.8154447567
 40
0.8775389098
 40
0.9390879641
 40
1.0
 40
1.0
 40
1.0
 40
1.0
 10
33.6745181106
 20
32.3385053134
 30
0.0
 10
33.1187690314
 20
32.4006745639
 30
0.0
 10
32.0005603298
 20
32.5177678193
 30
0.0
 10
30.3130895468
 20
32.6708350775
 30
0.0
 10
28.6086978864
 20
32.8018074461
 30
0.0
 10
26.8902074916
 20
32.9101592164
 30
0.0
 10
25.1604349367
 20
32.9953654972
 30
0.0
 10
23.4221982478
 20
33.0569014604
 30
0.0
 10
21.6783152745
 20
33.0942425134
 30
0.0
 10
19.931603211
 20
33.106864289
 30
0.0
 10
18.1848911494
 20
33.0942425134
 30
0.0
 10
16.4410081812
 20
33.0569014605
 30
0.0
 10
14.7027714996
 20
32.9953654972
 30
0.0
 10
12.9729989533
 20
32.9101592163
 30
0.0
 10
11.2545085669
 20
32.8018074461
 30
0.0
 10
9.5501169139
 20
32.6708350774
 30
0.0
 10
7.8626461361
 20
32.5177678191
 30
0.0
 10
6.744437437
 20
32.4006745638
 30
0.0
 10
6.1886883585
 20
32.3385053134
 30
0.0
  0
SPLINE
  5
57E
100
AcDbEntity
  8
00_COMPONENTS_12
100
AcDbSpline
 62
7
  6
BYLAYER
 70
0
 71
3
 72
11
 73
7
 74
0
 42
0.0000001
 43
0.0000001
 44
0.0000000001
 40
0.0
 40
0.0
 40
0.0
 40
0.0
 40
0.0904779174
 40
0.3111499078
 40
0.629885089
 40
1.0
 40
1.0
 40
1.0
 40
1.0
 10
6.0750948555
 20
22.8996950413
 30
0.0
 10
6.0750948564
 20
22.8948893878
 30
0.0
 10
6.0975551816
 20
22.8899268568
 30
0.0
 10
6.1252615406
 20
22.884779343
 30
0.0
 10
6.1760757654
 20
22.8813216321
 30
0.0
 10
6.2119449127
 20
22.8804921169
 30
0.0
 10
6.2316032346
 20
22.8804921169
 30
0.0
  0
LINE
  5
57F
100
AcDbEntity
  8
00_COMPONENTS_12
100
AcDbLine
 62
7
  6
BYLAYER
 10
6.8912399064
 20
22.989756605
 11
6.5263855003
 21
23.6216991958
  0
SPLINE
  5
580
100
AcDbEntity
  8
00_COMPONENTS_12
100
AcDbSpline
 62
7
  6
BYLAYER
 70
0
 71
3
 72
25
 73
21
 74
0
 42
0.0000001
 43
0.0000001
 44
0.0000000001
 40
0.0
 40
0.0
 40
0.0
 40
0.0
 40
0.0302515181
 40
0.0607145316
 40
0.1222030445
 40
0.1843227886
 40
0.2469310096
 40
0.3098954156
 40
0.3731190936
 40
0.4365152918
 40
0.4999975773
 40
0.563479922
 40
0.6268763073
 40
0.6901003154
 40
0.7530652094
 40
0.8156740907
 40
0.8777946782
 40
0.9392842278
 40
0.9697478354
 40
1.0
 40
1.0
 40
1.0
 40
1.0
 10
6.4316853439
 20
32.2036665664
 30
0.0
 10
6.7028057387
 20
32.234124461
 30
0.0
 10
7.2471545679
 20
32.2933423512
 30
0.0
 10
8.3435951456
 20
32.4049007398
 30
0.0
 10
9.7273951146
 20
32.5311446578
 30
0.0
 10
11.4018487914
 20
32.660639746
 30
0.0
 10
13.0912217249
 20
32.767781038
 30
0.0
 10
14.7918728
 20
32.8517615724
 30
0.0
 10
16.5006345336
 20
32.9121954012
 30
0.0
 10
18.214746479
 20
32.9487329514
 30
0.0
 10
19.9315382173
 20
32.9610280026
 30
0.0
 10
21.6483316573
 20
32.9487348176
 30
0.0
 10
23.362448839
 20
32.9121989593
 30
0.0
 10
25.0712196936
 20
32.85176648
 30
0.0
 10
26.7718841604
 20
32.7677867843
 30
0.0
 10
28.4612751037
 20
32.6606456557
 30
0.0
 10
30.1357517031
 20
32.5311498154
 30
0.0
 10
31.519573946
 20
32.404904413
 30
0.0
 10
32.6160349803
 20
32.2933441738
 30
0.0
 10
33.1603949367
 20
32.2341251119
 30
0.0
 10
33.4315211252
 20
32.2036665664
 30
0.0
  0
LINE
  5
581
100
AcDbEntity
  8
00_COMPONENTS_12
100
AcDbLine
 62
7
  6
BYLAYER
 10
33.3368200238
 20
23.6216992075
 11
32.9719665627
 21
22.989756605
  0
SPLINE
  5
582
100
AcDbEntity
  8
00_COMPONENTS_12
100
AcDbSpline
 62
7
  6
BYLAYER
 70
0
 71
3
 72
11
 73
7
 74
0
 42
0.0000001
 43
0.0000001
 44
0.0000000001
 40
0.0
 40
0.0
 40
0.0
 40
0.0
 40
0.359882402
 40
0.6723360718
 40
0.8955942899
 40
1.0
 40
1.0
 40
1.0
 40
1.0
 10
35.3276908822
 20
22.4692643855
 30
0.0
 10
35.3282113911
 20
22.5289114393
 30
0.0
 10
35.3329847139
 20
22.6402919886
 30
0.0
 10
35.3313474024
 20
22.7887532245
 30
0.0
 10
35.3316429232
 20
22.8948473389
 30
0.0
 10
35.3315870721
 20
22.9491568867
 30
0.0
 10
35.3316016355
 20
22.9664617837
 30
0.0
  0
LINE
  5
583
100
AcDbEntity
  8
00_COMPONENTS_12
100
AcDbLine
 62
7
  6
BYLAYER
 10
35.3107673774
 20
20.5966403341
 11
35.310766528
 21
20.5543546586
  0
SPLINE
  5
584
100
AcDbEntity
  8
00_COMPONENTS_12
100
AcDbSpline
 62
7
  6
BYLAYER
 70
0
 71
3
 72
11
 73
7
 74
0
 42
0.0000001
 43
0.0000001
 44
0.0000000001
 40
0.0
 40
0.0
 40
0.0
 40
0.0
 40
0.0122672106
 40
0.2114352714
 40
0.5638650189
 40
1.0
 40
1.0
 40
1.0
 40
1.0
 10
35.310766528
 20
20.5543544672
 30
0.0
 10
35.3107627351
 20
20.553550148
 30
0.0
 10
35.3280057249
 20
20.5735405578
 30
0.0
 10
35.3003074104
 20
20.6006740383
 30
0.0
 10
35.3181900082
 20
20.6717524074
 30
0.0
 10
35.3124209843
 20
20.721530613
 30
0.0
 10
35.312670564
 20
20.750125727
 30
0.0
  0
SPLINE
  5
585
100
AcDbEntity
  8
00_COMPONENTS_12
100
AcDbSpline
 62
7
  6
BYLAYER
 70
0
 71
3
 72
10
 73
6
 74
0
 42
0.0000001
 43
0.0000001
 44
0.0000000001
 40
0.0
 40
0.0
 40
0.0
 40
0.0
 40
0.1127120093
 40
0.4484191198
 40
1.0
 40
1.0
 40
1.0
 40
1.0
 10
35.3106253414
 20
20.5966403986
 30
0.0
 10
35.3104563234
 20
20.5896014762
 30
0.0
 10
35.3098856722
 20
20.5615957406
 30
0.0
 10
35.3092720627
 20
20.4991302385
 30
0.0
 10
35.3086085181
 20
20.4437080353
 30
0.0
 10
35.308240788
 20
20.409254173
 30
0.0
  0
SPLINE
  5
586
100
AcDbEntity
  8
00_COMPONENTS_12
100
AcDbSpline
 62
7
  6
BYLAYER
 70
0
 71
3
 72
10
 73
6
 74
0
 42
0.0000001
 43
0.0000001
 44
0.0000000001
 40
0.0
 40
0.0
 40
0.0
 40
0.0
 40
0.3311515316
 40
0.6644457694
 40
1.0
 40
1.0
 40
1.0
 40
1.0
 10
35.3081082447
 20
20.4092557816
 30
0.0
 10
35.3075837049
 20
20.3601098648
 30
0.0
 10
35.3044717311
 20
20.2615230085
 30
0.0
 10
35.3067295341
 20
20.1130852689
 30
0.0
 10
35.3038216596
 20
20.0138414757
 30
0.0
 10
35.3032850594
 20
19.9640422127
 30
0.0
  0
SPLINE
  5
587
100
AcDbEntity
  8
00_COMPONENTS_12
100
AcDbSpline
 62
7
  6
BYLAYER
 70
0
 71
3
 72
27
 73
23
 74
0
 42
0.0000001
 43
0.0000001
 44
0.0000000001
 40
0.0
 40
0.0
 40
0.0
 40
0.0
 40
0.2185527384
 40
0.41310871
 40
0.5009169403
 40
0.5821622824
 40
0.6566596119
 40
0.7242262538
 40
0.7846832661
 40
0.8378576877
 40
0.8835867619
 40
0.921726636
 40
0.9379173751
 40
0.9521777444
 40
0.9645103455
 40
0.9749332921
 40
0.9834941864
 40
0.9903019973
 40
0.9931235231
 40
0.9956213215
 40
0.9978763902
 40
1.0
 40
1.0
 40
1.0
 40
1.0
 10
35.3316015017
 20
32.5966403338
 30
0.0
 10
35.3296151267
 20
32.5668250899
 30
0.0
 10
35.3256627035
 20
32.5104811416
 30
0.0
 10
35.3202186406
 20
32.4422089761
 30
0.0
 10
35.3157654528
 20
32.3926943726
 30
0.0
 10
35.3125218883
 20
32.3595531262
 30
0.0
 10
35.3092607715
 20
32.3291955666
 30
0.0
 10
35.3059834884
 20
32.3016999802
 30
0.0
 10
35.3026919401
 20
32.2771444998
 30
0.0
 10
35.299389944
 20
32.2556058681
 30
0.0
 10
35.2960799196
 20
32.2371613857
 30
0.0
 10
35.2931884702
 20
32.2237842375
 30
0.0
 10
35.2908120276
 20
32.2147107994
 30
0.0
 10
35.2891266927
 20
32.2091075038
 30
0.0
 10
35.2874411102
 20
32.2043331841
 30
0.0
 10
35.2857553792
 20
32.2003918692
 30
0.0
 10
35.2840699768
 20
32.197288807
 30
0.0
 10
35.2825758349
 20
32.1952780243
 30
0.0
 10
35.2813496373
 20
32.1941541275
 30
0.0
 10
35.2804797438
 20
32.1935817959
 30
0.0
 10
35.2795992376
 20
32.1932312268
 30
0.0
 10
35.2789980911
 20
32.1931513067
 30
0.0
 10
35.2787077433
 20
32.1931514149
 30
0.0
  0
SPLINE
  5
588
100
AcDbEntity
  8
00_COMPONENTS_12
100
AcDbSpline
 62
7
  6
BYLAYER
 70
0
 71
3
 72
10
 73
6
 74
0
 42
0.0000001
 43
0.0000001
 44
0.0000000001
 40
0.0
 40
0.0
 40
0.0
 40
0.0
 40
0.3367432907
 40
0.6683590978
 40
1.0
 40
1.0
 40
1.0
 40
1.0
 10
34.9181599001
 20
32.5949870983
 30
0.0
 10
34.9141894984
 20
32.5953704059
 30
0.0
 10
34.9063344068
 20
32.5966206058
 30
0.0
 10
34.8944591663
 20
32.5958640297
 30
0.0
 10
34.8866209725
 20
32.5966440069
 30
0.0
 10
34.8826925527
 20
32.5966403054
 30
0.0
  0
SPLINE
  5
589
100
AcDbEntity
  8
00_COMPONENTS_12
100
AcDbSpline
 62
7
  6
BYLAYER
 70
0
 71
3
 72
21
 73
17
 74
0
 42
0.0000001
 43
0.0000001
 44
0.0000000001
 40
0.0
 40
0.0
 40
0.0
 40
0.0
 40
0.1164631582
 40
0.1774378034
 40
0.2399193264
 40
0.3037044777
 40
0.3685172855
 40
0.4340546886
 40
0.4999611509
 40
0.5658676532
 40
0.6314051744
 40
0.6962181732
 40
0.7600035792
 40
0.8224854083
 40
0.8834603948
 40
1.0
 40
1.0
 40
1.0
 40
1.0
 10
34.8787745621
 20
32.5966403308
 30
0.0
 10
34.9032105928
 20
32.5966372955
 30
0.0
 10
34.9405754122
 20
32.5931463614
 30
0.0
 10
34.9895117398
 20
32.5810859767
 30
0.0
 10
35.0265949745
 20
32.5678981695
 30
0.0
 10
35.0628704438
 20
32.5506705698
 30
0.0
 10
35.0978065966
 20
32.5295953362
 30
0.0
 10
35.1308262654
 20
32.5048796594
 30
0.0
 10
35.1614420807
 20
32.4769012996
 30
0.0
 10
35.1891519171
 20
32.446042204
 30
0.0
 10
35.2135782287
 20
32.4128078165
 30
0.0
 10
35.2343475268
 20
32.3776887884
 30
0.0
 10
35.2512576707
 20
32.34126408
 30
0.0
 10
35.2641211524
 20
32.3040668942
 30
0.0
 10
35.2757574628
 20
32.2550113827
 30
0.0
 10
35.2789210957
 20
32.2176007345
 30
0.0
 10
35.2787077075
 20
32.1931495947
 30
0.0
  0
SPLINE
  5
58A
100
AcDbEntity
  8
00_COMPONENTS_12
100
AcDbSpline
 62
7
  6
BYLAYER
 70
0
 71
3
 72
23
 73
19
 74
0
 42
0.0000001
 43
0.0000001
 44
0.0000000001
 40
0.0
 40
0.0
 40
0.0
 40
0.0
 40
0.0562072385
 40
0.1142017149
 40
0.1737527984
 40
0.2347171537
 40
0.2988555487
 40
0.3641028255
 40
0.4300767243
 40
0.4963995138
 40
0.5627338596
 40
0.628741502
 40
0.6940444816
 40
0.7582619361
 40
0.8211031003
 40
0.8824656391
 40
0.9421847746
 40
1.0
 40
1.0
 40
1.0
 40
1.0
 10
4.9842498388
 20
32.5966387329
 30
0.0
 10
4.9724598329
 20
32.59662321
 30
0.0
 10
4.9484927358
 20
32.5954611968
 30
0.0
 10
4.9123580602
 20
32.5903341488
 30
0.0
 10
4.8758897681
 20
32.581588816
 30
0.0
 10
4.8392273514
 20
32.5688922406
 30
0.0
 10
4.8029919771
 20
32.5519520719
 30
0.0
 10
4.7677320373
 20
32.5309430554
 30
0.0
 10
4.7343249284
 20
32.5063170881
 30
0.0
 10
4.7033261422
 20
32.4783728482
 30
0.0
 10
4.6753127661
 20
32.4474269158
 30
0.0
 10
4.6506060793
 20
32.4140529764
 30
0.0
 10
4.6295101472
 20
32.3788034157
 30
0.0
 10
4.6123249448
 20
32.3422161573
 30
0.0
 10
4.5993624206
 20
32.3048033855
 30
0.0
 10
4.5904553103
 20
32.267201046
 30
0.0
 10
4.5853824303
 20
32.2299647813
 30
0.0
 10
4.58439312
 20
32.2052863852
 30
0.0
 10
4.5844986509
 20
32.1931595374
 30
0.0
  0
SPLINE
  5
58B
100
AcDbEntity
  8
00_COMPONENTS_12
100
AcDbSpline
 62
7
  6
BYLAYER
 70
0
 71
3
 72
27
 73
23
 74
0
 42
0.0000001
 43
0.0000001
 44
0.0000000001
 40
0.0
 40
0.0
 40
0.0
 40
0.0
 40
0.0021239134
 40
0.0043796712
 40
0.0068784073
 40
0.0097010017
 40
0.016511057
 40
0.0250740709
 40
0.0354988908
 40
0.0478330794
 40
0.0620947428
 40
0.078286489
 40
0.116427572
 40
0.1621568965
 40
0.2153307649
 40
0.2757865819
 40
0.3433515507
 40
0.4178468947
 40
0.4990901045
 40
0.5868962221
 40
0.7814486912
 40
1.0
 40
1.0
 40
1.0
 40
1.0
 10
4.5844986509
 20
32.1931595374
 30
0.0
 10
4.5842082687
 20
32.1931596917
 30
0.0
 10
4.5836070788
 20
32.1932401583
 30
0.0
 10
4.5827266097
 20
32.1935914404
 30
0.0
 10
4.581856739
 20
32.1941644146
 30
0.0
 10
4.5806305722
 20
32.1952891324
 30
0.0
 10
4.579136455
 20
32.1973007516
 30
0.0
 10
4.5774510292
 20
32.2004046697
 30
0.0
 10
4.5757652797
 20
32.2043466866
 30
0.0
 10
4.5740796817
 20
32.2091215571
 30
0.0
 10
4.5723943362
 20
32.2147252534
 30
0.0
 10
4.5700179091
 20
32.2237989524
 30
0.0
 10
4.5671264581
 20
32.2371760986
 30
0.0
 10
4.5638164223
 20
32.2556202362
 30
0.0
 10
4.5605144229
 20
32.2771581171
 30
0.0
 10
4.5572228777
 20
32.3017125106
 30
0.0
 10
4.5539456018
 20
32.3292067431
 30
0.0
 10
4.5506844953
 20
32.3595627516
 30
0.0
 10
4.5474409429
 20
32.3927023196
 30
0.0
 10
4.5429877639
 20
32.4422146316
 30
0.0
 10
4.5375437065
 20
32.5104841403
 30
0.0
 10
4.5335913225
 20
32.5668260217
 30
0.0
 10
4.5316049674
 20
32.5966403338
 30
0.0
  0
SPLINE
  5
58C
100
AcDbEntity
  8
00_COMPONENTS_12
100
AcDbSpline
 62
7
  6
BYLAYER
 70
0
 71
3
 72
10
 73
6
 74
0
 42
0.0000001
 43
0.0000001
 44
0.0000000001
 40
0.0
 40
0.0
 40
0.0
 40
0.0
 40
0.3292648283
 40
0.6626344482
 40
1.0
 40
1.0
 40
1.0
 40
1.0
 10
4.9450465494
 20
32.5949872402
 30
0.0
 10
4.9490182917
 20
32.5953605755
 30
0.0
 10
4.9570248029
 20
32.595973341
 30
0.0
 10
4.9691298026
 20
32.5965217054
 30
0.0
 10
4.9772567586
 20
32.5966360453
 30
0.0
 10
4.981344152
 20
32.5966401984
 30
0.0
  0
SPLINE
  5
58D
100
AcDbEntity
  8
00_COMPONENTS_12
100
AcDbSpline
 62
7
  6
BYLAYER
 70
0
 71
3
 72
26
 73
22
 74
0
 42
0.0000001
 43
0.0000001
 44
0.0000000001
 40
0.0
 40
0.0
 40
0.0
 40
0.0
 40
0.0097253079
 40
0.0199109897
 40
0.042780604
 40
0.0567897902
 40
0.0724384179
 40
0.0898748741
 40
0.1092128281
 40
0.1305308629
 40
0.1538452772
 40
0.2064000231
 40
0.2666256618
 40
0.3338815451
 40
0.4073521415
 40
0.4860052612
 40
0.5687179035
 40
0.6542678263
 40
0.7414024627
 40
0.8288726295
 40
1.0
 40
1.0
 40
1.0
 40
1.0
 10
5.4393064582
 20
32.5966400357
 30
0.0
 10
5.4379226825
 20
32.5966390107
 30
0.0
 10
5.4350833993
 20
32.5963773827
 30
0.0
 10
5.4291912662
 20
32.5947411991
 30
0.0
 10
5.4233174806
 20
32.5912815149
 30
0.0
 10
5.4177020979
 20
32.5863392409
 30
0.0
 10
5.4131804446
 20
32.5813748388
 30
0.0
 10
5.4086789171
 20
32.5754176099
 30
0.0
 10
5.4042074946
 20
32.5684574689
 30
0.0
 10
5.3997864525
 20
32.5604952705
 30
0.0
 10
5.3937292694
 20
32.5480581398
 30
0.0
 10
5.386485708
 20
32.5300742272
 30
0.0
 10
5.3785531101
 20
32.50570236
 30
0.0
 10
5.3711750167
 20
32.4780657753
 30
0.0
 10
5.3644837679
 20
32.4475678708
 30
0.0
 10
5.3585666449
 20
32.4146747743
 30
0.0
 10
5.3535217629
 20
32.3799001344
 30
0.0
 10
5.3493958381
 20
32.3437905116
 30
0.0
 10
5.346237923
 20
32.3069041765
 30
0.0
 10
5.3433261573
 20
32.2577935482
 30
0.0
 10
5.3425110877
 20
32.2209899949
 30
0.0
 10
5.3425110785
 20
32.1966409496
 30
0.0
  0
SPLINE
  5
58E
100
AcDbEntity
  8
00_COMPONENTS_12
100
AcDbSpline
 62
7
  6
BYLAYER
 70
0
 71
3
 72
25
 73
21
 74
0
 42
0.0000001
 43
0.0000001
 44
0.0000000001
 40
0.0
 40
0.0
 40
0.0
 40
0.0
 40
0.0111905511
 40
0.0228312378
 40
0.0353070849
 40
0.0489102312
 40
0.063847144
 40
0.0802565635
 40
0.0982276307
 40
0.1178143165
 40
0.1619200246
 40
0.212644672
 40
0.2698855093
 40
0.3334582423
 40
0.4030626754
 40
0.4780752785
 40
0.5577699089
 40
0.6414000741
 40
0.8174118724
 40
1.0
 40
1.0
 40
1.0
 40
1.0
 10
34.4238966594
 20
32.5966490614
 30
0.0
 10
34.425490224
 20
32.5966491179
 30
0.0
 10
34.4287508288
 20
32.5962932853
 30
0.0
 10
34.4335614325
 20
32.5947336523
 30
0.0
 10
34.4383175706
 20
32.5921856659
 30
0.0
 10
34.4430130917
 20
32.5886826046
 30
0.0
 10
34.4476477515
 20
32.5842488726
 30
0.0
 10
34.4522177758
 20
32.5789037366
 30
0.0
 10
34.4567175651
 20
32.5726648193
 30
0.0
 10
34.4628568099
 20
32.562779576
 30
0.0
 10
34.4701936185
 20
32.5481964849
 30
0.0
 10
34.478259772
 20
32.5280805347
 30
0.0
 10
34.4858204276
 20
32.5048363659
 30
0.0
 10
34.4927861143
 20
32.4786187081
 30
0.0
 10
34.4990617923
 20
32.4496346957
 30
0.0
 10
34.5046257986
 20
32.4181738854
 30
0.0
 10
34.5094384564
 20
32.3845714071
 30
0.0
 10
34.5148913786
 20
32.3365519397
 30
0.0
 10
34.5194649716
 20
32.2737150313
 30
0.0
 10
34.520704271
 20
32.2226413638
 30
0.0
 10
34.5206901771
 20
32.1966403266
 30
0.0
  0
LINE
  5
58F
100
AcDbEntity
  8
00_COMPONENTS_12
100
AcDbLine
 62
7
  6
BYLAYER
 10
34.520689833
 20
32.1966403338
 11
34.3021837604
 21
7.5966403338
  0
LINE
  5
590
100
AcDbEntity
  8
00_COMPONENTS_12
100
AcDbLine
 62
7
  6
BYLAYER
 10
5.5610227087
 20
7.5966403338
 11
5.3425166361
 21
32.1966403338
  0
SPLINE
  5
591
100
AcDbEntity
  8
00_COMPONENTS_12
100
AcDbSpline
 62
7
  6
BYLAYER
 70
0
 71
3
 72
24
 73
20
 74
0
 42
0.0000001
 43
0.0000001
 44
0.0000000001
 40
0.0
 40
0.0
 40
0.0
 40
0.0
 40
0.064135033
 40
0.1287092059
 40
0.1921274955
 40
0.2540342522
 40
0.3167706705
 40
0.3734231684
 40
0.4274110146
 40
0.4821551478
 40
0.5363454117
 40
0.5895241666
 40
0.6400924307
 40
0.6945923182
 40
0.7535541357
 40
0.8117359605
 40
0.8731531121
 40
0.9366007703
 40
1.0
 40
1.0
 40
1.0
 40
1.0
 10
19.9316032345
 20
28.0966403338
 30
0.0
 10
19.3743532418
 20
28.0966403338
 30
0.0
 10
18.2533268086
 20
27.9949696892
 30
0.0
 10
16.6376287391
 20
27.540565538
 30
0.0
 10
15.1490786317
 20
26.8064246937
 30
0.0
 10
13.8380551424
 20
25.8150653707
 30
0.0
 10
12.7787847606
 20
24.6352624768
 30
0.0
 10
12.0018105774
 20
23.3338823247
 30
0.0
 10
11.5110498789
 20
21.9748295518
 30
0.0
 10
11.2788618812
 20
20.5693451315
 30
0.0
 10
11.3307224753
 20
19.1529583706
 30
0.0
 10
11.6311518374
 20
17.8060116622
 30
0.0
 10
12.1735166347
 20
16.534917637
 30
0.0
 10
12.9565584167
 20
15.3351607496
 30
0.0
 10
13.9906010748
 20
14.24835625
 30
0.0
 10
15.2515766417
 20
13.330861411
 30
0.0
 10
16.6913517318
 20
12.6348256265
 30
0.0
 10
18.2760260191
 20
12.1957698696
 30
0.0
 10
19.3807464153
 20
12.0966403338
 30
0.0
 10
19.9316032345
 20
12.0966403338
 30
0.0
  0
SPLINE
  5
592
100
AcDbEntity
  8
00_COMPONENTS_12
100
AcDbSpline
 62
7
  6
BYLAYER
 70
0
 71
3
 72
24
 73
20
 74
0
 42
0.0000001
 43
0.0000001
 44
0.0000000001
 40
0.0
 40
0.0
 40
0.0
 40
0.0
 40
0.0641350036
 40
0.1287091208
 40
0.1921274824
 40
0.2540342263
 40
0.3167706928
 40
0.3734232091
 40
0.4274110594
 40
0.4821551641
 40
0.5363453791
 40
0.5895241234
 40
0.6400924091
 40
0.694592324
 40
0.7535541572
 40
0.8117359833
 40
0.8731532019
 40
0.9366007909
 40
1.0
 40
1.0
 40
1.0
 40
1.0
 10
19.9316032345
 20
12.0966403338
 30
0.0
 10
20.488852971
 20
12.0966403338
 30
0.0
 10
21.6098786701
 20
12.1983108323
 30
0.0
 10
23.2255766524
 20
12.6527147672
 30
0.0
 10
24.7141269796
 20
13.3868553064
 30
0.0
 10
26.0251511939
 20
14.3782152158
 30
0.0
 10
27.0844219718
 20
15.5580184026
 30
0.0
 10
27.8613963199
 20
16.8593991909
 30
0.0
 10
28.3521567789
 20
18.2184519928
 30
0.0
 10
28.5843445514
 20
19.6239357907
 30
0.0
 10
28.5324840192
 20
21.0403217717
 30
0.0
 10
28.2320548809
 20
22.3872681849
 30
0.0
 10
27.6896901284
 20
23.6583626022
 30
0.0
 10
26.9066480379
 20
24.8581199739
 30
0.0
 10
25.8726050788
 20
25.9449247259
 30
0.0
 10
24.6116288522
 20
26.8624199053
 30
0.0
 10
23.1718536229
 20
27.5584554332
 30
0.0
 10
21.587179493
 20
27.9975109207
 30
0.0
 10
20.4824598742
 20
28.0966403338
 30
0.0
 10
19.9316032345
 20
28.0966403338
 30
0.0
  0
LINE
  5
593
100
AcDbEntity
  8
00_COMPONENTS_12
100
AcDbLine
 62
7
  6
BYLAYER
 10
35.2786990096
 20
32.1931498254
 11
35.0638487311
 21
7.5967145414
  0
SPLINE
  5
594
100
AcDbEntity
  8
00_COMPONENTS_12
100
AcDbSpline
 62
7
  6
BYLAYER
 70
0
 71
3
 72
9
 73
5
 74
0
 42
0.0000001
 43
0.0000001
 44
0.0000000001
 40
0.0
 40
0.0
 40
0.0
 40
0.0
 40
0.5
 40
1.0
 40
1.0
 40
1.0
 40
1.0
 10
35.1175916986
 20
7.5966403338
 30
0.0
 10
35.1180285085
 20
7.6466384257
 30
0.0
 10
35.1175916986
 20
7.7466403338
 30
0.0
 10
35.1171548887
 20
7.8466422419
 30
0.0
 10
35.1175916986
 20
7.8966403338
 30
0.0
  0
LINE
  5
595
100
AcDbEntity
  8
00_COMPONENTS_12
100
AcDbLine
 62
7
  6
BYLAYER
 10
4.7481102557
 20
7.596193171
 11
4.7454871026
 21
7.8966392196
  0
SPLINE
  5
596
100
AcDbEntity
  8
00_COMPONENTS_12
100
AcDbSpline
 62
7
  6
BYLAYER
 70
0
 71
3
 72
10
 73
6
 74
0
 42
0.0000001
 43
0.0000001
 44
0.0000000001
 40
0.0
 40
0.0
 40
0.0
 40
0.0
 40
0.3355559829
 40
0.6688502188
 40
1.0
 40
1.0
 40
1.0
 40
1.0
 10
4.5599214029
 20
19.9640422127
 30
0.0
 10
4.559384803
 20
20.0138417358
 30
0.0
 10
4.5564769422
 20
20.1130857892
 30
0.0
 10
4.5587347563
 20
20.261523529
 30
0.0
 10
4.555622741
 20
20.3601101245
 30
0.0
 10
4.5550982071
 20
20.4092557816
 30
0.0
  0
SPLINE
  5
597
100
AcDbEntity
  8
00_COMPONENTS_12
100
AcDbSpline
 62
7
  6
BYLAYER
 70
0
 71
3
 72
10
 73
6
 74
0
 42
0.0000001
 43
0.0000001
 44
0.0000000001
 40
0.0
 40
0.0
 40
0.0
 40
0.0
 40
0.5515842703
 40
0.8872929272
 40
1.0
 40
1.0
 40
1.0
 40
1.0
 10
4.5549656806
 20
20.4092541731
 30
0.0
 10
4.5545979527
 20
20.4437080265
 30
0.0
 10
4.5539344045
 20
20.4991301829
 30
0.0
 10
4.5533208219
 20
20.5615952853
 30
0.0
 10
4.5527501641
 20
20.5896006295
 30
0.0
 10
4.5525811499
 20
20.5966391984
 30
0.0
  0
SPLINE
  5
598
100
AcDbEntity
  8
00_COMPONENTS_12
100
AcDbSpline
 62
7
  6
BYLAYER
 70
0
 71
3
 72
11
 73
7
 74
0
 42
0.0000001
 43
0.0000001
 44
0.0000000001
 40
0.0
 40
0.0
 40
0.0
 40
0.0
 40
0.4382194204
 40
0.7922988516
 40
0.9924312698
 40
1.0
 40
1.0
 40
1.0
 40
1.0
 10
4.55053587
 20
20.7501258805
 30
0.0
 10
4.5507854545
 20
20.7215300239
 30
0.0
 10
4.5504293811
 20
20.6744863179
 30
0.0
 10
4.5505742203
 20
20.5944506219
 30
0.0
 10
4.5505051755
 20
20.581381853
 30
0.0
 10
4.5505381991
 20
20.5538605541
 30
0.0
 10
4.55053587
 20
20.5543544623
 30
0.0
  0
SPLINE
  5
599
100
AcDbEntity
  8
00_COMPONENTS_12
100
AcDbSpline
 62
7
  6
BYLAYER
 70
0
 71
3
 72
10
 73
6
 74
0
 42
0.0000001
 43
0.0000001
 44
0.0000000001
 40
0.0
 40
0.0
 40
0.0
 40
0.0
 40
0.4266370378
 40
0.750362487
 40
1.0
 40
1.0
 40
1.0
 40
1.0
 10
8.7904533214
 20
21.7560348151
 30
0.0
 10
8.8052331312
 20
21.7486030219
 30
0.0
 10
8.8304870654
 20
21.7338460679
 30
0.0
 10
8.8595069155
 20
21.7074780478
 30
0.0
 10
8.8690715558
 20
21.6860589236
 30
0.0
 10
8.8698150291
 20
21.6764076744
 30
0.0
  0
SPLINE
  5
59A
100
AcDbEntity
  8
00_COMPONENTS_12
100
AcDbSpline
 62
7
  6
BYLAYER
 70
0
 71
3
 72
10
 73
6
 74
0
 42
0.0000001
 43
0.0000001
 44
0.0000000001
 40
0.0
 40
0.0
 40
0.0
 40
0.0
 40
0.2496403396
 40
0.5733680746
 40
1.0
 40
1.0
 40
1.0
 40
1.0
 10
30.9933912547
 20
21.6764097932
 30
0.0
 10
30.9941351764
 20
21.6860609338
 30
0.0
 10
31.0037009167
 20
21.7074792236
 30
0.0
 10
31.0327201394
 20
21.7338465086
 30
0.0
 10
31.057973471
 20
21.7486032805
 30
0.0
 10
31.0727528236
 20
21.7560348439
 30
0.0
  0
SPLINE
  5
59B
100
AcDbEntity
  8
00_COMPONENTS_12
100
AcDbSpline
 62
7
  6
BYLAYER
 70
0
 71
3
 72
10
 73
6
 74
0
 42
0.0000001
 43
0.0000001
 44
0.0000000001
 40
0.0
 40
0.0
 40
0.0
 40
0.0
 40
0.4273700722
 40
0.7501021766
 40
1.0
 40
1.0
 40
1.0
 40
1.0
 10
31.4447139722
 20
21.9447642138
 30
0.0
 10
31.488495881
 20
21.9667908032
 30
0.0
 10
31.5629091096
 20
22.0110966699
 30
0.0
 10
31.6473812496
 20
22.0903750966
 30
0.0
 10
31.6740542632
 20
22.1549844808
 30
0.0
 10
31.6743427833
 20
22.1836411179
 30
0.0
  0
SPLINE
  5
59C
100
AcDbEntity
  8
00_COMPONENTS_12
100
AcDbSpline
 62
7
  6
BYLAYER
 70
0
 71
3
 72
10
 73
6
 74
0
 42
0.0000001
 43
0.0000001
 44
0.0000000001
 40
0.0
 40
0.0
 40
0.0
 40
0.0
 40
0.2499001325
 40
0.5726327636
 40
1.0
 40
1.0
 40
1.0
 40
1.0
 10
8.1888627507
 20
22.1836394074
 30
0.0
 10
8.1891516419
 20
22.1549832305
 30
0.0
 10
8.2158257013
 20
22.0903758842
 30
0.0
 10
8.3002945548
 20
22.0110989032
 30
0.0
 10
8.3747053115
 20
21.9667932988
 30
0.0
 10
8.4184858279
 20
21.94476741
 30
0.0
  0
SPLINE
  5
59D
100
AcDbEntity
  8
00_COMPONENTS_12
100
AcDbSpline
 62
7
  6
BYLAYER
 70
0
 71
3
 72
11
 73
7
 74
0
 42
0.0000001
 43
0.0000001
 44
0.0000000001
 40
0.0
 40
0.0
 40
0.0
 40
0.0
 40
0.1044069595
 40
0.3276589649
 40
0.6401201651
 40
1.0
 40
1.0
 40
1.0
 40
1.0
 10
4.5316050077
 20
22.966461784
 30
0.0
 10
4.5316195704
 20
22.9491566799
 30
0.0
 10
4.531563722
 20
22.8948479551
 30
0.0
 10
4.5318592298
 20
22.7887534154
 30
0.0
 10
4.5302219289
 20
22.6402923878
 30
0.0
 10
4.5349951374
 20
22.5289110136
 30
0.0
 10
4.535515639
 20
22.4692643855
 30
0.0
  0
LINE
  5
59E
100
AcDbEntity
  8
00_COMPONENTS_12
100
AcDbLine
 62
7
  6
BYLAYER
 10
4.5316191822
 20
32.5966402359
 11
4.5316191822
 21
22.966461681
  0
LINE
  5
59F
100
AcDbEntity
  8
00_COMPONENTS_12
100
AcDbLine
 62
7
  6
BYLAYER
 10
7.4491678916
 20
32.0966403338
 11
7.2655766234
 21
32.0966403338
  0
LINE
  5
5A0
100
AcDbEntity
  8
00_COMPONENTS_12
100
AcDbLine
 62
7
  6
BYLAYER
 10
16.7042261756
 20
32.5966403338
 11
16.7229842805
 21
31.5966403338
  0
SPLINE
  5
5A1
100
AcDbEntity
  8
00_COMPONENTS_12
100
AcDbSpline
 62
7
  6
BYLAYER
 70
0
 71
3
 72
11
 73
7
 74
0
 42
0.0000001
 43
0.0000001
 44
0.0000000001
 40
0.0
 40
0.0
 40
0.0
 40
0.0
 40
0.0762288739
 40
0.2929682827
 40
0.6173333384
 40
1.0
 40
1.0
 40
1.0
 40
1.0
 10
19.2644568913
 20
11.4434517639
 30
0.0
 10
19.2568286913
 20
11.443587477
 30
0.0
 10
19.2275125102
 20
11.4441598473
 30
0.0
 10
19.1657447829
 20
11.4456683581
 30
0.0
 10
19.0733162768
 20
11.4479060152
 30
0.0
 10
19.0025716542
 20
11.4495453954
 30
0.0
 10
18.9642861643
 20
11.4505718865
 30
0.0
  0
SPLINE
  5
5A2
100
AcDbEntity
  8
00_COMPONENTS_12
100
AcDbSpline
 62
7
  6
BYLAYER
 70
0
 71
3
 72
36
 73
32
 74
0
 42
0.0000001
 43
0.0000001
 44
0.0000000001
 40
0.0
 40
0.0
 40
0.0
 40
0.0
 40
0.1829255792
 40
0.275991272
 40
0.3683744226
 40
0.4587076952
 40
0.5456235963
 40
0.6277794002
 40
0.7039316107
 40
0.772911505
 40
0.8337502211
 40
0.8608388738
 40
0.8856039893
 40
0.9079870488
 40
0.927929535
 40
0.9453854285
 40
0.9603586965
 40
0.9728658076
 40
0.9781997037
 40
0.9829232412
 40
0.987036621
 40
0.9905567681
 40
0.9934975293
 40
0.9958727607
 40
0.9976963379
 40
0.9984056069
 40
0.998982195
 40
0.9994278736
 40
0.9997444651
 40
0.9999339764
 40
1.0
 40
1.0
 40
1.0
 40
1.0
 10
18.9643224
 20
11.4540686911
 30
0.0
 10
18.9656551753
 20
11.4659780954
 30
0.0
 10
18.9676691311
 20
11.4839462108
 30
0.0
 10
18.9703642156
 20
11.5079280467
 30
0.0
 10
18.9723855922
 20
11.5258815398
 30
0.0
 10
18.9743658459
 20
11.5434342343
 30
0.0
 10
18.9762750843
 20
11.5603206799
 30
0.0
 10
18.9780843285
 20
11.5762834873
 30
0.0
 10
18.9797658457
 20
11.5910782312
 30
0.0
 10
18.9812946809
 20
11.6044848199
 30
0.0
 10
18.9824639994
 20
11.6146973416
 30
0.0
 10
18.9833073056
 20
11.622031684
 30
0.0
 10
18.9838645878
 20
11.6268630231
 30
0.0
 10
18.9843700991
 20
11.6312290726
 30
0.0
 10
18.9848225824
 20
11.6351192237
 30
0.0
 10
18.9852212525
 20
11.6385269333
 30
0.0
 10
18.9855658359
 20
11.6414505443
 30
0.0
 10
18.9858198982
 20
11.6435851946
 30
0.0
 10
18.9859965326
 20
11.6450528439
 30
0.0
 10
18.9861084364
 20
11.645974426
 30
0.0
 10
18.9862070933
 20
11.6467779284
 30
0.0
 10
18.986292721
 20
11.6474653397
 30
0.0
 10
18.986365592
 20
11.6480396485
 30
0.0
 10
18.9864260708
 20
11.64850333
 30
0.0
 10
18.9864690997
 20
11.6488222409
 30
0.0
 10
18.9864979922
 20
11.6490234897
 30
0.0
 10
18.9865144976
 20
11.6491365395
 30
0.0
 10
18.9865289858
 20
11.6492209587
 30
0.0
 10
18.9865383684
 20
11.6492872975
 30
0.0
 10
18.9865487342
 20
11.6493153115
 30
0.0
 10
18.9865508294
 20
11.6493405412
 30
0.0
 10
18.9865551301
 20
11.6493400807
 30
0.0
  0
SPLINE
  5
5A3
100
AcDbEntity
  8
00_COMPONENTS_12
100
AcDbSpline
 62
7
  6
BYLAYER
 70
0
 71
3
 72
11
 73
7
 74
0
 42
0.0000001
 43
0.0000001
 44
0.0000000001
 40
0.0
 40
0.0
 40
0.0
 40
0.0
 40
0.3824937317
 40
0.7067743323
 40
0.9235415493
 40
1.0
 40
1.0
 40
1.0
 40
1.0
 10
18.9643174012
 20
11.4540693468
 30
0.0
 10
19.0025983443
 20
11.4530525606
 30
0.0
 10
19.0712150844
 20
11.4492555994
 30
0.0
 10
19.1711067623
 20
11.4534566312
 30
0.0
 10
19.218115252
 20
11.4370586682
 30
0.0
 10
19.263797048
 20
11.4510884775
 30
0.0
 10
19.2644567108
 20
11.4434620994
 30
0.0
  0
SPLINE
  5
5A4
100
AcDbEntity
  8
00_COMPONENTS_12
100
AcDbSpline
 62
7
  6
BYLAYER
 70
0
 71
3
 72
33
 73
29
 74
0
 42
0.0000001
 43
0.0000001
 44
0.0000000001
 40
0.0
 40
0.0
 40
0.0
 40
0.0
 40
0.0663432072
 40
0.1263113539
 40
0.180564146
 40
0.2296507402
 40
0.2740373795
 40
0.3141219304
 40
0.3502475837
 40
0.3827275909
 40
0.4118546059
 40
0.4378859933
 40
0.4610421814
 40
0.4814948836
 40
0.499968605
 40
0.5184354945
 40
0.5388832948
 40
0.5620394978
 40
0.5880727842
 40
0.6172036716
 40
0.6496885303
 40
0.6858201021
 40
0.7259118197
 40
0.770306695
 40
0.8194025415
 40
0.8736655481
 40
0.9336448712
 40
1.0
 40
1.0
 40
1.0
 40
1.0
 10
11.4516014874
 20
26.3988793087
 30
0.0
 10
11.4570177469
 20
26.3478561945
 30
0.0
 10
11.4696156861
 20
26.2509361514
 30
0.0
 10
11.4943386104
 20
26.1134401869
 30
0.0
 10
11.5228587398
 20
25.9903437778
 30
0.0
 10
11.5545160394
 20
25.8805054757
 30
0.0
 10
11.5889059421
 20
25.783034904
 30
0.0
 10
11.6258094328
 20
25.6972850639
 30
0.0
 10
11.6652309744
 20
25.622918987
 30
0.0
 10
11.7069078277
 20
25.5596989032
 30
0.0
 10
11.750540617
 20
25.5075983291
 30
0.0
 10
11.795718603
 20
25.4668920456
 30
0.0
 10
11.8416217925
 20
25.4380954317
 30
0.0
 10
11.887051439
 20
25.4213770216
 30
0.0
 10
11.9315240777
 20
25.4159646547
 30
0.0
 10
11.975997428
 20
25.4213386856
 30
0.0
 10
12.021431975
 20
25.4380186724
 30
0.0
 10
12.0673513149
 20
25.4667864037
 30
0.0
 10
12.1125506969
 20
25.5074763667
 30
0.0
 10
12.1562047165
 20
25.5595703178
 30
0.0
 10
12.1979011307
 20
25.6227913244
 30
0.0
 10
12.2373401528
 20
25.6971640041
 30
0.0
 10
12.2742586012
 20
25.7829254784
 30
0.0
 10
12.3086611406
 20
25.8804118844
 30
0.0
 10
12.3403290036
 20
25.9902694913
 30
0.0
 10
12.3688576915
 20
26.1133882856
 30
0.0
 10
12.3935870983
 20
26.2509092951
 30
0.0
 10
12.4061877489
 20
26.3478470258
 30
0.0
 10
12.4116049817
 20
26.3988793087
 30
0.0
  0
SPLINE
  5
5A5
100
AcDbEntity
  8
00_COMPONENTS_12
100
AcDbSpline
 62
7
  6
BYLAYER
 70
0
 71
3
 72
10
 73
6
 74
0
 42
0.0000001
 43
0.0000001
 44
0.0000000001
 40
0.0
 40
0.0
 40
0.0
 40
0.0
 40
0.3363478308
 40
0.6690508679
 40
1.0
 40
1.0
 40
1.0
 40
1.0
 10
4.9450465506
 20
32.5949872302
 30
0.0
 10
4.9489984783
 20
32.5953700638
 30
0.0
 10
4.9568359698
 20
32.5965963138
 30
0.0
 10
4.9686695067
 20
32.5958769003
 30
0.0
 10
4.9764860279
 20
32.5966687611
 30
0.0
 10
4.9803926228
 20
32.5966403336
 30
0.0
  0
LINE
  5
5A6
100
AcDbEntity
  8
00_COMPONENTS_12
100
AcDbLine
 62
7
  6
BYLAYER
 10
4.7993587485
 20
7.5966404428
 11
4.5845074373
 21
32.1931498197
  0
LINE
  5
5A7
100
AcDbEntity
  8
00_COMPONENTS_12
100
AcDbLine
 62
7
  6
BYLAYER
 10
35.3315872869
 20
22.966461681
 11
35.3315872869
 21
32.5966402359
  0
LINE
  5
5A8
100
AcDbEntity
  8
00_COMPONENTS_12
100
AcDbLine
 62
7
  6
BYLAYER
 10
32.5973523559
 20
32.0966403338
 11
32.4140385775
 21
32.0966403338
  0
SPLINE
  5
5A9
100
AcDbEntity
  8
00_COMPONENTS_12
100
AcDbSpline
 62
7
  6
BYLAYER
 70
0
 71
3
 72
36
 73
32
 74
0
 42
0.0000001
 43
0.0000001
 44
0.0000000001
 40
0.0
 40
0.0
 40
0.0
 40
0.0
 40
0.0000603075
 40
0.000232778
 40
0.0005211728
 40
0.0009276774
 40
0.0014542926
 40
0.0021029688
 40
0.0037742144
 40
0.0059567776
 40
0.008665963
 40
0.0119170557
 40
0.0157253316
 40
0.0201092587
 40
0.0250714798
 40
0.0367492697
 40
0.0507956256
 40
0.0672474604
 40
0.0861298307
 40
0.1074203834
 40
0.1310849121
 40
0.1570892091
 40
0.2159038444
 40
0.2832084721
 40
0.3582130261
 40
0.4398961794
 40
0.5271395888
 40
0.6186681097
 40
0.7131465812
 40
0.80915658
 40
1.0
 40
1.0
 40
1.0
 40
1.0
 10
20.876651127
 20
11.6493399994
 30
0.0
 10
20.8766550559
 20
11.6493404152
 30
0.0
 10
20.8766573208
 20
11.6493176179
 30
0.0
 10
20.8766667029
 20
11.6492919785
 30
0.0
 10
20.8766755459
 20
11.6492316393
 30
0.0
 10
20.8766888833
 20
11.6491546101
 30
0.0
 10
20.8767041571
 20
11.6490513779
 30
0.0
 10
20.8767308507
 20
11.6488671757
 30
0.0
 10
20.8767706287
 20
11.648574666
 30
0.0
 10
20.8768265553
 20
11.6481484762
 30
0.0
 10
20.8768940419
 20
11.6476192761
 30
0.0
 10
20.8769734749
 20
11.6469842906
 30
0.0
 10
20.8770651653
 20
11.646240252
 30
0.0
 10
20.8771693708
 20
11.6453848172
 30
0.0
 10
20.8773344066
 20
11.6440174403
 30
0.0
 10
20.8775725508
 20
11.6420213001
 30
0.0
 10
20.8778966021
 20
11.6392773768
 30
0.0
 10
20.8782731332
 20
11.6360643934
 30
0.0
 10
20.8787023502
 20
11.6323797628
 30
0.0
 10
20.8791839696
 20
11.6282255313
 30
0.0
 10
20.8797172596
 20
11.6236076009
 30
0.0
 10
20.8805299015
 20
11.616547353
 30
0.0
 10
20.8816645458
 20
11.6066463858
 30
0.0
 10
20.8831584554
 20
11.5935555253
 30
0.0
 10
20.8848165419
 20
11.578975538
 30
0.0
 10
20.886617082
 20
11.5630971226
 30
0.0
 10
20.8885347513
 20
11.5461425505
 30
0.0
 10
20.8905421465
 20
11.5283545485
 30
0.0
 10
20.8926096561
 20
11.5099953773
 30
0.0
 10
20.8953999463
 20
11.4851702563
 30
0.0
 10
20.8974932728
 20
11.4664951525
 30
0.0
 10
20.8988837241
 20
11.4540703662
 30
0.0
  0
SPLINE
  5
5AA
100
AcDbEntity
  8
00_COMPONENTS_12
100
AcDbSpline
 62
7
  6
BYLAYER
 70
0
 71
3
 72
11
 73
7
 74
0
 42
0.0000001
 43
0.0000001
 44
0.0000000001
 40
0.0
 40
0.0
 40
0.0
 40
0.0
 40
0.3818011997
 40
0.7073495399
 40
0.9242940268
 40
1.0
 40
1.0
 40
1.0
 40
1.0
 10
20.8988891199
 20
11.4540710653
 30
0.0
 10
20.8606775749
 20
11.4530514203
 30
0.0
 10
20.792005754
 20
11.4492524425
 30
0.0
 10
20.6920026503
 20
11.4534804951
 30
0.0
 10
20.6449645406
 20
11.4370629506
 30
0.0
 10
20.5994052068
 20
11.451014369
 30
0.0
 10
20.5987497781
 20
11.4434632353
 30
0.0
  0
SPLINE
  5
5AB
100
AcDbEntity
  8
00_COMPONENTS_12
100
AcDbSpline
 62
7
  6
BYLAYER
 70
0
 71
3
 72
11
 73
7
 74
0
 42
0.0000001
 43
0.0000001
 44
0.0000000001
 40
0.0
 40
0.0
 40
0.0
 40
0.0
 40
0.0754718171
 40
0.292413265
 40
0.6180744516
 40
1.0
 40
1.0
 40
1.0
 40
1.0
 10
20.5987495721
 20
11.4434514379
 30
0.0
 10
20.6063020818
 20
11.4435823358
 30
0.0
 10
20.6355629208
 20
11.4441439294
 30
0.0
 10
20.6974047479
 20
11.4456589659
 30
0.0
 10
20.7899090712
 20
11.4478958005
 30
0.0
 10
20.8607091746
 20
11.4495404877
 30
0.0
 10
20.8989203931
 20
11.4505700614
 30
0.0
  0
SPLINE
  5
5AC
100
AcDbEntity
  8
00_COMPONENTS_12
100
AcDbSpline
 62
7
  6
BYLAYER
 70
0
 71
3
 72
12
 73
8
 74
0
 42
0.0000001
 43
0.0000001
 44
0.0000000001
 40
0.0
 40
0.0
 40
0.0
 40
0.0
 40
0.2923897592
 40
0.5690732294
 40
0.7945568466
 40
0.9417533883
 40
1.0
 40
1.0
 40
1.0
 40
1.0
 10
33.6316032346
 20
22.7996296506
 30
0.0
 10
33.7152853906
 20
22.7996296506
 30
0.0
 10
33.878921024
 20
22.802729487
 30
0.0
 10
34.1029960392
 20
22.8150395794
 30
0.0
 10
34.2959623509
 20
22.836385933
 30
0.0
 10
34.4012760672
 20
22.857120355
 30
0.0
 10
34.4750948586
 20
22.8830246231
 30
0.0
 10
34.4750948555
 20
22.8996948446
 30
0.0
  0
SPLINE
  5
5AD
100
AcDbEntity
  8
00_COMPONENTS_12
100
AcDbSpline
 62
7
  6
BYLAYER
 70
0
 71
3
 72
27
 73
23
 74
0
 42
0.0000001
 43
0.0000001
 44
0.0000000001
 40
0.0
 40
0.0
 40
0.0
 40
0.0
 40
0.0029648589
 40
0.006024605
 40
0.0128156869
 40
0.0210097805
 40
0.0309359592
 40
0.0427615908
 40
0.0565808311
 40
0.0724494141
 40
0.0904003675
 40
0.1104485243
 40
0.132581518
 40
0.1830052647
 40
0.2413960442
 40
0.3071937113
 40
0.3797050177
 40
0.4580141791
 40
0.5411391573
 40
0.6280705302
 40
0.8098849397
 40
1.0
 40
1.0
 40
1.0
 40
1.0
 10
34.2222350266
 20
23.4380093197
 30
0.0
 10
34.2222350272
 20
23.4374129709
 30
0.0
 10
34.2221101285
 20
23.436197784
 30
0.0
 10
34.2213403178
 20
23.4337222626
 30
0.0
 10
34.2193266908
 20
23.4306269337
 30
0.0
 10
34.2156381445
 20
23.4271959996
 30
0.0
 10
34.2106233094
 20
23.4238282717
 30
0.0
 10
34.2042780166
 20
23.4205023469
 30
0.0
 10
34.1965955875
 20
23.4172146658
 30
0.0
 10
34.1875752001
 20
23.4139699797
 30
0.0
 10
34.17721941
 20
23.4107735319
 30
0.0
 10
34.1655373864
 20
23.4076318003
 30
0.0
 10
34.1474103766
 20
23.4033376774
 30
0.0
 10
34.1215554076
 20
23.3982637358
 30
0.0
 10
34.086862845
 20
23.3927596159
 30
0.0
 10
34.0476229438
 20
23.3876707762
 30
0.0
 10
34.0042926719
 20
23.3830732153
 30
0.0
 10
33.9574104521
 20
23.3790090878
 30
0.0
 10
33.9075738336
 20
23.3755277583
 30
0.0
 10
33.8369040503
 20
23.3716334263
 30
0.0
 10
33.7446550216
 20
23.3684149191
 30
0.0
 10
33.669842787
 20
23.3675765723
 30
0.0
 10
33.6316032346
 20
23.3675730929
 30
0.0
  0
SPLINE
  5
5AE
100
AcDbEntity
  8
00_COMPONENTS_12
100
AcDbSpline
 62
7
  6
BYLAYER
 70
0
 71
3
 72
11
 73
7
 74
0
 42
0.0000001
 43
0.0000001
 44
0.0000000001
 40
0.0
 40
0.0
 40
0.0
 40
0.0
 40
0.3434573154
 40
0.6363882688
 40
0.8534092041
 40
1.0
 40
1.0
 40
1.0
 40
1.0
 10
33.8157512051
 20
32.9848105466
 30
0.0
 10
33.8695103523
 20
32.9787174142
 30
0.0
 10
33.9687831296
 20
32.9624061095
 30
0.0
 10
34.0970936333
 20
32.9204954423
 30
0.0
 10
34.1889217477
 20
32.8711067318
 30
0.0
 10
34.2222398144
 20
32.81667123
 30
0.0
 10
34.2222338128
 20
32.7935794159
 30
0.0
  0
SPLINE
  5
5AF
100
AcDbEntity
  8
00_COMPONENTS_12
100
AcDbSpline
 62
7
  6
BYLAYER
 70
0
 71
3
 72
23
 73
19
 74
0
 42
0.0000001
 43
0.0000001
 44
0.0000000001
 40
0.0
 40
0.0
 40
0.0
 40
0.0
 40
0.060898978
 40
0.1224402291
 40
0.1845310675
 40
0.2470789305
 40
0.3099914916
 40
0.3731767731
 40
0.4365432602
 40
0.5000000198
 40
0.5634567748
 40
0.6268232568
 40
0.690008533
 40
0.7529210887
 40
0.8154689464
 40
0.8775597797
 40
0.939101026
 40
1.0
 40
1.0
 40
1.0
 40
1.0
 10
6.0474447838
 20
32.9848012772
 30
0.0
 10
6.6087699036
 20
33.0478000957
 30
0.0
 10
7.7382537202
 20
33.1664608584
 30
0.0
 10
9.4428214805
 20
33.3215857638
 30
0.0
 10
11.1646208396
 20
33.4543322254
 30
0.0
 10
12.9007778502
 20
33.5641625981
 30
0.0
 10
14.6484242261
 20
33.6505400733
 30
0.0
 10
16.4046902063
 20
33.7129279089
 30
0.0
 10
18.1667062072
 20
33.750789605
 30
0.0
 10
19.9316032799
 20
33.763588894
 30
0.0
 10
21.6965003057
 20
33.7507896063
 30
0.0
 10
23.4585161676
 20
33.7129279154
 30
0.0
 10
25.2147820017
 20
33.6505400883
 30
0.0
 10
26.9624282292
 20
33.5641626246
 30
0.0
 10
28.6985850936
 20
33.4543322664
 30
0.0
 10
30.4203843137
 20
33.3215858222
 30
0.0
 10
32.1249519469
 20
33.166460937
 30
0.0
 10
33.2544356834
 20
33.0478001903
 30
0.0
 10
33.815760766
 20
32.9848013804
 30
0.0
  0
SPLINE
  5
5B0
100
AcDbEntity
  8
00_COMPONENTS_12
100
AcDbSpline
 62
7
  6
BYLAYER
 70
0
 71
3
 72
11
 73
7
 74
0
 42
0.0000001
 43
0.0000001
 44
0.0000000001
 40
0.0
 40
0.0
 40
0.0
 40
0.0
 40
0.1448162715
 40
0.3630798586
 40
0.6590539431
 40
1.0
 40
1.0
 40
1.0
 40
1.0
 10
5.6409726563
 20
32.7935794159
 30
0.0
 10
5.6409672405
 20
32.8163929457
 30
0.0
 10
5.673871498
 20
32.8708489684
 30
0.0
 10
5.7661374046
 20
32.9205752366
 30
0.0
 10
5.8947155668
 20
32.9624617275
 30
0.0
 10
5.9940855169
 20
32.9787612578
 30
0.0
 10
6.0474544842
 20
32.9848104367
 30
0.0
  0
SPLINE
  5
5B1
100
AcDbEntity
  8
00_COMPONENTS_12
100
AcDbSpline
 62
7
  6
BYLAYER
 70
0
 71
3
 72
12
 73
8
 74
0
 42
0.0000001
 43
0.0000001
 44
0.0000000001
 40
0.0
 40
0.0
 40
0.0
 40
0.0
 40
0.0589413752
 40
0.2040088655
 40
0.4295394561
 40
0.7106294439
 40
1.0
 40
1.0
 40
1.0
 40
1.0
 10
5.3881116136
 20
22.8996948446
 30
0.0
 10
5.3881116104
 20
22.8828261602
 30
0.0
 10
5.4617086786
 20
22.8573660563
 30
0.0
 10
5.566620111
 20
22.8363961805
 30
0.0
 10
5.7603398807
 20
22.8150212194
 30
0.0
 10
5.9847541381
 20
22.8026997751
 30
0.0
 10
6.1487870369
 20
22.7996296506
 30
0.0
 10
6.2316032346
 20
22.7996296506
 30
0.0
  0
SPLINE
  5
5B2
100
AcDbEntity
  8
00_COMPONENTS_12
100
AcDbSpline
 62
7
  6
BYLAYER
 70
0
 71
3
 72
27
 73
23
 74
0
 42
0.0000001
 43
0.0000001
 44
0.0000000001
 40
0.0
 40
0.0
 40
0.0
 40
0.0
 40
0.1901141337
 40
0.3719260699
 40
0.4588560253
 40
0.5419797991
 40
0.6202882011
 40
0.6927993161
 40
0.7585974183
 40
0.8169891667
 40
0.8674142598
 40
0.8895479897
 40
0.9095968778
 40
0.9275485233
 40
0.9434177298
 40
0.957237497
 40
0.9690635321
 40
0.9789899752
 40
0.9871842158
 40
0.9939753634
 40
0.9970351265
 40
1.0
 40
1.0
 40
1.0
 40
1.0
 10
6.2316032346
 20
23.3675730974
 30
0.0
 10
6.193363876
 20
23.367576596
 30
0.0
 10
6.1185523407
 20
23.3684148799
 30
0.0
 10
6.0263042928
 20
23.3716331891
 30
0.0
 10
5.9556355419
 20
23.3755273818
 30
0.0
 10
5.9057996094
 20
23.3790086323
 30
0.0
 10
5.8589178306
 20
23.3830727215
 30
0.0
 10
5.8155876721
 20
23.3876702886
 30
0.0
 10
5.7763475391
 20
23.3927591754
 30
0.0
 10
5.741654436
 20
23.398263374
 30
0.0
 10
5.7157988615
 20
23.4033373866
 30
0.0
 10
5.6976712876
 20
23.4076315667
 30
0.0
 10
5.6859888291
 20
23.4107733441
 30
0.0
 10
5.6756326233
 20
23.4139698332
 30
0.0
 10
5.666611857
 20
23.4172145544
 30
0.0
 10
5.6589291017
 20
23.4205022631
 30
0.0
 10
5.6525835488
 20
23.4238282064
 30
0.0
 10
5.6475685272
 20
23.4271959491
 30
0.0
 10
5.6438798608
 20
23.430626895
 30
0.0
 10
5.6418661736
 20
23.4337222427
 30
0.0
 10
5.6410963448
 20
23.4361977791
 30
0.0
 10
5.6409714439
 20
23.4374129724
 30
0.0
 10
5.6409714445
 20
23.4380093239
 30
0.0
  0
SPLINE
  5
5B3
100
AcDbEntity
  8
00_COMPONENTS_12
100
AcDbSpline
 62
7
  6
BYLAYER
 70
0
 71
3
 72
26
 73
22
 74
0
 42
0.0000001
 43
0.0000001
 44
0.0000000001
 40
0.0
 40
0.0
 40
0.0
 40
0.0
 40
0.0029998237
 40
0.006079411
 40
0.0128708063
 40
0.0210258642
 40
0.0308844115
 40
0.0426203306
 40
0.0563410358
 40
0.0721188687
 40
0.0900040484
 40
0.1321800296
 40
0.1828343436
 40
0.2417243486
 40
0.3082229714
 40
0.3815243037
 40
0.4605217814
 40
0.5440329278
 40
0.6308893335
 40
0.8110671884
 40
1.0
 40
1.0
 40
1.0
 40
1.0
 10
5.8222270829
 20
23.4380262542
 30
0.0
 10
5.822227083
 20
23.4376079705
 30
0.0
 10
5.8223126407
 20
23.436757909
 30
0.0
 10
5.8228416995
 20
23.4350323786
 30
0.0
 10
5.8242273708
 20
23.4328827993
 30
0.0
 10
5.8267693529
 20
23.4305094106
 30
0.0
 10
5.8302197558
 20
23.4281855161
 30
0.0
 10
5.8345822506
 20
23.4258877588
 30
0.0
 10
5.8398677417
 20
23.423613592
 30
0.0
 10
5.8460832438
 20
23.4213644666
 30
0.0
 10
5.8561852879
 20
23.4182286086
 30
0.0
 10
5.8711757254
 20
23.414493355
 30
0.0
 10
5.8919332602
 20
23.410384317
 30
0.0
 10
5.916177757
 20
23.4065145027
 30
0.0
 10
5.9436524798
 20
23.4029308017
 30
0.0
 10
5.9739916535
 20
23.3997007928
 30
0.0
 10
6.0067503479
 20
23.3968540777
 30
0.0
 10
6.0414376083
 20
23.3944286121
 30
0.0
 10
6.0902434875
 20
23.3917361252
 30
0.0
 10
6.1537898353
 20
23.3895087324
 30
0.0
 10
6.2052591826
 20
23.3889335267
 30
0.0
 10
6.2316032346
 20
23.3889335264
 30
0.0
  0
SPLINE
  5
5B4
100
AcDbEntity
  8
00_COMPONENTS_12
100
AcDbSpline
 62
7
  6
BYLAYER
 70
0
 71
3
 72
11
 73
7
 74
0
 42
0.0000001
 43
0.0000001
 44
0.0000000001
 40
0.0
 40
0.0
 40
0.0
 40
0.0
 40
0.1712420817
 40
0.4103470889
 40
0.6859649655
 40
1.0
 40
1.0
 40
1.0
 40
1.0
 10
6.0750948555
 20
32.2806244911
 30
0.0
 10
6.0750948557
 20
32.2882302139
 30
0.0
 10
6.0877109135
 20
32.3047417436
 30
0.0
 10
6.1145189758
 20
32.3182762146
 30
0.0
 10
6.1489008857
 20
32.3322278583
 30
0.0
 10
6.1748294267
 20
32.3369308375
 30
0.0
 10
6.1886905245
 20
32.3384842957
 30
0.0
  0
SPLINE
  5
5B5
100
AcDbEntity
  8
00_COMPONENTS_12
100
AcDbSpline
 62
7
  6
BYLAYER
 70
0
 71
3
 72
11
 73
7
 74
0
 42
0.0000001
 43
0.0000001
 44
0.0000000001
 40
0.0
 40
0.0
 40
0.0
 40
0.0
 40
0.3138453494
 40
0.590063138
 40
0.8295675248
 40
1.0
 40
1.0
 40
1.0
 40
1.0
 10
33.6745159446
 20
32.3384842957
 30
0.0
 10
33.6883692447
 20
32.3369317114
 30
0.0
 10
33.7143211163
 20
32.3322342827
 30
0.0
 10
33.7487233208
 20
32.3182459359
 30
0.0
 10
33.7755609313
 20
32.3047125968
 30
0.0
 10
33.7881116134
 20
32.2881945693
 30
0.0
 10
33.7881116136
 20
32.2806244911
 30
0.0
  0
SPLINE
  5
5B6
100
AcDbEntity
  8
00_COMPONENTS_12
100
AcDbSpline
 62
7
  6
BYLAYER
 70
0
 71
3
 72
26
 73
22
 74
0
 42
0.0000001
 43
0.0000001
 44
0.0000000001
 40
0.0
 40
0.0
 40
0.0
 40
0.0
 40
0.1889339186
 40
0.3691143778
 40
0.4559721532
 40
0.5394844044
 40
0.6184825237
 40
0.6917839432
 40
0.7582820675
 40
0.8171710881
 40
0.8678240854
 40
0.9099986525
 40
0.9278831674
 40
0.9436604
 40
0.957380594
 40
0.9691161152
 40
0.9789743921
 40
0.9871292912
 40
0.9939206127
 40
0.9970001843
 40
1.0
 40
1.0
 40
1.0
 40
1.0
 10
33.6316032345
 20
23.3889364836
 30
0.0
 10
33.6579475393
 20
23.3889364841
 30
0.0
 10
33.7094175966
 20
23.3895117105
 30
0.0
 10
33.7729648877
 20
23.3917392056
 30
0.0
 10
33.8217716534
 20
23.3944317935
 30
0.0
 10
33.8564594746
 20
23.3968573305
 30
0.0
 10
33.889218544
 20
23.3997041021
 30
0.0
 10
33.919557861
 20
23.4029341446
 30
0.0
 10
33.947032491
 20
23.406517853
 30
0.0
 10
33.9712766884
 20
23.4103876496
 30
0.0
 10
33.9920337832
 20
23.4144966506
 30
0.0
 10
34.0070238018
 20
23.4182318678
 30
0.0
 10
34.0171255065
 20
23.4213676927
 30
0.0
 10
34.0233407806
 20
23.4236167932
 30
0.0
 10
34.0286260753
 20
23.4258909385
 30
0.0
 10
34.0329884137
 20
23.4281886793
 30
0.0
 10
34.036438705
 20
23.4305125603
 30
0.0
 10
34.0389806161
 20
23.4328859408
 30
0.0
 10
34.0403662507
 20
23.4350355117
 30
0.0
 10
34.0408952981
 20
23.436761038
 30
0.0
 10
34.0409808544
 20
23.4376110993
 30
0.0
 10
34.0409808544
 20
23.4380293834
 30
0.0
  0
SPLINE
  5
5B7
100
AcDbEntity
  8
00_COMPONENTS_12
100
AcDbSpline
 62
7
  6
BYLAYER
 70
0
 71
3
 72
13
 73
9
 74
0
 42
0.0000001
 43
0.0000001
 44
0.0000000001
 40
0.0
 40
0.0
 40
0.0
 40
0.0
 40
0.1224260273
 40
0.2457072056
 40
0.3701546791
 40
0.4956674852
 40
0.7478957966
 40
1.0
 40
1.0
 40
1.0
 40
1.0
 10
34.2222339861
 20
32.793578997
 30
0.0
 10
34.2202355059
 20
32.797635904
 30
0.0
 10
34.2155450983
 20
32.8054595599
 30
0.0
 10
34.2067843642
 20
32.8160174501
 30
0.0
 10
34.196536296
 20
32.82530913
 30
0.0
 10
34.1812128001
 20
32.8358460683
 30
0.0
 10
34.1596221246
 20
32.8452040816
 30
0.0
 10
34.1409159999
 20
32.8479529926
 30
0.0
 10
34.1316032346
 20
32.8479529926
 30
0.0
  0
SPLINE
  5
5B8
100
AcDbEntity
  8
00_COMPONENTS_12
100
AcDbSpline
 62
7
  6
BYLAYER
 70
0
 71
3
 72
13
 73
9
 74
0
 42
0.0000001
 43
0.0000001
 44
0.0000000001
 40
0.0
 40
0.0
 40
0.0
 40
0.0
 40
0.2521042034
 40
0.5043325148
 40
0.6298453209
 40
0.7542927944
 40
0.8775739727
 40
1.0
 40
1.0
 40
1.0
 40
1.0
 10
34.1316032346
 20
32.8479529926
 30
0.0
 10
34.1222904692
 20
32.8479529926
 30
0.0
 10
34.1035843445
 20
32.8452040816
 30
0.0
 10
34.081993669
 20
32.8358460683
 30
0.0
 10
34.0666701731
 20
32.82530913
 30
0.0
 10
34.0564221049
 20
32.8160174501
 30
0.0
 10
34.0476613708
 20
32.8054595599
 30
0.0
 10
34.0429709632
 20
32.797635904
 30
0.0
 10
34.040972483
 20
32.793578997
 30
0.0
  0
SPLINE
  5
5B9
100
AcDbEntity
  8
00_COMPONENTS_12
100
AcDbSpline
 62
7
  6
BYLAYER
 70
0
 71
3
 72
14
 73
10
 74
0
 42
0.0000001
 43
0.0000001
 44
0.0000000001
 40
0.0
 40
0.0
 40
0.0
 40
0.0
 40
0.1249295212
 40
0.2498791795
 40
0.375154219
 40
0.5006986398
 40
0.7509443359
 40
0.8756954766
 40
1.0
 40
1.0
 40
1.0
 40
1.0
 10
34.040972483
 20
23.4380222828
 30
0.0
 10
34.0429646532
 20
23.4422664044
 30
0.0
 10
34.0476343618
 20
23.4504502537
 30
0.0
 10
34.0563890738
 20
23.4615348949
 30
0.0
 10
34.0666366014
 20
23.4712931908
 30
0.0
 10
34.0819110121
 20
23.4823303251
 30
0.0
 10
34.0992527419
 20
23.4902306797
 30
0.0
 10
34.117575971
 20
23.4943619178
 30
0.0
 10
34.1269382668
 20
23.495085654
 30
0.0
 10
34.1316032346
 20
23.495085654
 30
0.0
  0
SPLINE
  5
5BA
100
AcDbEntity
  8
00_COMPONENTS_12
100
AcDbSpline
 62
7
  6
BYLAYER
 70
0
 71
3
 72
14
 73
10
 74
0
 42
0.0000001
 43
0.0000001
 44
0.0000000001
 40
0.0
 40
0.0
 40
0.0
 40
0.0
 40
0.1243045234
 40
0.2490556641
 40
0.4993013602
 40
0.624845781
 40
0.7501208205
 40
0.8750704788
 40
1.0
 40
1.0
 40
1.0
 40
1.0
 10
34.1316032346
 20
23.495085654
 30
0.0
 10
34.1362682023
 20
23.495085654
 30
0.0
 10
34.1456304981
 20
23.4943619178
 30
0.0
 10
34.1639537272
 20
23.4902306797
 30
0.0
 10
34.181295457
 20
23.4823303251
 30
0.0
 10
34.1965698677
 20
23.4712931908
 30
0.0
 10
34.2068173953
 20
23.4615348949
 30
0.0
 10
34.2155721073
 20
23.4504502537
 30
0.0
 10
34.2202418159
 20
23.4422664044
 30
0.0
 10
34.2222339861
 20
23.4380222828
 30
0.0
  0
SPLINE
  5
5BB
100
AcDbEntity
  8
00_COMPONENTS_12
100
AcDbSpline
 62
7
  6
BYLAYER
 70
0
 71
3
 72
11
 73
7
 74
0
 42
0.0000001
 43
0.0000001
 44
0.0000000001
 40
0.0
 40
0.0
 40
0.0
 40
0.0
 40
0.3395685771
 40
0.6260320967
 40
0.8488589472
 40
1.0
 40
1.0
 40
1.0
 40
1.0
 10
33.756744599
 20
32.9288267674
 30
0.0
 10
33.794010304
 20
32.9248272294
 30
0.0
 10
33.8624151971
 20
32.9136741288
 30
0.0
 10
33.9520232064
 20
32.8843435753
 30
0.0
 10
34.0159784855
 20
32.8490136357
 30
0.0
 10
34.041047083
 20
32.8102595509
 30
0.0
 10
34.0409768244
 20
32.7935775791
 30
0.0
  0
SPLINE
  5
5BC
100
AcDbEntity
  8
00_COMPONENTS_12
100
AcDbSpline
 62
7
  6
BYLAYER
 70
0
 71
3
 72
23
 73
19
 74
0
 42
0.0000001
 43
0.0000001
 44
0.0000000001
 40
0.0
 40
0.0
 40
0.0
 40
0.0
 40
0.0608418874
 40
0.1223014587
 40
0.1844020434
 40
0.2470217194
 40
0.3100083775
 40
0.3732341001
 40
0.4365877413
 40
0.5000000383
 40
0.5634123354
 40
0.6267659768
 40
0.6899916997
 40
0.752978358
 40
0.8155980344
 40
0.8776986194
 40
0.9391581513
 40
1.0
 40
1.0
 40
1.0
 40
1.0
 10
6.1064620422
 20
32.9288131079
 30
0.0
 10
6.664890593
 20
32.9913306988
 30
0.0
 10
7.7882984306
 20
33.1092657445
 30
0.0
 10
9.4844219582
 20
33.263629036
 30
0.0
 10
11.1989006852
 20
33.3956727267
 30
0.0
 10
12.9291134894
 20
33.5049283752
 30
0.0
 10
14.6710526131
 20
33.5907381442
 30
0.0
 10
16.4207926762
 20
33.6525432958
 30
0.0
 10
18.1751603504
 20
33.6898057731
 30
0.0
 10
19.9316032107
 20
33.7022938545
 30
0.0
 10
21.6880460728
 20
33.6898057737
 30
0.0
 10
23.442413752
 20
33.652543297
 30
0.0
 10
25.1921538227
 20
33.5907381457
 30
0.0
 10
26.9340929552
 20
33.5049283766
 30
0.0
 10
28.6643057684
 20
33.3956727278
 30
0.0
 10
30.3787841385
 20
33.2636290647
 30
0.0
 10
32.0749069509
 20
33.109265846
 30
0.0
 10
33.1983140725
 20
32.9913308906
 30
0.0
 10
33.7567422688
 20
32.9288133495
 30
0.0
  0
SPLINE
  5
5BD
100
AcDbEntity
  8
00_COMPONENTS_12
100
AcDbSpline
 62
7
  6
BYLAYER
 70
0
 71
3
 72
12
 73
8
 74
0
 42
0.0000001
 43
0.0000001
 44
0.0000000001
 40
0.0
 40
0.0
 40
0.0
 40
0.0
 40
0.3117953396
 40
0.5560563955
 40
0.6972035868
 40
0.8032382315
 40
1.0
 40
1.0
 40
1.0
 40
1.0
 10
33.7567422688
 20
32.9288133495
 30
0.0
 10
33.7587913545
 20
32.9436346639
 30
0.0
 10
33.7645889597
 20
32.9707099176
 30
0.0
 10
33.7741414809
 20
32.9997328347
 30
0.0
 10
33.7911251988
 20
33.0247743971
 30
0.0
 10
33.8123959227
 20
33.0088697901
 30
0.0
 10
33.8139670966
 20
32.9941513332
 30
0.0
 10
33.8157118464
 20
32.9848718218
 30
0.0
  0
SPLINE
  5
5BE
100
AcDbEntity
  8
00_COMPONENTS_12
100
AcDbSpline
 62
7
  6
BYLAYER
 70
0
 71
3
 72
11
 73
7
 74
0
 42
0.0000001
 43
0.0000001
 44
0.0000000001
 40
0.0
 40
0.0
 40
0.0
 40
0.0
 40
0.1480148738
 40
0.3729770889
 40
0.6644365415
 40
1.0
 40
1.0
 40
1.0
 40
1.0
 10
5.8222296447
 20
32.7935775791
 30
0.0
 10
5.8221669911
 20
32.8099161218
 30
0.0
 10
5.8467070919
 20
32.8487020599
 30
0.0
 10
5.9111627276
 20
32.8844092596
 30
0.0
 10
6.0010991351
 20
32.9137332696
 30
0.0
 10
6.0696308759
 20
32.9248651931
 30
0.0
 10
6.1064597106
 20
32.9288265393
 30
0.0
  0
SPLINE
  5
5BF
100
AcDbEntity
  8
00_COMPONENTS_12
100
AcDbSpline
 62
7
  6
BYLAYER
 70
0
 71
3
 72
12
 73
8
 74
0
 42
0.0000001
 43
0.0000001
 44
0.0000000001
 40
0.0
 40
0.0
 40
0.0
 40
0.0
 40
0.3214807451
 40
0.565738631
 40
0.7028926521
 40
0.8101730598
 40
1.0
 40
1.0
 40
1.0
 40
1.0
 10
6.1064597106
 20
32.9288265393
 30
0.0
 10
6.1043220157
 20
32.9441999511
 30
0.0
 10
6.0979328557
 20
32.9717905151
 30
0.0
 10
6.089184075
 20
33.0015740657
 30
0.0
 10
6.0702269433
 20
33.0258176866
 30
0.0
 10
6.0513275219
 20
33.0075200883
 30
0.0
 10
6.0491962771
 20
32.9938134782
 30
0.0
 10
6.0474819043
 20
32.9848102653
 30
0.0
  0
SPLINE
  5
5C0
100
AcDbEntity
  8
00_COMPONENTS_12
100
AcDbSpline
 62
7
  6
BYLAYER
 70
0
 71
3
 72
14
 73
10
 74
0
 42
0.0000001
 43
0.0000001
 44
0.0000000001
 40
0.0
 40
0.0
 40
0.0
 40
0.0
 40
0.1249295212
 40
0.2498791795
 40
0.375154219
 40
0.5006986398
 40
0.7509443359
 40
0.8756954766
 40
1.0
 40
1.0
 40
1.0
 40
1.0
 10
5.640972483
 20
23.4380222828
 30
0.0
 10
5.6429646532
 20
23.4422664044
 30
0.0
 10
5.6476343618
 20
23.4504502537
 30
0.0
 10
5.6563890738
 20
23.4615348949
 30
0.0
 10
5.6666366014
 20
23.4712931908
 30
0.0
 10
5.6819110121
 20
23.4823303251
 30
0.0
 10
5.6992527419
 20
23.4902306797
 30
0.0
 10
5.717575971
 20
23.4943619178
 30
0.0
 10
5.7269382668
 20
23.495085654
 30
0.0
 10
5.7316032346
 20
23.495085654
 30
0.0
  0
SPLINE
  5
5C1
100
AcDbEntity
  8
00_COMPONENTS_12
100
AcDbSpline
 62
7
  6
BYLAYER
 70
0
 71
3
 72
14
 73
10
 74
0
 42
0.0000001
 43
0.0000001
 44
0.0000000001
 40
0.0
 40
0.0
 40
0.0
 40
0.0
 40
0.1243045234
 40
0.2490556641
 40
0.4993013602
 40
0.624845781
 40
0.7501208205
 40
0.8750704788
 40
1.0
 40
1.0
 40
1.0
 40
1.0
 10
5.7316032346
 20
23.495085654
 30
0.0
 10
5.7362682023
 20
23.495085654
 30
0.0
 10
5.7456304981
 20
23.4943619178
 30
0.0
 10
5.7639537272
 20
23.4902306797
 30
0.0
 10
5.781295457
 20
23.4823303251
 30
0.0
 10
5.7965698677
 20
23.4712931908
 30
0.0
 10
5.8068173953
 20
23.4615348949
 30
0.0
 10
5.8155721073
 20
23.4504502537
 30
0.0
 10
5.8202418159
 20
23.4422664044
 30
0.0
 10
5.8222339861
 20
23.4380222828
 30
0.0
  0
SPLINE
  5
5C2
100
AcDbEntity
  8
00_COMPONENTS_12
100
AcDbSpline
 62
7
  6
BYLAYER
 70
0
 71
3
 72
13
 73
9
 74
0
 42
0.0000001
 43
0.0000001
 44
0.0000000001
 40
0.0
 40
0.0
 40
0.0
 40
0.0
 40
0.1224260273
 40
0.2457072056
 40
0.3701546791
 40
0.4956674852
 40
0.7478957966
 40
1.0
 40
1.0
 40
1.0
 40
1.0
 10
5.8222339861
 20
32.793578997
 30
0.0
 10
5.8202355059
 20
32.797635904
 30
0.0
 10
5.8155450983
 20
32.8054595599
 30
0.0
 10
5.8067843642
 20
32.8160174501
 30
0.0
 10
5.796536296
 20
32.82530913
 30
0.0
 10
5.7812128001
 20
32.8358460683
 30
0.0
 10
5.7596221246
 20
32.8452040816
 30
0.0
 10
5.7409159999
 20
32.8479529926
 30
0.0
 10
5.7316032346
 20
32.8479529926
 30
0.0
  0
SPLINE
  5
5C3
100
AcDbEntity
  8
00_COMPONENTS_12
100
AcDbSpline
 62
7
  6
BYLAYER
 70
0
 71
3
 72
13
 73
9
 74
0
 42
0.0000001
 43
0.0000001
 44
0.0000000001
 40
0.0
 40
0.0
 40
0.0
 40
0.0
 40
0.2521042034
 40
0.5043325148
 40
0.6298453209
 40
0.7542927944
 40
0.8775739727
 40
1.0
 40
1.0
 40
1.0
 40
1.0
 10
5.7316032346
 20
32.8479529926
 30
0.0
 10
5.7222904692
 20
32.8479529926
 30
0.0
 10
5.7035843445
 20
32.8452040816
 30
0.0
 10
5.681993669
 20
32.8358460683
 30
0.0
 10
5.6666701731
 20
32.82530913
 30
0.0
 10
5.6564221049
 20
32.8160174501
 30
0.0
 10
5.6476613708
 20
32.8054595599
 30
0.0
 10
5.6429709632
 20
32.797635904
 30
0.0
 10
5.640972483
 20
32.793578997
 30
0.0
  0
SPLINE
  5
5C4
100
AcDbEntity
  8
00_COMPONENTS_12
100
AcDbSpline
 62
7
  6
BYLAYER
 70
0
 71
3
 72
10
 73
6
 74
0
 42
0.0000001
 43
0.0000001
 44
0.0000000001
 40
0.0
 40
0.0
 40
0.0
 40
0.0
 40
0.3062000434
 40
0.6395877257
 40
1.0
 40
1.0
 40
1.0
 40
1.0
 10
33.425026565
 20
27.9593581235
 30
0.0
 10
33.425194754
 20
28.3925604196
 30
0.0
 10
33.425939241
 20
29.2974291055
 30
0.0
 10
33.4280779568
 20
30.7121965698
 30
0.0
 10
33.4301406379
 20
31.6937611316
 30
0.0
 10
33.4313367117
 20
32.2036598412
 30
0.0
  0
LINE
  5
5C5
100
AcDbEntity
  8
00_COMPONENTS_12
100
AcDbLine
 62
7
  6
BYLAYER
 10
33.4313367117
 20
32.2036598412
 11
33.3943579304
 21
27.9596257647
  0
LINE
  5
5C6
100
AcDbEntity
  8
00_COMPONENTS_12
100
AcDbLine
 62
7
  6
BYLAYER
 10
6.4688485386
 20
27.9596257668
 11
6.4318697574
 21
32.2036598412
  0
SPLINE
  5
5C7
100
AcDbEntity
  8
00_COMPONENTS_12
100
AcDbSpline
 62
7
  6
BYLAYER
 70
0
 71
3
 72
10
 73
6
 74
0
 42
0.0000001
 43
0.0000001
 44
0.0000000001
 40
0.0
 40
0.0
 40
0.0
 40
0.0
 40
0.0773618532
 40
0.139041534
 40
1.0
 40
1.0
 40
1.0
 40
1.0
 10
6.4316877102
 20
24.0152429867
 30
0.0
 10
6.4316614744
 20
24.0150625396
 30
0.0
 10
6.4314555505
 20
24.0161002474
 30
0.0
 10
6.4343169046
 20
24.0135371998
 30
0.0
 10
6.4318806903
 20
24.0113210335
 30
0.0
 10
6.4328954879
 20
24.0095636848
 30
0.0
  0
SPLINE
  5
5C8
100
AcDbEntity
  8
00_COMPONENTS_12
100
AcDbSpline
 62
7
  6
BYLAYER
 70
0
 71
3
 72
16
 73
12
 74
0
 42
0.0000001
 43
0.0000001
 44
0.0000000001
 40
0.0
 40
0.0
 40
0.0
 40
0.0
 40
0.1218693462
 40
0.2306365879
 40
0.3169674151
 40
0.3476437648
 40
0.4503857734
 40
0.5690884789
 40
0.7007018451
 40
0.8442767841
 40
1.0
 40
1.0
 40
1.0
 40
1.0
 10
6.4318625428
 20
23.9850070162
 30
0.0
 10
6.4318869312
 20
23.9822806777
 30
0.0
 10
6.4319107668
 20
23.9765374624
 30
0.0
 10
6.4320847567
 20
23.9716806887
 30
0.0
 10
6.4319945922
 20
23.9614888044
 30
0.0
 10
6.4326510041
 20
23.9679905804
 30
0.0
 10
6.4324678649
 20
23.9727708498
 30
0.0
 10
6.4326781077
 20
23.9810164668
 30
0.0
 10
6.4327301551
 20
23.9897184632
 30
0.0
 10
6.4328231879
 20
23.9993926261
 30
0.0
 10
6.4328706373
 20
24.0060799509
 30
0.0
 10
6.4328954882
 20
24.0095636848
 30
0.0
  0
SPLINE
  5
5C9
100
AcDbEntity
  8
00_COMPONENTS_12
100
AcDbSpline
 62
7
  6
BYLAYER
 70
0
 71
3
 72
12
 73
8
 74
0
 42
0.0000001
 43
0.0000001
 44
0.0000000001
 40
0.0
 40
0.0
 40
0.0
 40
0.0
 40
0.1400268585
 40
0.3517360979
 40
0.583179197
 40
0.7952152087
 40
1.0
 40
1.0
 40
1.0
 40
1.0
 10
33.4313516941
 20
23.9937941465
 30
0.0
 10
33.4313187812
 20
23.9925897912
 30
0.0
 10
33.431054686
 20
23.9873774317
 30
0.0
 10
33.4309888582
 20
23.9970013157
 30
0.0
 10
33.4307543225
 20
24.0011531948
 30
0.0
 10
33.4310277405
 20
24.0071080458
 30
0.0
 10
33.4311418488
 20
24.0106123778
 30
0.0
 10
33.4312136445
 20
24.012372903
 30
0.0
  0
SPLINE
  5
5CA
100
AcDbEntity
  8
00_COMPONENTS_12
100
AcDbSpline
 62
7
  6
BYLAYER
 70
0
 71
3
 72
39
 73
35
 74
0
 42
0.0000001
 43
0.0000001
 44
0.0000000001
 40
0.0
 40
0.0
 40
0.0
 40
0.0
 40
0.0447543864
 40
0.0888363004
 40
0.12996559
 40
0.1664022563
 40
0.1990079713
 40
0.2296087519
 40
0.2590039285
 40
0.287696359
 40
0.3158406379
 40
0.3436108289
 40
0.3712697823
 40
0.3988792601
 40
0.4260909548
 40
0.4527103454
 40
0.478490615
 40
0.5039277932
 40
0.5296341908
 40
0.5558949336
 40
0.5827224277
 40
0.6098082071
 40
0.6368582276
 40
0.6640285089
 40
0.6916515457
 40
0.7199206399
 40
0.7488171011
 40
0.7785210666
 40
0.809097713
 40
0.8417021524
 40
0.8777228429
 40
0.9169119027
 40
0.9580611127
 40
1.0
 40
1.0
 40
1.0
 40
1.0
 10
22.898461144
 20
20.0966562083
 30
0.0
 10
22.8940317393
 20
20.2835376983
 30
0.0
 10
22.9046708523
 20
20.6546989065
 30
0.0
 10
22.9259300177
 20
21.1971370473
 30
0.0
 10
22.9081869344
 20
21.7057022947
 30
0.0
 10
22.8451082814
 20
22.1624530557
 30
0.0
 10
22.7418286261
 20
22.5665603082
 30
0.0
 10
22.6038481958
 20
22.9287622192
 30
0.0
 10
22.433972542
 20
23.2588311848
 30
0.0
 10
22.2328200525
 20
23.5586358969
 30
0.0
 10
22.0015459801
 20
23.826947701
 30
0.0
 10
21.7438154279
 20
24.0635315293
 30
0.0
 10
21.4621895545
 20
24.2673419396
 30
0.0
 10
21.1606284106
 20
24.4355465495
 30
0.0
 10
20.8457313124
 20
24.56617369
 30
0.0
 10
20.5253260095
 20
24.6578329088
 30
0.0
 10
20.2036544979
 20
24.7102796408
 30
0.0
 10
19.8817385771
 20
24.7219514762
 30
0.0
 10
19.5588415613
 20
24.6948124125
 30
0.0
 10
19.2354533257
 20
24.6300495611
 30
0.0
 10
18.9159142274
 20
24.5273981285
 30
0.0
 10
18.607518891
 20
24.3867501788
 30
0.0
 10
18.3162846257
 20
24.2106201889
 30
0.0
 10
18.0452811081
 20
24.0010232252
 30
0.0
 10
17.7968126446
 20
23.7577070905
 30
0.0
 10
17.574780121
 20
23.480731719
 30
0.0
 10
17.3814963949
 20
23.1727456351
 30
0.0
 10
17.2198299786
 20
22.8362855644
 30
0.0
 10
17.0924119448
 20
22.4689708108
 30
0.0
 10
17.0009271981
 20
22.0639633179
 30
0.0
 10
16.9503768707
 20
21.6156719067
 30
0.0
 10
16.940259783
 20
21.129260683
 30
0.0
 10
16.959007764
 20
20.6189168262
 30
0.0
 10
16.9688948552
 20
20.2717659339
 30
0.0
 10
16.9647429707
 20
20.096641188
 30
0.0
  0
SPLINE
  5
5CB
100
AcDbEntity
  8
00_COMPONENTS_12
100
AcDbSpline
 62
7
  6
BYLAYER
 70
0
 71
3
 72
21
 73
17
 74
0
 42
0.0000001
 43
0.0000001
 44
0.0000000001
 40
0.0
 40
0.0
 40
0.0
 40
0.0
 40
0.0713411715
 40
0.1434649889
 40
0.2148200915
 40
0.2847171142
 40
0.3556822241
 40
0.4271664751
 40
0.4985938155
 40
0.569982565
 40
0.6416150211
 40
0.7132841942
 40
0.7843679005
 40
0.8568240775
 40
0.9294151897
 40
1.0
 40
1.0
 40
1.0
 40
1.0
 10
16.9647429707
 20
20.096641188
 30
0.0
 10
16.9647429061
 20
19.8765683879
 30
0.0
 10
17.0155052674
 20
19.4323640458
 30
0.0
 10
17.2404034126
 20
18.8030594322
 30
0.0
 10
17.5989336126
 20
18.2443271539
 30
0.0
 10
18.0686737722
 20
17.7809452448
 30
0.0
 10
18.6285325451
 20
17.4306739109
 30
0.0
 10
19.2561964221
 20
17.2103256862
 30
0.0
 10
19.9182890544
 20
17.1335344075
 30
0.0
 10
20.581484989
 20
17.2045182761
 30
0.0
 10
21.2134487392
 20
17.4202441453
 30
0.0
 10
21.7813555209
 20
17.7697757514
 30
0.0
 10
22.2599255072
 20
18.2377079097
 30
0.0
 10
22.6236496004
 20
18.8035044899
 30
0.0
 10
22.8483612743
 20
19.4356551018
 30
0.0
 10
22.8984623313
 20
19.8789166266
 30
0.0
 10
22.898461144
 20
20.0966562083
 30
0.0
  0
SPLINE
  5
5CC
100
AcDbEntity
  8
00_COMPONENTS_12
100
AcDbSpline
 62
7
  6
BYLAYER
 70
0
 71
3
 72
22
 73
18
 74
0
 42
0.0000001
 43
0.0000001
 44
0.0000000001
 40
0.0
 40
0.0
 40
0.0
 40
0.0
 40
0.0762704382
 40
0.1477344412
 40
0.2159937076
 40
0.2792762063
 40
0.3408971511
 40
0.3996400681
 40
0.457200096
 40
0.5128885637
 40
0.5700357881
 40
0.6316897429
 40
0.6959019563
 40
0.7654096277
 40
0.8383970235
 40
0.9166601362
 40
1.0
 40
1.0
 40
1.0
 40
1.0
 10
22.6959825253
 20
20.0967044527
 30
0.0
 10
22.6926014816
 20
20.3588497115
 30
0.0
 10
22.6756107796
 20
20.867174933
 30
0.0
 10
22.5485573541
 20
21.6021237721
 30
0.0
 10
22.2992455196
 20
22.2595120947
 30
0.0
 10
21.9323155873
 20
22.8189392846
 30
0.0
 10
21.4779485817
 20
23.2646608478
 30
0.0
 10
20.9508596378
 20
23.5854526802
 30
0.0
 10
20.3829754727
 20
23.7690646428
 30
0.0
 10
19.7925566842
 20
23.8099186792
 30
0.0
 10
19.1970941812
 20
23.6976436157
 30
0.0
 10
18.6195252888
 20
23.4322437907
 30
0.0
 10
18.0921238474
 20
23.0060792432
 30
0.0
 10
17.6556288158
 20
22.4367149589
 30
0.0
 10
17.3479596854
 20
21.7354801031
 30
0.0
 10
17.1906514546
 20
20.9394052689
 30
0.0
 10
17.1709167663
 20
20.3831524057
 30
0.0
 10
17.1672228117
 20
20.0967091758
 30
0.0
  0
SPLINE
  5
5CD
100
AcDbEntity
  8
00_COMPONENTS_12
100
AcDbSpline
 62
7
  6
BYLAYER
 70
0
 71
3
 72
9
 73
5
 74
0
 42
0.0000001
 43
0.0000001
 44
0.0000000001
 40
0.0
 40
0.0
 40
0.0
 40
0.0
 40
0.4998994828
 40
1.0
 40
1.0
 40
1.0
 40
1.0
 10
16.7376170297
 20
29.3877815276
 30
0.0
 10
16.7399321393
 20
29.2569231052
 30
0.0
 10
16.8519420367
 20
28.9990196708
 30
0.0
 10
17.1123104288
 20
28.8942221595
 30
0.0
 10
17.242575225
 20
28.896666916
 30
0.0
  0
SPLINE
  5
5CE
100
AcDbEntity
  8
00_COMPONENTS_12
100
AcDbSpline
 62
7
  6
BYLAYER
 70
0
 71
3
 72
9
 73
5
 74
0
 42
0.0000001
 43
0.0000001
 44
0.0000000001
 40
0.0
 40
0.0
 40
0.0
 40
0.0
 40
0.503148862
 40
1.0
 40
1.0
 40
1.0
 40
1.0
 10
23.1255964287
 20
29.3877865434
 30
0.0
 10
23.1232810358
 20
29.2569252815
 30
0.0
 10
23.0119903704
 20
29.0006822945
 30
0.0
 10
22.7542483613
 20
28.8955797066
 30
0.0
 10
22.6256704417
 20
28.8965992081
 30
0.0
  0
ELLIPSE
  5
5CF
100
AcDbEntity
  8
00_COMPONENTS_11
100
AcDbEllipse
 62
7
  6
BYLAYER
 10
32.7429221412
 20
17.3944157398
 30
0.0
 11
-0.2775917875
 21
0.4980558558
 31
0.0
 40
0.1591061666
 41
-2.8635137786
 42
-2.2701144544
  0
ELLIPSE
  5
5D0
100
AcDbEntity
  8
00_COMPONENTS_11
100
AcDbEllipse
 62
7
  6
BYLAYER
 10
32.5985838584
 20
19.2542933732
 30
0.0
 11
0.0
 21
0.5000115602
 31
0.0
 40
0.5773502692
 41
-2.1816542752
 42
-1.5708036165
  0
ELLIPSE
  5
5D1
100
AcDbEntity
  8
00_COMPONENTS_11
100
AcDbEllipse
 62
7
  6
BYLAYER
 10
32.6563214527
 20
19.4466196635
 30
0.0
 11
0.0
 21
0.6500206704
 31
0.0
 40
0.5773502692
 41
-0.6628628804
 42
-0.0000109432
  0
ELLIPSE
  5
5D2
100
AcDbEntity
  8
00_COMPONENTS_11
100
AcDbEllipse
 62
7
  6
BYLAYER
 10
7.1202843279
 20
17.3944157398
 30
0.0
 11
0.2775917875
 21
0.4980558558
 31
0.0
 40
0.1591061666
 41
-4.0130708528
 42
-3.4196715286
  0
ELLIPSE
  5
5D3
100
AcDbEntity
  8
00_COMPONENTS_11
100
AcDbEllipse
 62
7
  6
BYLAYER
 10
7.2646226107
 20
19.2542933732
 30
0.0
 11
0.0
 21
0.5000115602
 31
0.0
 40
0.5773502692
 41
-4.7123816907
 42
-4.101531032
  0
ELLIPSE
  5
5D4
100
AcDbEntity
  8
00_COMPONENTS_11
100
AcDbEllipse
 62
7
  6
BYLAYER
 10
7.2068850164
 20
19.4466196635
 30
0.0
 11
-0.0
 21
0.6500206704
 31
0.0
 40
0.5773502692
 41
0.0000109432
 42
0.6628628804
  0
ELLIPSE
  5
5D5
100
AcDbEntity
  8
00_COMPONENTS_12
100
AcDbEllipse
 62
7
  6
BYLAYER
 10
6.0551145006
 20
-438.763798079
 30
0.0
 11
-0.0
 21
1173.9447401535
 31
0.0
 40
0.0174550649
 41
-1.1580871476
 42
-1.1576221472
  0
ELLIPSE
  5
5D6
100
AcDbEntity
  8
00_COMPONENTS_12
100
AcDbEllipse
 62
7
  6
BYLAYER
 10
6.0551230501
 20
-438.7636492585
 30
0.0
 11
-0.0
 21
1174.4442311737
 31
0.0
 40
0.0174550649
 41
-1.1582734986
 42
-1.157808734
  0
ELLIPSE
  5
5D7
100
AcDbEntity
  8
00_COMPONENTS_12
100
AcDbEllipse
 62
7
  6
BYLAYER
 10
33.8080919682
 20
-438.763798074
 30
0.0
 11
0.0
 21
1173.9447401356
 31
0.0
 40
0.0174550649
 41
1.1576221472
 42
1.1580871476
  0
ELLIPSE
  5
5D8
100
AcDbEntity
  8
00_COMPONENTS_12
100
AcDbEllipse
 62
7
  6
BYLAYER
 10
33.808083419
 20
-438.7636492586
 30
0.0
 11
-0.0
 21
1174.4442311738
 31
0.0
 40
0.0174550649
 41
1.157808734
 42
1.1582734986
  0
ENDSEC
  0
SECTION
  2
OBJECTS
  0
DICTIONARY
  5
C
100
AcDbDictionary
280
0
281
1
  3
ACAD_GROUP
350
D
  3
ACAD_MLINESTYLE
350
17
  3
ACAD_LAYOUT
350
1A
  3
ACAD_PLOTSETTINGS
350
19
  3
ACAD_PLOTSTYLENAME
350
E
  0
DICTIONARY
  5
D
102
{ACAD_REACTORS
330
C
102
}
100
AcDbDictionary
280
0
281
1
  0
ACDBDICTIONARYWDFLT
  5
E
102
{ACAD_REACTORS
330
C
102
}
100
AcDbDictionary
281
1
  3
Normal
350
F
100
AcDbDictionaryWithDefault
340
F
  0
DICTIONARY
  5
17
102
{ACAD_REACTORS
330
C
102
}
100
AcDbDictionary
280
0
281
1
  3
Standard
350
18
  0
DICTIONARY
  5
19
102
{ACAD_REACTORS
330
C
102
}
100
AcDbDictionary
281
1
  0
DICTIONARY
  5
1A
102
{ACAD_REACTORS
330
C
102
}
100
AcDbDictionary
281
1
  3
Model
350
5D9
  3
Layout1
350
5DA
  0
ACDBPLACEHOLDER
  5
F
102
{ACAD_REACTORS
330
E
102
}
  0
MLINESTYLE
  5
18
102
{ACAD_REACTORS
330
17
102
}
100
AcDbMlineStyle
  2
STANDARD
 70
0
  3

 62
256
 51
90.0
 52
90.0
 71
2
 49
0.5
 62
256
  6
BYLAYER
 49
-0.5
 62
256
  6
BYLAYER
  0
LAYOUT
  5
5D9
102
{ACAD_REACTORS
330
1A
102
}
100
AcDbPlotSettings
  1

  2
none_device
  4

  6

 40
0.0
 41
0.0
 42
0.0
 43
0.0
 44
210.0
 45
297.0
 46
0.0
 47
0.0
 48
0.0
 49
0.0
140
0.0
141
0.0
142
1.0
143
1.0
 70
1024
 72
1
 73
0
 74
0
  7

 75
0
147
1.0
148
0.0
149
0.0
100
AcDbLayout
  1
Model
 70
0
 71
0
 10
0.0
 20
0.0
 11
210.0
 21
297.0
 12
0.0
 22
0.0
 32
0.0
 14
0.0
 24
0.0
 34
0.0
 15
0.0
 25
0.0
 35
0.0
146
0.0
 13
0.0
 23
0.0
 33
0.0
 16
1.0
 26
0.0
 36
0.0
 17
0.0
 27
1.0
 37
0.0
 76
0
330
21F
345
0
346
0
  0
LAYOUT
  5
5DA
102
{ACAD_REACTORS
330
1A
102
}
100
AcDbPlotSettings
  1

  2
none_device
  4

  6

 40
0.0
 41
0.0
 42
0.0
 43
0.0
 44
210.0
 45
297.0
 46
0.0
 47
0.0
 48
0.0
 49
0.0
140
0.0
141
0.0
142
1.0
143
1.0
 70
0
 72
1
 73
0
 74
0
  7

 75
0
147
1.0
148
0.0
149
0.0
100
AcDbLayout
  1
Layout1
 70
0
 71
1
 10
0.0
 20
0.0
 11
210.0
 21
297.0
 12
0.0
 22
0.0
 32
0.0
 14
0.0
 24
0.0
 34
0.0
 15
0.0
 25
0.0
 35
0.0
146
0.0
 13
0.0
 23
0.0
 33
0.0
 16
1.0
 26
0.0
 36
0.0
 17
0.0
 27
1.0
 37
0.0
 76
0
330
220
345
0
346
0
  0
ENDSEC
  0
EOF
