999
DXF file: C:\Users\sesa63760\Dev\_Creo\CAD\MCADID0003952_3D-CAD\drw0001_1.dxf
999
Pro/ENGINEER 2019471 by Parametric Technology Corporation
  0
SECTION
  2
HEADER
  9
$ACADVER
  1
AC1024
  9
$DWGCODEPAGE
  3
ANSI_1252
  9
$EXTMAX
 10
49.0321264486
 20
69.3454359773
 30
0.0
  9
$EXTMIN
 10
0.0
 20
0.0
 30
0.0
  9
$LIMMIN
 10
0.0
 20
0.0
  9
$LIMMAX
 10
49.0321264486
 20
69.3454359773
  9
$VIEWCTR
 10
24.5160632243
 20
34.6727179887
  9
$VIEWSIZE
 40
69.3454359773
  9
$CLAYER
  8
0
  9
$LTSCALE
 40
4.5202950859
  9
$CELTYPE
  6
BYLAYER
  9
$DIMSCALE
 40
1.0
  9
$DIMASZ
 40
0.5837157911
  9
$DIMEXO
 40
1.0
  9
$DIMDLI
 40
3.1231129685
  9
$DIMEXE
 40
1.0
  9
$DIMCEN
 40
0.7396846504
  9
$DIMLFAC
 40
1.0
  9
$DIMBLK
  1
_FILLED
  9
$DIMALT
 70
0
  9
$DIMALTF
 40
0.0393700787
  9
$DIMTXT
 40
0.8172021075
  9
$DIMTOL
 70
1
  9
$DIMLIM
 70
0
  9
$DIMTFAC
 40
1.0
  9
$DIMTP
 40
0.01
  9
$DIMTM
 40
0.01
  9
$DIMGAP
 40
0.625
  9
$DIMDSEP
 70
46
  9
$AUNITS
 70
0
  9
$PDMODE
 70
3
  9
$PDSIZE
 40
0.3125
  9
$HANDSEED
  5
2C8
  9
$TILEMODE
 70
1
  9
$MEASUREMENT
 70
1
  9
$INSUNITS
 70
4
  0
ENDSEC
  0
SECTION
  2
CLASSES
  0
CLASS
  1
ACDBDICTIONARYWDFLT
  2
AcDbDictionaryWithDefault
  3
AutoCAD 2000
 90
0
 91
1
280
0
281
0
  0
CLASS
  1
ACDBPLACEHOLDER
  2
AcDbPlaceHolder
  3
AutoCAD 2000
 90
0
 91
1
280
0
281
0
  0
CLASS
  1
LAYOUT
  2
AcDbLayout
  3
AutoCAD 2000
 90
0
 91
0
280
0
281
0
  0
ENDSEC
  0
SECTION
  2
TABLES
  0
TABLE
  2
VPORT
  5
8
100
AcDbSymbolTable
 70
2
  0
VPORT
  5
1F4
100
AcDbSymbolTableRecord
100
AcDbViewportTableRecord
  2
*ACTIVE
 70
0
 10
0.0
 20
0.0
 11
1.0
 21
1.0
 12
24.5160632243
 22
34.6727179887
 13
0.0
 23
0.0
 14
1.0
 24
1.0
 15
0.0
 25
0.0
 16
0.0
 26
0.0
 36
1.0
 17
0.0
 27
0.0
 37
0.0
 40
69.3454359773
 41
0.7070707071
 42
50.0
 43
0.0
 44
0.0
 50
0.0
 51
0.0
 71
0
 72
100
 73
1
 74
1
 75
0
 76
0
 77
0
 78
0
  0
ENDTAB
  0
TABLE
  2
LTYPE
  5
5
100
AcDbSymbolTable
 70
6
  0
LTYPE
  5
14
100
AcDbSymbolTableRecord
100
AcDbLinetypeTableRecord
  2
BYBLOCK
 70
0
  3

 72
65
 73
0
 40
0.0
  0
LTYPE
  5
15
100
AcDbSymbolTableRecord
100
AcDbLinetypeTableRecord
  2
BYLAYER
 70
0
  3

 72
65
 73
0
 40
0.0
  0
LTYPE
  5
16
100
AcDbSymbolTableRecord
100
AcDbLinetypeTableRecord
  2
CONTINUOUS
 70
64
  3
Solid line
 72
65
 73
0
 40
0.0
  0
LTYPE
  5
1F5
100
AcDbSymbolTableRecord
100
AcDbLinetypeTableRecord
  2
CENTER
 70
64
  3
____ _ ____ _ ____ _ ____ _ ____ _ ____ _ ____
 72
65
 73
4
 40
0.6
 49
0.375
 74
0
 49
-0.075
 74
0
 49
0.075
 74
0
 49
-0.075
 74
0
  0
LTYPE
  5
1F6
100
AcDbSymbolTableRecord
100
AcDbLinetypeTableRecord
  2
HIDDEN
 70
64
  3
- - - - - - - - - - - - - - - - - - - -
 72
65
 73
2
 40
0.2
 49
0.1
 74
0
 49
-0.1
 74
0
  0
LTYPE
  5
1F7
100
AcDbSymbolTableRecord
100
AcDbLinetypeTableRecord
  2
PHANTOM
 70
64
  3
_____ _ _ _____ _ _ _____ _ _ _____
 72
65
 73
6
 40
0.8
 49
0.45
 74
0
 49
-0.05
 74
0
 49
0.1
 74
0
 49
-0.05
 74
0
 49
0.1
 74
0
 49
-0.05
 74
0
  0
LTYPE
  5
1F8
100
AcDbSymbolTableRecord
100
AcDbLinetypeTableRecord
  2
DOT
 70
64
  3
. . . . . . . . . . . . . . . . . . . .
 72
65
 73
2
 40
0.2
 49
0.1
 74
0
 49
-0.1
 74
0
  0
LTYPE
  5
1F9
100
AcDbSymbolTableRecord
100
AcDbLinetypeTableRecord
  2
DASHED
 70
64
  3
- - - - - - - - - - - - - - - - - - - -
 72
65
 73
2
 40
0.2
 49
0.1
 74
0
 49
-0.1
 74
0
  0
ENDTAB
  0
TABLE
  2
LAYER
  5
2
100
AcDbSymbolTable
 70
36
  0
LAYER
  5
10
100
AcDbSymbolTableRecord
100
AcDbLayerTableRecord
  2
0
 70
0
 62
7
  6
CONTINUOUS
370
-3
390
F
  0
LAYER
  5
1FA
100
AcDbSymbolTableRecord
100
AcDbLayerTableRecord
  2
DEFAULT_1
 70
0
 62
7
  6
CENTER
370
-3
390
F
  0
LAYER
  5
1FB
100
AcDbSymbolTableRecord
100
AcDbLayerTableRecord
  2
DEFAULT_2
 70
0
 62
7
  6
HIDDEN
370
-3
390
F
  0
LAYER
  5
1FC
100
AcDbSymbolTableRecord
100
AcDbLayerTableRecord
  2
DEFAULT_3
 70
0
 62
7
  6
PHANTOM
370
-3
390
F
  0
LAYER
  5
1FD
100
AcDbSymbolTableRecord
100
AcDbLayerTableRecord
  2
00_COMPONENTS
 70
0
 62
7
  6
CONTINUOUS
370
-3
390
F
  0
LAYER
  5
1FE
100
AcDbSymbolTableRecord
100
AcDbLayerTableRecord
  2
01_1_DEFAULT_DATUMS
 70
0
 62
7
  6
CONTINUOUS
370
-3
390
F
  0
LAYER
  5
1FF
100
AcDbSymbolTableRecord
100
AcDbLayerTableRecord
  2
01_PLANES
 70
0
 62
7
  6
CONTINUOUS
370
-3
390
F
  0
LAYER
  5
200
100
AcDbSymbolTableRecord
100
AcDbLayerTableRecord
  2
02_COORD_SYS
 70
0
 62
7
  6
CONTINUOUS
370
-3
390
F
  0
LAYER
  5
201
100
AcDbSymbolTableRecord
100
AcDbLayerTableRecord
  2
03_AXES
 70
0
 62
7
  6
CONTINUOUS
370
-3
390
F
  0
LAYER
  5
202
100
AcDbSymbolTableRecord
100
AcDbLayerTableRecord
  2
04_POINTS
 70
0
 62
7
  6
CONTINUOUS
370
-3
390
F
  0
LAYER
  5
203
100
AcDbSymbolTableRecord
100
AcDbLayerTableRecord
  2
05_CURVES
 70
0
 62
7
  6
CONTINUOUS
370
-3
390
F
  0
LAYER
  5
204
100
AcDbSymbolTableRecord
100
AcDbLayerTableRecord
  2
06_SURFS
 70
0
 62
7
  6
CONTINUOUS
370
-3
390
F
  0
LAYER
  5
205
100
AcDbSymbolTableRecord
100
AcDbLayerTableRecord
  2
07_COSMETICS
 70
0
 62
7
  6
CONTINUOUS
370
-3
390
F
  0
LAYER
  5
206
100
AcDbSymbolTableRecord
100
AcDbLayerTableRecord
  2
10_NOTES
 70
0
 62
7
  6
CONTINUOUS
370
-3
390
F
  0
LAYER
  5
207
100
AcDbSymbolTableRecord
100
AcDbLayerTableRecord
  2
11_NOTES_PUB
 70
0
 62
7
  6
CONTINUOUS
370
-3
390
F
  0
LAYER
  5
208
100
AcDbSymbolTableRecord
100
AcDbLayerTableRecord
  2
13_REF_GTOL
 70
0
 62
7
  6
CONTINUOUS
370
-3
390
F
  0
LAYER
  5
209
100
AcDbSymbolTableRecord
100
AcDbLayerTableRecord
  2
16_MISC
 70
0
 62
7
  6
CONTINUOUS
370
-3
390
F
  0
LAYER
  5
20A
100
AcDbSymbolTableRecord
100
AcDbLayerTableRecord
  2
17_NO_PRINT
 70
0
 62
7
  6
CONTINUOUS
370
-3
390
F
  0
LAYER
  5
20B
100
AcDbSymbolTableRecord
100
AcDbLayerTableRecord
  2
18_DATUM_CAMS_JOINTS
 70
0
 62
7
  6
CONTINUOUS
370
-3
390
F
  0
LAYER
  5
20C
100
AcDbSymbolTableRecord
100
AcDbLayerTableRecord
  2
19_DATUM_FUNCTIONAL
 70
0
 62
7
  6
CONTINUOUS
370
-3
390
F
  0
LAYER
  5
20D
100
AcDbSymbolTableRecord
100
AcDbLayerTableRecord
  2
20_DATUM_KINEMATIC_SCHEME
 70
0
 62
7
  6
CONTINUOUS
370
-3
390
F
  0
ENDTAB
  0
TABLE
  2
STYLE
  5
3
100
AcDbSymbolTable
 70
1
  0
STYLE
  5
11
100
AcDbSymbolTableRecord
100
AcDbTextStyleTableRecord
  2
STANDARD
 70
0
 40
0.0
 41
1.0
 50
0.0
 71
0
 42
0.2
  3
ARIAL.TTF
  4

  0
STYLE
  5
20E
100
AcDbSymbolTableRecord
100
AcDbTextStyleTableRecord
  2
TEXTSTYLE_1
 70
0
 40
0.0
 41
0.8
 50
0.0
 71
0
 42
0.2
  3
gdt
  4

  0
ENDTAB
  0
TABLE
  2
VIEW
  5
6
100
AcDbSymbolTable
 70
0
  0
ENDTAB
  0
TABLE
  2
UCS
  5
7
100
AcDbSymbolTable
 70
0
  0
ENDTAB
  0
TABLE
  2
APPID
  5
9
100
AcDbSymbolTable
 70
1
  0
APPID
  5
20F
100
AcDbSymbolTableRecord
100
AcDbRegAppTableRecord
  2
ACAD
 70
0
  0
ENDTAB
  0
TABLE
  2
BLOCK_RECORD
  5
1
100
AcDbSymbolTable
 70
0
  0
BLOCK_RECORD
  5
210
100
AcDbSymbolTableRecord
100
AcDbBlockTableRecord
  2
*Model_Space
  0
BLOCK_RECORD
  5
211
100
AcDbSymbolTableRecord
100
AcDbBlockTableRecord
  2
*Paper_Space
  0
BLOCK_RECORD
  5
212
100
AcDbSymbolTableRecord
100
AcDbBlockTableRecord
  2
_FILLED
  0
ENDTAB
  0
TABLE
  2
DIMSTYLE
  5
A
100
AcDbSymbolTable
 70
1
100
AcDbDimStyleTable
 71
0
  0
DIMSTYLE
105
213
100
AcDbSymbolTableRecord
100
AcDbDimStyleTableRecord
  2
STANDARD
 70
0
  3

  4

 40
1.0
 41
0.5837157911
 42
1.0
 43
0.38
 44
1.0
 45
0.0
 46
0.0
 47
0.01
 48
0.01
140
0.8172021075
141
0.09
142
0.0
143
25.4
144
1.0
145
0.0
146
1.0
147
0.625
 71
1
 72
0
 73
0
 74
0
 75
0
 76
0
 77
1
 78
8
 79
2
170
0
171
1
172
0
173
0
174
0
175
0
176
0
177
0
178
0
270
2
179
2
271
2
272
2
273
2
274
2
275
0
280
0
281
0
282
0
283
1
284
8
285
0
286
0
287
3
288
0
340
11
278
46
341
212
342
212
343
212
344
212
  0
ENDTAB
  0
ENDSEC
  0
SECTION
  2
BLOCKS
  0
BLOCK
  5
20
100
AcDbEntity
  8
0
100
AcDbBlockBegin
  2
*Model_Space
 70
0
 10
0.0
 20
0.0
 30
0.0
  3
*Model_Space
  1

  0
ENDBLK
  5
21
100
AcDbEntity
  8
0
100
AcDbBlockEnd
  0
BLOCK
  5
1C
100
AcDbEntity
  8
0
100
AcDbBlockBegin
  2
*Paper_Space
 70
0
 10
0.0
 20
0.0
 30
0.0
  3
*Paper_Space
  1

  0
ENDBLK
  5
1D
100
AcDbEntity
  8
0
100
AcDbBlockEnd
  0
BLOCK
  5
214
100
AcDbEntity
  8
0
100
AcDbBlockBegin
  2
_FILLED
 70
64
 10
0.0
 20
0.0
  3
_FILLED
  1

  0
SOLID
  5
215
100
AcDbEntity
  8
0
  6
BYBLOCK
 62
0
100
AcDbTrace
 10
0.0
 20
0.0
 11
-1.0
 21
0.25
 12
-1.0
 22
-0.25
 13
-1.0
 23
-0.25
  0
ENDBLK
  5
216
100
AcDbEntity
  8
0
  6
BYBLOCK
 62
0
100
AcDbBlockEnd
  0
ENDSEC
  0
SECTION
  2
ENTITIES
  0
LINE
  5
217
100
AcDbEntity
  8
0
100
AcDbLine
 62
7
  6
BYLAYER
 10
10.2795964522
 20
22.9767771721
 11
10.6807004167
 21
22.3752235437
  0
LINE
  5
218
100
AcDbEntity
  8
0
100
AcDbLine
 62
7
  6
BYLAYER
 10
10.3124682926
 20
22.9957556248
 11
10.7106312424
 21
22.3951808214
  0
LWPOLYLINE
  5
219
100
AcDbEntity
  8
0
100
AcDbPolyline
 62
7
  6
BYLAYER
 90
10
 70
0
 10
15.1160925178
 20
20.4888278926
 10
16.8150936364
 20
19.827718879
 10
18.4218543643
 20
19.897220676
 10
19.6545087396
 20
20.7252923993
 10
20.0887106358
 20
21.39604625
 10
20.5382583227
 20
23.1599484181
 10
20.3958663475
 20
25.3282562128
 10
19.6772441887
 20
27.6604584237
 10
18.4516409079
 20
29.9212639141
 10
17.6876204982
 20
30.9442361347
  0
LWPOLYLINE
  5
21A
100
AcDbEntity
  8
0
100
AcDbPolyline
 62
7
  6
BYLAYER
 90
4
 70
0
 10
9.6133676326
 20
31.0463741073
 10
9.7075218653
 20
31.8915507194
 10
10.5599990039
 20
33.4027025558
 10
11.1848087787
 20
33.8916460673
  0
LINE
  5
21B
100
AcDbEntity
  8
0
100
AcDbLine
 62
7
  6
BYLAYER
 10
21.4784642811
 20
45.902395019
 11
19.2613840896
 21
44.6223708143
  0
LINE
  5
21C
100
AcDbEntity
  8
0
100
AcDbLine
 62
7
  6
BYLAYER
 10
24.918214744
 20
47.8883240203
 11
27.1352950221
 21
49.1683482749
  0
LWPOLYLINE
  5
21D
100
AcDbEntity
  8
0
100
AcDbPolyline
 62
7
  6
BYLAYER
 90
4
 70
0
 10
16.05880018
 20
37.8603283329
 10
15.2448852902
 20
37.17758195
 10
14.7409765206
 20
36.4034096444
 10
14.6032708373
 20
35.865284276
  0
LINE
  5
21E
100
AcDbEntity
  8
0
100
AcDbLine
 62
7
  6
BYLAYER
 10
29.3514060404
 20
46.605696329
 11
27.1343257634
 21
45.325672075
  0
LINE
  5
21F
100
AcDbEntity
  8
0
100
AcDbLine
 62
7
  6
BYLAYER
 10
32.7911565043
 20
48.5916253309
 11
35.0082366949
 21
49.8716495351
  0
LINE
  5
220
100
AcDbEntity
  8
0
100
AcDbLine
 62
7
  6
BYLAYER
 10
9.3776280451
 20
30.8320249807
 11
10.92035574
 21
32.2347691592
  0
LINE
  5
221
100
AcDbEntity
  8
0
100
AcDbLine
 62
7
  6
BYLAYER
 10
13.8011458966
 20
35.4020577386
 11
13.7944635524
 21
35.3964344793
  0
LINE
  5
222
100
AcDbEntity
  8
0
100
AcDbLine
 62
7
  6
BYLAYER
 10
29.8231978192
 20
46.3940543622
 11
27.6423339604
 21
45.1349395421
  0
LINE
  5
223
100
AcDbEntity
  8
0
100
AcDbLine
 62
7
  6
BYLAYER
 10
33.299164639
 20
48.400892762
 11
35.4800285366
 21
49.6600076045
  0
LWPOLYLINE
  5
224
100
AcDbEntity
  8
0
100
AcDbPolyline
 62
7
  6
BYLAYER
 90
8
 70
0
 10
17.6876204982
 20
30.9442361347
 10
16.8560749297
 20
31.8501691914
 10
15.0646813009
 20
33.2381494321
 10
13.2716465711
 20
33.9358484558
 10
11.6648858432
 20
33.8663466588
 10
10.4322314678
 20
33.0382749355
 10
9.9980295717
 20
32.3675210849
 10
9.6757871052
 20
31.1031297824
  0
LINE
  5
225
100
AcDbEntity
  8
0
100
AcDbLine
 62
7
  6
BYLAYER
 10
11.3148332946
 20
32.5233417895
 11
10.92035574
 21
32.2347691592
  0
LINE
  5
226
100
AcDbEntity
  8
0
100
AcDbLine
 62
7
  6
BYLAYER
 10
15.8516941043
 20
36.5860574829
 11
13.7936594244
 21
35.3978238935
  0
LINE
  5
227
100
AcDbEntity
  8
0
100
AcDbLine
 62
7
  6
BYLAYER
 10
11.6683852132
 20
32.7274638664
 11
11.3148332946
 21
32.5233417895
  0
LINE
  5
228
100
AcDbEntity
  8
0
100
AcDbLine
 62
7
  6
BYLAYER
 10
13.8057649109
 20
35.4048216987
 11
13.8011009335
 21
35.4021356212
  0
LINE
  5
229
100
AcDbEntity
  8
0
100
AcDbLine
 62
7
  6
BYLAYER
 10
11.1848087787
 20
33.8916460673
 11
13.7366594532
 21
35.3649300066
  0
LINE
  5
22A
100
AcDbEntity
  8
0
100
AcDbLine
 62
7
  6
BYLAYER
 10
13.800285382
 20
35.4002897118
 11
13.8066715722
 21
35.403714221
  0
LINE
  5
22B
100
AcDbEntity
  8
0
100
AcDbLine
 62
7
  6
BYLAYER
 10
13.8061002874
 20
35.404239875
 11
13.8011458966
 21
35.4020577386
  0
LINE
  5
22C
100
AcDbEntity
  8
0
100
AcDbLine
 62
7
  6
BYLAYER
 10
20.5131267555
 20
32.6405537827
 11
20.5016403743
 21
32.6544111237
  0
LINE
  5
22D
100
AcDbEntity
  8
0
100
AcDbLine
 62
7
  6
BYLAYER
 10
20.4424163718
 20
32.5997293673
 11
20.4551633406
 21
32.5843043751
  0
LINE
  5
22E
100
AcDbEntity
  8
0
100
AcDbLine
 62
7
  6
BYLAYER
 10
20.4424163718
 20
32.5997293673
 11
20.4545931691
 21
32.5834357586
  0
LINE
  5
22F
100
AcDbEntity
  8
0
100
AcDbLine
 62
7
  6
BYLAYER
 10
13.7303890842
 20
35.3613137799
 11
13.7371923266
 21
35.3640051272
  0
LINE
  5
230
100
AcDbEntity
  8
0
100
AcDbLine
 62
7
  6
BYLAYER
 10
13.8055081614
 20
35.3910307172
 11
13.8122987793
 21
35.3937170703
  0
LWPOLYLINE
  5
231
100
AcDbEntity
  8
0
100
AcDbPolyline
 62
7
  6
BYLAYER
 90
3
 70
0
 10
20.5131267555
 20
32.6405537827
 10
19.6602967614
 20
33.5696794134
 10
17.8230715048
 20
34.9932046212
  0
LINE
  5
232
100
AcDbEntity
  8
0
100
AcDbLine
 62
7
  6
BYLAYER
 10
17.8230715048
 20
34.9932046212
 11
15.983698753
 21
35.7089156775
  0
LINE
  5
233
100
AcDbEntity
  8
0
100
AcDbLine
 62
7
  6
BYLAYER
 10
12.872349162
 20
27.2497664728
 11
13.974498591
 21
27.9841127343
  0
LINE
  5
234
100
AcDbEntity
  8
0
100
AcDbLine
 62
7
  6
BYLAYER
 10
5.8954027596
 20
22.7549745033
 11
12.9664411318
 21
26.837416042
  0
LINE
  5
235
100
AcDbEntity
  8
0
100
AcDbLine
 62
7
  6
BYLAYER
 10
15.983698753
 20
35.7089156775
 11
14.440020132
 21
35.6420422198
  0
LINE
  5
236
100
AcDbEntity
  8
0
100
AcDbLine
 62
7
  6
BYLAYER
 10
6.8953982828
 20
21.022921111
 11
13.9664366549
 21
25.1053626497
  0
LINE
  5
237
100
AcDbEntity
  8
0
100
AcDbLine
 62
7
  6
BYLAYER
 10
14.2764951313
 20
24.8176997953
 11
15.4635353995
 21
25.4050099325
  0
LINE
  5
238
100
AcDbEntity
  8
0
100
AcDbLine
 62
7
  6
BYLAYER
 10
37.9410895494
 20
36.295349479
 11
35.760225652
 21
35.0362346367
  0
LINE
  5
239
100
AcDbEntity
  8
0
100
AcDbLine
 62
7
  6
BYLAYER
 10
41.4170563694
 20
38.302187879
 11
43.597920228
 21
39.5613026989
  0
LINE
  5
23A
100
AcDbEntity
  8
0
100
AcDbLine
 62
7
  6
BYLAYER
 10
38.1429101866
 20
35.6690135266
 11
35.925830006
 21
34.3889893283
  0
LINE
  5
23B
100
AcDbEntity
  8
0
100
AcDbLine
 62
7
  6
BYLAYER
 10
41.5826606916
 20
37.6549425522
 11
43.7997408964
 21
38.9349667646
  0
LINE
  5
23C
100
AcDbEntity
  8
0
100
AcDbLine
 62
7
  6
BYLAYER
 10
21.8010042411
 20
21.5458139964
 11
21.8076865853
 21
21.5514372558
  0
LINE
  5
23D
100
AcDbEntity
  8
0
100
AcDbLine
 62
7
  6
BYLAYER
 10
21.7985996294
 20
21.5620763751
 11
21.7920109107
 21
21.5565646737
  0
LINE
  5
23E
100
AcDbEntity
  8
0
100
AcDbLine
 62
7
  6
BYLAYER
 10
21.7369088834
 20
21.5104698346
 11
21.7303146621
 21
21.50495353
  0
LINE
  5
23F
100
AcDbEntity
  8
0
100
AcDbLine
 62
7
  6
BYLAYER
 10
21.8056995196
 20
21.5500845992
 11
21.7984809866
 21
21.5456101273
  0
LINE
  5
240
100
AcDbEntity
  8
0
100
AcDbLine
 62
7
  6
BYLAYER
 10
18.4183549943
 20
21.0361034684
 11
18.0648030757
 21
20.8319813915
  0
LINE
  5
241
100
AcDbEntity
  8
0
100
AcDbLine
 62
7
  6
BYLAYER
 10
21.7376687052
 20
21.5091569266
 11
19.1847729637
 21
20.035218929
  0
LINE
  5
242
100
AcDbEntity
  8
0
100
AcDbLine
 62
7
  6
BYLAYER
 10
21.7963852268
 20
21.5430500363
 11
23.8516582893
 21
22.7296303446
  0
LINE
  5
243
100
AcDbEntity
  8
0
100
AcDbLine
 62
7
  6
BYLAYER
 10
17.6176520496
 20
20.6346424347
 11
18.0648030757
 21
20.8319813915
  0
LINE
  5
244
100
AcDbEntity
  8
0
100
AcDbLine
 62
7
  6
BYLAYER
 10
21.7960498504
 20
21.54363186
 11
21.8010042411
 21
21.5458139964
  0
LINE
  5
245
100
AcDbEntity
  8
0
100
AcDbLine
 62
7
  6
BYLAYER
 10
15.6314728277
 20
19.9999834164
 11
17.6176520496
 21
20.6346424347
  0
LWPOLYLINE
  5
246
100
AcDbEntity
  8
0
100
AcDbPolyline
 62
7
  6
BYLAYER
 90
5
 70
0
 10
38.2574654111
 20
26.5715012719
 10
38.791678334
 20
26.7364108198
 10
40.1401737584
 20
27.9871381349
 10
40.987869431
 20
29.8608632786
 10
41.2769931196
 20
32.2298228753
  0
LINE
  5
247
100
AcDbEntity
  8
0
100
AcDbLine
 62
7
  6
BYLAYER
 10
38.1429102354
 20
25.1717266041
 11
35.9258302421
 21
23.8917025139
  0
LINE
  5
248
100
AcDbEntity
  8
0
100
AcDbLine
 62
7
  6
BYLAYER
 10
41.5826606982
 20
27.1576556054
 11
43.7997406287
 21
28.4376796594
  0
LINE
  5
249
100
AcDbEntity
  8
0
100
AcDbLine
 62
7
  6
BYLAYER
 10
37.9410895299
 20
24.7366093748
 11
35.7602256711
 21
23.4774945548
  0
LINE
  5
24A
100
AcDbEntity
  8
0
100
AcDbLine
 62
7
  6
BYLAYER
 10
41.4170563496
 20
26.7434477747
 11
43.5979202473
 21
28.0025626171
  0
LWPOLYLINE
  5
24B
100
AcDbEntity
  8
0
100
AcDbPolyline
 62
7
  6
BYLAYER
 90
3
 70
0
 10
39.0419919531
 20
45.7874414713
 10
39.5946345422
 20
45.338489779
 10
40.3973066756
 20
44.4553758488
  0
LWPOLYLINE
  5
24C
100
AcDbEntity
  8
0
100
AcDbPolyline
 62
7
  6
BYLAYER
 90
3
 70
0
 10
40.405373271
 20
44.3791701471
 10
41.2458350231
 20
43.2543946487
 10
41.8141086894
 20
42.2078111346
  0
LWPOLYLINE
  5
24D
100
AcDbEntity
  8
0
100
AcDbPolyline
 62
7
  6
BYLAYER
 90
3
 70
0
 10
40.4418185987
 20
44.4064030518
 10
41.2989913857
 20
43.2594023269
 10
42.050956512
 20
41.8746731182
  0
ARC
  5
24E
100
AcDbEntity
  8
0
100
AcDbCircle
 62
7
  6
BYLAYER
 10
87.2535439569
 20
-20.9809515414
 40
92.8906366888
100
AcDbArc
 50
132.1490441849
 51
132.3891678376
  0
ARC
  5
24F
100
AcDbEntity
  8
0
100
AcDbCircle
 62
7
  6
BYLAYER
 10
81.1275611562
 20
-23.7307545166
 40
92.1931321156
100
AcDbArc
 50
132.1481358337
 51
132.3900761899
  0
ARC
  5
250
100
AcDbEntity
  8
0
100
AcDbCircle
 62
7
  6
BYLAYER
 10
84.7372159056
 20
80.0371369243
 40
80.9889379211
100
AcDbArc
 50
224.4341790555
 51
224.6637851718
  0
ARC
  5
251
100
AcDbEntity
  8
0
100
AcDbCircle
 62
7
  6
BYLAYER
 10
95.3882783357
 20
40.1600047692
 40
71.1509871561
100
AcDbArc
 50
173.9763822069
 51
175.0510473718
  0
ARC
  5
252
100
AcDbEntity
  8
0
100
AcDbCircle
 62
7
  6
BYLAYER
 10
94.2219461643
 20
49.64945605
 40
60.2604265279
100
AcDbArc
 50
194.0342061182
 51
194.669436199
  0
ARC
  5
253
100
AcDbEntity
  8
0
100
AcDbCircle
 62
7
  6
BYLAYER
 10
99.6639158513
 20
52.8604348882
 40
60.0386475373
100
AcDbArc
 50
194.0330328534
 51
194.6706094584
  0
ARC
  5
254
100
AcDbEntity
  8
0
100
AcDbCircle
 62
7
  6
BYLAYER
 10
-11.0969614266
 20
21.5916000926
 40
57.5711758909
100
AcDbArc
 50
17.5327486091
 51
18.1876531958
  0
ARC
  5
255
100
AcDbEntity
  8
0
100
AcDbCircle
 62
7
  6
BYLAYER
 10
-16.7146677913
 20
18.3382536746
 40
57.530071269
100
AcDbArc
 50
17.5325146426
 51
18.1878871567
  0
ARC
  5
256
100
AcDbEntity
  8
0
100
AcDbCircle
 62
7
  6
BYLAYER
 10
58.8828075999
 20
68.1213046508
 40
55.0845961413
100
AcDbArc
 50
234.805167165
 51
235.4492287944
  0
ARC
  5
257
100
AcDbEntity
  8
0
100
AcDbCircle
 62
7
  6
BYLAYER
 10
-9.240753464
 20
46.8853564551
 40
52.1219081278
100
AcDbArc
 50
334.8530573064
 51
335.3803151854
  0
ARC
  5
258
100
AcDbEntity
  8
0
100
AcDbCircle
 62
7
  6
BYLAYER
 10
-3.1744946366
 20
49.961381767
 40
51.6705770486
100
AcDbArc
 50
334.8507773025
 51
335.3826403972
  0
ARC
  5
259
100
AcDbEntity
  8
0
100
AcDbCircle
 62
7
  6
BYLAYER
 10
50.5088973014
 20
95.0101936814
 40
49.6850262202
100
AcDbArc
 50
249.1083887455
 51
249.7341460685
  0
ARC
  5
25A
100
AcDbEntity
  8
0
100
AcDbCircle
 62
7
  6
BYLAYER
 10
44.7397761189
 20
91.4451594265
 40
49.3655648785
100
AcDbArc
 50
249.1063639811
 51
249.7361708329
  0
ARC
  5
25B
100
AcDbEntity
  8
0
100
AcDbCircle
 62
7
  6
BYLAYER
 10
17.7071257587
 20
10.6723700142
 40
42.8475431971
100
AcDbArc
 50
65.4936571966
 51
66.1851117719
  0
ARC
  5
25C
100
AcDbEntity
  8
0
100
AcDbCircle
 62
7
  6
BYLAYER
 10
12.0893336189
 20
7.4934414537
 40
42.7521651582
100
AcDbArc
 50
65.4928858861
 51
66.1858830823
  0
ARC
  5
25D
100
AcDbEntity
  8
0
100
AcDbCircle
 62
7
  6
BYLAYER
 10
74.7509478881
 20
8.12881351
 40
41.9029644533
100
AcDbArc
 50
157.9029853369
 51
158.5129419841
  0
ARC
  5
25E
100
AcDbEntity
  8
0
100
AcDbCircle
 62
7
  6
BYLAYER
 10
80.2197460035
 20
11.4699644363
 40
41.7004558448
100
AcDbArc
 50
157.9015305745
 51
158.514449008
  0
ARC
  5
25F
100
AcDbEntity
  8
0
100
AcDbCircle
 62
7
  6
BYLAYER
 10
29.3216542878
 20
35.2856340964
 40
14.3396591266
100
AcDbArc
 50
39.3704507368
 51
39.6147435618
  0
ARC
  5
260
100
AcDbEntity
  8
0
100
AcDbCircle
 62
7
  6
BYLAYER
 10
29.5733049923
 20
35.4977834695
 40
14.010529366
100
AcDbArc
 50
39.6025936656
 51
42.1327019047
  0
ARC
  5
261
100
AcDbEntity
  8
0
100
AcDbCircle
 62
7
  6
BYLAYER
 10
29.6777492741
 20
35.4969172254
 40
13.9729784268
100
AcDbArc
 50
39.6147649757
 51
39.889706069
  0
ARC
  5
262
100
AcDbEntity
  8
0
100
AcDbCircle
 62
7
  6
BYLAYER
 10
30.4187898409
 20
36.2847227237
 40
12.8556159198
100
AcDbArc
 50
42.0596306938
 51
47.3070281316
  0
ARC
  5
263
100
AcDbEntity
  8
0
100
AcDbCircle
 62
7
  6
BYLAYER
 10
10.7677111991
 20
24.5621844307
 40
12.6286587513
100
AcDbArc
 50
39.6148278368
 51
39.7447414684
  0
ARC
  5
264
100
AcDbEntity
  8
0
100
AcDbCircle
 62
7
  6
BYLAYER
 10
18.3385262802
 20
28.6734359384
 40
9.9182933927
100
AcDbArc
 50
219.441143284
 51
219.6147942963
  0
ARC
  5
265
100
AcDbEntity
  8
0
100
AcDbCircle
 62
7
  6
BYLAYER
 10
18.1755280778
 20
28.5739349024
 40
9.69028827
100
AcDbArc
 50
219.614826213
 51
219.7531433379
  0
ARC
  5
266
100
AcDbEntity
  8
0
100
AcDbCircle
 62
7
  6
BYLAYER
 10
16.377676134
 20
26.6611582383
 40
7.0596844373
100
AcDbArc
 50
232.682734926
 51
233.6623506644
  0
ARC
  5
267
100
AcDbEntity
  8
0
100
AcDbCircle
 62
7
  6
BYLAYER
 10
14.5206728967
 20
28.1509967244
 40
6.1163004256
100
AcDbArc
 50
180.6682649374
 51
181.2410945365
  0
ARC
  5
268
100
AcDbEntity
  8
0
100
AcDbCircle
 62
7
  6
BYLAYER
 10
23.551602546
 20
27.0123058229
 40
5.1732681376
100
AcDbArc
 50
256.7026290682
 51
258.5203090939
  0
ARC
  5
269
100
AcDbEntity
  8
0
100
AcDbCircle
 62
7
  6
BYLAYER
 10
29.2137435754
 20
43.6276591262
 40
4.6042888986
100
AcDbArc
 50
140.9562201835
 51
142.182802586
  0
ARC
  5
26A
100
AcDbEntity
  8
0
100
AcDbCircle
 62
7
  6
BYLAYER
 10
20.4670406565
 20
23.8566610132
 40
2.6683239569
100
AcDbArc
 50
298.9193526861
 51
299.8806270097
  0
ARC
  5
26B
100
AcDbEntity
  8
0
100
AcDbCircle
 62
7
  6
BYLAYER
 10
15.1344061898
 20
33.0924369682
 40
2.6669103405
100
AcDbArc
 50
120.1810519468
 51
120.7875618153
  0
ARC
  5
26C
100
AcDbEntity
  8
0
100
AcDbCircle
 62
7
  6
BYLAYER
 10
20.397186583
 20
23.8143388897
 40
2.6666001205
100
AcDbArc
 50
300.1783505217
 51
301.7018091067
  0
ARC
  5
26D
100
AcDbEntity
  8
0
100
AcDbCircle
 62
7
  6
BYLAYER
 10
15.0618984214
 20
33.0552309946
 40
2.6628871265
100
AcDbArc
 50
118.2797105106
 51
119.8459661043
  0
ARC
  5
26E
100
AcDbEntity
  8
0
100
AcDbCircle
 62
7
  6
BYLAYER
 10
14.7038735844
 20
27.5495307958
 40
1.011832071
100
AcDbArc
 50
164.2414193311
 51
164.7179636332
  0
SPLINE
  5
26F
100
AcDbEntity
  8
0
100
AcDbSpline
 62
7
  6
BYLAYER
 70
0
 71
3
 72
11
 73
7
 74
0
 42
0.0000001
 43
0.0000001
 44
0.0000000001
 40
0.0
 40
0.0
 40
0.0
 40
0.0
 40
0.2438909401
 40
0.4915600864
 40
0.7434920037
 40
1.0
 40
1.0
 40
1.0
 40
1.0
 10
43.7997408843
 20
38.9349667576
 30
0.0
 10
43.84776138
 20
38.5244410317
 30
0.0
 10
43.9346108817
 20
37.6958228568
 30
0.0
 10
44.0317331054
 20
36.4393956789
 30
0.0
 10
44.0920386662
 20
35.1592307426
 30
0.0
 10
44.1054084699
 20
34.2975064039
 30
0.0
 10
44.1054084699
 20
33.8627993971
 30
0.0
  0
SPLINE
  5
270
100
AcDbEntity
  8
0
100
AcDbSpline
 62
7
  6
BYLAYER
 70
0
 71
3
 72
10
 73
6
 74
0
 42
0.0000001
 43
0.0000001
 44
0.0000000001
 40
0.0
 40
0.0
 40
0.0
 40
0.0
 40
0.2518572263
 40
0.5024569043
 40
1.0
 40
1.0
 40
1.0
 40
1.0
 10
39.8627494492
 20
44.7975855166
 30
0.0
 10
40.2012066592
 20
44.3765439026
 30
0.0
 10
40.8635659795
 20
43.5261174316
 30
0.0
 10
42.1301313092
 20
41.7947890254
 30
0.0
 10
43.0231438409
 20
40.46048087
 30
0.0
 10
43.597920228
 20
39.5613026989
 30
0.0
  0
SPLINE
  5
271
100
AcDbEntity
  8
0
100
AcDbSpline
 62
7
  6
BYLAYER
 70
0
 71
3
 72
10
 73
6
 74
0
 42
0.0000001
 43
0.0000001
 44
0.0000000001
 40
0.0
 40
0.0
 40
0.0
 40
0.0
 40
0.2622043309
 40
0.5170276382
 40
1.0
 40
1.0
 40
1.0
 40
1.0
 10
27.1352949788
 20
49.16834825
 30
0.0
 10
27.5047555688
 20
49.2243366328
 30
0.0
 10
28.2338482752
 20
49.3310650962
 30
0.0
 10
29.646468431
 20
49.5196495582
 30
0.0
 10
30.6918578559
 20
49.6352317875
 30
0.0
 10
31.3774327356
 20
49.6964746735
 30
0.0
  0
SPLINE
  5
272
100
AcDbEntity
  8
0
100
AcDbSpline
 62
7
  6
BYLAYER
 70
0
 71
3
 72
11
 73
7
 74
0
 42
0.0000001
 43
0.0000001
 44
0.0000000001
 40
0.0
 40
0.0
 40
0.0
 40
0.0
 40
0.2666114911
 40
0.5215759585
 40
0.7656426577
 40
1.0
 40
1.0
 40
1.0
 40
1.0
 10
31.3774327356
 20
49.6964746735
 30
0.0
 10
31.6992876609
 20
49.725226679
 30
0.0
 10
32.3295154194
 20
49.7752621622
 30
0.0
 10
33.2560063756
 20
49.8288532083
 30
0.0
 10
34.144366533
 20
49.8610034464
 30
0.0
 10
34.7241973665
 20
49.8699922764
 30
0.0
 10
35.0082366949
 20
49.8716495351
 30
0.0
  0
SPLINE
  5
273
100
AcDbEntity
  8
0
100
AcDbSpline
 62
7
  6
BYLAYER
 70
0
 71
3
 72
10
 73
6
 74
0
 42
0.0000001
 43
0.0000001
 44
0.0000000001
 40
0.0
 40
0.0
 40
0.0
 40
0.0
 40
0.5016857922
 40
0.7513585179
 40
1.0
 40
1.0
 40
1.0
 40
1.0
 10
35.4800285169
 20
49.6600075931
 30
0.0
 10
36.2517025889
 20
48.882933108
 30
0.0
 10
37.3850817326
 20
47.6962638862
 30
0.0
 10
38.8280411336
 20
46.0579708153
 30
0.0
 10
39.5226955184
 20
45.2206164177
 30
0.0
 10
39.8627494492
 20
44.7975855166
 30
0.0
  0
SPLINE
  5
274
100
AcDbEntity
  8
0
100
AcDbSpline
 62
7
  6
BYLAYER
 70
0
 71
3
 72
11
 73
7
 74
0
 42
0.0000001
 43
0.0000001
 44
0.0000000001
 40
0.0
 40
0.0
 40
0.0
 40
0.0
 40
0.2442393371
 40
0.4926107432
 40
0.7447042177
 40
1.0
 40
1.0
 40
1.0
 40
1.0
 10
44.1054084699
 20
33.8627993971
 30
0.0
 10
44.1054084679
 20
33.4202382294
 30
0.0
 10
44.0913164168
 20
32.5275754184
 30
0.0
 10
44.0304443147
 20
31.1793814442
 30
0.0
 10
43.932995664
 20
29.8132835667
 30
0.0
 10
43.8471617285
 20
28.8978380721
 30
0.0
 10
43.7997406287
 20
28.4376796594
 30
0.0
  0
SPLINE
  5
275
100
AcDbEntity
  8
0
100
AcDbSpline
 62
7
  6
BYLAYER
 70
0
 71
3
 72
9
 73
5
 74
0
 42
0.0000001
 43
0.0000001
 44
0.0000000001
 40
0.0
 40
0.0
 40
0.0
 40
0.0
 40
0.4887655311
 40
1.0
 40
1.0
 40
1.0
 40
1.0
 10
38.2265309464
 20
26.3142578193
 30
0.0
 10
38.7477946326
 20
26.3725656856
 30
0.0
 10
39.8127233478
 20
26.5059904464
 30
0.0
 10
40.8747268393
 20
26.6605605643
 30
0.0
 10
41.4170563688
 20
26.7434477857
 30
0.0
  0
SPLINE
  5
276
100
AcDbEntity
  8
0
100
AcDbSpline
 62
7
  6
BYLAYER
 70
0
 71
3
 72
11
 73
7
 74
0
 42
0.0000001
 43
0.0000001
 44
0.0000000001
 40
0.0
 40
0.0
 40
0.0
 40
0.0
 40
0.2666114904
 40
0.5215759592
 40
0.7656426589
 40
1.0
 40
1.0
 40
1.0
 40
1.0
 10
28.5490188779
 20
48.0634989189
 30
0.0
 10
28.2271639419
 20
48.0347469115
 30
0.0
 10
27.5969361595
 20
47.9847114286
 30
0.0
 10
26.6704451686
 20
47.9311203748
 30
0.0
 10
25.7820849783
 20
47.8989701325
 30
0.0
 10
25.2022541245
 20
47.8899813041
 30
0.0
 10
24.9182147873
 20
47.8883240453
 30
0.0
  0
SPLINE
  5
277
100
AcDbEntity
  8
0
100
AcDbSpline
 62
7
  6
BYLAYER
 70
0
 71
3
 72
16
 73
12
 74
0
 42
0.0000001
 43
0.0000001
 44
0.0000000001
 40
0.0
 40
0.0
 40
0.0
 40
0.0
 40
0.0545822118
 40
0.1108758943
 40
0.2280880736
 40
0.3507348472
 40
0.4776464418
 40
0.6074891637
 40
0.738823411
 40
0.8701575655
 40
1.0
 40
1.0
 40
1.0
 40
1.0
 10
41.2769931196
 20
32.2298228753
 30
0.0
 10
41.2769931196
 20
32.4469637655
 30
0.0
 10
41.2642843235
 20
32.8881420874
 30
0.0
 10
41.190080124
 20
33.7928237676
 30
0.0
 10
41.0045629349
 20
34.9583049476
 30
0.0
 10
40.6460650788
 20
36.3744659397
 30
0.0
 10
40.1546882491
 20
37.8033483698
 30
0.0
 10
39.538780545
 20
39.2207436303
 30
0.0
 10
38.8087189082
 20
40.6027724488
 30
0.0
 10
37.9769325374
 20
41.9259473416
 30
0.0
 10
37.3579648111
 20
42.7620164735
 30
0.0
 10
37.0343347799
 20
43.1646094143
 30
0.0
  0
SPLINE
  5
278
100
AcDbEntity
  8
0
100
AcDbSpline
 62
7
  6
BYLAYER
 70
0
 71
3
 72
15
 73
11
 74
0
 42
0.0000001
 43
0.0000001
 44
0.0000000001
 40
0.0
 40
0.0
 40
0.0
 40
0.0
 40
0.1289737045
 40
0.2552348192
 40
0.3794646469
 40
0.5024842696
 40
0.6251806672
 40
0.7484374014
 40
0.8731075284
 40
1.0
 40
1.0
 40
1.0
 40
1.0
 10
28.5490180669
 20
48.0634984825
 30
0.0
 10
28.4041366315
 20
48.050557115
 30
0.0
 10
28.1183831298
 20
48.0119174225
 30
0.0
 10
27.701091395
 20
47.9140068244
 30
0.0
 10
27.3019588276
 20
47.7770313142
 30
0.0
 10
26.9226087268
 20
47.6015435786
 30
0.0
 10
26.5644755395
 20
47.3881617158
 30
0.0
 10
26.2288766197
 20
47.137725676
 30
0.0
 10
25.917113563
 20
46.8512265914
 30
0.0
 10
25.7279033317
 20
46.6391133379
 30
0.0
 10
25.6377541379
 20
46.5279652832
 30
0.0
  0
SPLINE
  5
279
100
AcDbEntity
  8
0
100
AcDbSpline
 62
7
  6
BYLAYER
 70
0
 71
3
 72
20
 73
16
 74
0
 42
0.0000001
 43
0.0000001
 44
0.0000000001
 40
0.0
 40
0.0
 40
0.0
 40
0.0
 40
0.1490918685
 40
0.2931732942
 40
0.3629133465
 40
0.4309090764
 40
0.4970270534
 40
0.561162171
 40
0.6232325549
 40
0.6831876678
 40
0.7410059458
 40
0.7967033744
 40
0.8503346113
 40
0.9020095794
 40
1.0
 40
1.0
 40
1.0
 40
1.0
 10
37.0343347799
 20
43.1646094143
 30
0.0
 10
36.7180147548
 20
43.5581163005
 30
0.0
 10
36.0655831591
 20
44.3080550703
 30
0.0
 10
35.1834426669
 20
45.1660956047
 30
0.0
 10
34.4551685553
 20
45.7833199472
 30
0.0
 10
33.9077312481
 20
46.2043318936
 30
0.0
 10
33.3554695377
 20
46.5865750049
 30
0.0
 10
32.8007674077
 20
46.928477528
 30
0.0
 10
32.2459289024
 20
47.2285203837
 30
0.0
 10
31.6933350615
 20
47.4854819801
 30
0.0
 10
31.1452679978
 20
47.6981717934
 30
0.0
 10
30.604122945
 20
47.865745434
 30
0.0
 10
30.0719809864
 20
47.9873736999
 30
0.0
 10
29.3902068959
 20
48.0858596444
 30
0.0
 10
28.879534795
 20
48.0930265233
 30
0.0
 10
28.5490180669
 20
48.0634984825
 30
0.0
  0
SPLINE
  5
27A
100
AcDbEntity
  8
0
100
AcDbSpline
 62
7
  6
BYLAYER
 70
0
 71
3
 72
11
 73
7
 74
0
 42
0.0000001
 43
0.0000001
 44
0.0000000001
 40
0.0
 40
0.0
 40
0.0
 40
0.0
 40
0.2442393976
 40
0.4926107705
 40
0.7447041798
 40
1.0
 40
1.0
 40
1.0
 40
1.0
 10
41.2769931186
 20
32.2298228151
 30
0.0
 10
41.2769931186
 20
32.6723840905
 30
0.0
 10
41.2910860355
 20
33.5650469343
 30
0.0
 10
41.3519575009
 20
34.9132408414
 30
0.0
 10
41.4494049831
 20
36.2793386997
 30
0.0
 10
41.5352395908
 20
37.1947840808
 30
0.0
 10
41.5826607037
 20
37.6549425592
 30
0.0
  0
SPLINE
  5
27B
100
AcDbEntity
  8
0
100
AcDbSpline
 62
7
  6
BYLAYER
 70
0
 71
3
 72
10
 73
6
 74
0
 42
0.0000001
 43
0.0000001
 44
0.0000000001
 40
0.0
 40
0.0
 40
0.0
 40
0.0
 40
0.5016857921
 40
0.7513585178
 40
1.0
 40
1.0
 40
1.0
 40
1.0
 10
41.4170563694
 20
38.302187879
 30
0.0
 10
40.6453823222
 20
39.0792623392
 30
0.0
 10
39.5120032139
 20
40.2659315222
 30
0.0
 10
38.0690438552
 20
41.9042245376
 30
0.0
 10
37.3743894896
 20
42.7415789062
 30
0.0
 10
37.034335568
 20
43.1646097927
 30
0.0
  0
SPLINE
  5
27C
100
AcDbEntity
  8
0
100
AcDbSpline
 62
7
  6
BYLAYER
 70
0
 71
3
 72
11
 73
7
 74
0
 42
0.0000001
 43
0.0000001
 44
0.0000000001
 40
0.0
 40
0.0
 40
0.0
 40
0.0
 40
0.2438909694
 40
0.4915600672
 40
0.7434919481
 40
1.0
 40
1.0
 40
1.0
 40
1.0
 10
41.5826606982
 20
27.1576556054
 30
0.0
 10
41.5346402013
 20
27.5681813698
 30
0.0
 10
41.4477911975
 20
28.3967995398
 30
0.0
 10
41.3506683128
 20
29.6532265249
 30
0.0
 10
41.2903621935
 20
30.9333913669
 30
0.0
 10
41.2769931199
 20
31.795115726
 30
0.0
 10
41.2769931186
 20
32.2298228151
 30
0.0
  0
SPLINE
  5
27D
100
AcDbEntity
  8
0
100
AcDbSpline
 62
7
  6
BYLAYER
 70
0
 71
3
 72
10
 73
6
 74
0
 42
0.0000001
 43
0.0000001
 44
0.0000000001
 40
0.0
 40
0.0
 40
0.0
 40
0.0
 40
0.2518572262
 40
0.5024569044
 40
1.0
 40
1.0
 40
1.0
 40
1.0
 10
37.034335568
 20
43.1646097927
 30
0.0
 10
36.6958783454
 20
43.5856514189
 30
0.0
 10
36.0335190079
 20
44.436077921
 30
0.0
 10
34.7669536203
 20
46.167406371
 30
0.0
 10
33.8739410638
 20
47.501714573
 30
0.0
 10
33.2991646581
 20
48.4008927731
 30
0.0
  0
SPLINE
  5
27E
100
AcDbEntity
  8
0
100
AcDbSpline
 62
7
  6
BYLAYER
 70
0
 71
3
 72
10
 73
6
 74
0
 42
0.0000001
 43
0.0000001
 44
0.0000000001
 40
0.0
 40
0.0
 40
0.0
 40
0.0
 40
0.2622043298
 40
0.5170276376
 40
1.0
 40
1.0
 40
1.0
 40
1.0
 10
32.7911565043
 20
48.5916253309
 30
0.0
 10
32.4216959271
 20
48.53563695
 30
0.0
 10
31.6926032437
 20
48.4289084918
 30
0.0
 10
30.2799831317
 20
48.2403240314
 30
0.0
 10
29.2345937374
 20
48.1247418048
 30
0.0
 10
28.5490188779
 20
48.0634989189
 30
0.0
  0
SPLINE
  5
27F
100
AcDbEntity
  8
0
100
AcDbSpline
 62
7
  6
BYLAYER
 70
0
 71
3
 72
11
 73
7
 74
0
 42
0.0000001
 43
0.0000001
 44
0.0000000001
 40
0.0
 40
0.0
 40
0.0
 40
0.0
 40
0.2442393544
 40
0.4926107572
 40
0.7447042041
 40
1.0
 40
1.0
 40
1.0
 40
1.0
 10
38.4485777716
 20
30.5968462007
 30
0.0
 10
38.4485777704
 20
30.1542850127
 30
0.0
 10
38.4344855762
 20
29.2616221996
 30
0.0
 10
38.3736135337
 20
27.9134282877
 30
0.0
 10
38.2761654647
 20
26.5473304314
 30
0.0
 10
38.1903312967
 20
25.6318850047
 30
0.0
 10
38.142910192
 20
25.1717265791
 30
0.0
  0
SPLINE
  5
280
100
AcDbEntity
  8
0
100
AcDbSpline
 62
7
  6
BYLAYER
 70
0
 71
3
 72
10
 73
6
 74
0
 42
0.0000001
 43
0.0000001
 44
0.0000000001
 40
0.0
 40
0.0
 40
0.0
 40
0.0
 40
0.4826174386
 40
0.7375707838
 40
1.0
 40
1.0
 40
1.0
 40
1.0
 10
31.3775047637
 20
22.9279725716
 30
0.0
 10
32.0853597738
 20
22.991205644
 30
0.0
 10
33.1651224038
 20
23.1113303606
 30
0.0
 10
34.6245035825
 20
23.3078168984
 30
0.0
 10
35.3782238035
 20
23.4191110966
 30
0.0
 10
35.7602256711
 20
23.4774945548
 30
0.0
  0
SPLINE
  5
281
100
AcDbEntity
  8
0
100
AcDbSpline
 62
7
  6
BYLAYER
 70
0
 71
3
 72
11
 73
7
 74
0
 42
0.0000001
 43
0.0000001
 44
0.0000000001
 40
0.0
 40
0.0
 40
0.0
 40
0.0
 40
0.2438909401
 40
0.4915600864
 40
0.7434920037
 40
1.0
 40
1.0
 40
1.0
 40
1.0
 10
38.1429101866
 20
35.6690135266
 30
0.0
 10
38.190930682
 20
35.2584878035
 30
0.0
 10
38.2777801831
 20
34.4298696341
 30
0.0
 10
38.3749024065
 20
33.1734424648
 30
0.0
 10
38.4352079676
 20
31.8932775373
 30
0.0
 10
38.4485777716
 20
31.0315532046
 30
0.0
 10
38.4485777716
 20
30.5968462007
 30
0.0
  0
SPLINE
  5
282
100
AcDbEntity
  8
0
100
AcDbSpline
 62
7
  6
BYLAYER
 70
0
 71
3
 72
10
 73
6
 74
0
 42
0.0000001
 43
0.0000001
 44
0.0000000001
 40
0.0
 40
0.0
 40
0.0
 40
0.0
 40
0.2518572263
 40
0.5024569043
 40
1.0
 40
1.0
 40
1.0
 40
1.0
 10
34.2059187514
 20
41.5316322856
 30
0.0
 10
34.5443759614
 20
41.1105906716
 30
0.0
 10
35.2067352818
 20
40.2601642007
 30
0.0
 10
36.4733006115
 20
38.5288357944
 30
0.0
 10
37.3663131432
 20
37.1945276391
 30
0.0
 10
37.9410895303
 20
36.2953494679
 30
0.0
  0
SPLINE
  5
283
100
AcDbEntity
  8
0
100
AcDbSpline
 62
7
  6
BYLAYER
 70
0
 71
3
 72
10
 73
6
 74
0
 42
0.0000001
 43
0.0000001
 44
0.0000000001
 40
0.0
 40
0.0
 40
0.0
 40
0.0
 40
0.5016857922
 40
0.7513585179
 40
1.0
 40
1.0
 40
1.0
 40
1.0
 10
29.8231978192
 20
46.3940543622
 30
0.0
 10
30.5948718912
 20
45.616979877
 30
0.0
 10
31.7282510349
 20
44.4303106553
 30
0.0
 10
33.1712104359
 20
42.7920175844
 30
0.0
 10
33.8658648207
 20
41.9546631868
 30
0.0
 10
34.2059187514
 20
41.5316322856
 30
0.0
  0
SPLINE
  5
284
100
AcDbEntity
  8
0
100
AcDbSpline
 62
7
  6
BYLAYER
 70
0
 71
3
 72
11
 73
7
 74
0
 42
0.0000001
 43
0.0000001
 44
0.0000000001
 40
0.0
 40
0.0
 40
0.0
 40
0.0
 40
0.2666114911
 40
0.5215759585
 40
0.7656426577
 40
1.0
 40
1.0
 40
1.0
 40
1.0
 10
25.7206020379
 20
46.4305214425
 30
0.0
 10
26.0424569632
 20
46.4592734481
 30
0.0
 10
26.6726847217
 20
46.5093089312
 30
0.0
 10
27.5991756779
 20
46.5628999773
 30
0.0
 10
28.4875358353
 20
46.5950502154
 30
0.0
 10
29.0673666688
 20
46.6040390454
 30
0.0
 10
29.3514059972
 20
46.6056963041
 30
0.0
  0
SPLINE
  5
285
100
AcDbEntity
  8
0
100
AcDbSpline
 62
7
  6
BYLAYER
 70
0
 71
3
 72
10
 73
6
 74
0
 42
0.0000001
 43
0.0000001
 44
0.0000000001
 40
0.0
 40
0.0
 40
0.0
 40
0.0
 40
0.2622043309
 40
0.5170276382
 40
1.0
 40
1.0
 40
1.0
 40
1.0
 10
21.4784642811
 20
45.902395019
 30
0.0
 10
21.8479248711
 20
45.9583834019
 30
0.0
 10
22.5770175775
 20
46.0651118652
 30
0.0
 10
23.9896377333
 20
46.2536963273
 30
0.0
 10
25.0350271582
 20
46.3692785566
 30
0.0
 10
25.7206020379
 20
46.4305214425
 30
0.0
  0
SPLINE
  5
286
100
AcDbEntity
  8
0
100
AcDbSpline
 62
7
  6
BYLAYER
 70
0
 71
3
 72
10
 73
6
 74
0
 42
0.0000001
 43
0.0000001
 44
0.0000000001
 40
0.0
 40
0.0
 40
0.0
 40
0.0
 40
0.5065063676
 40
0.7550831462
 40
1.0
 40
1.0
 40
1.0
 40
1.0
 10
18.9733047636
 20
44.3605226095
 30
0.0
 10
18.8846026441
 20
43.5187019444
 30
0.0
 10
18.7728423242
 20
42.261302718
 30
0.0
 10
18.6825850099
 20
40.5923933636
 30
0.0
 10
18.659415875
 20
39.7678602534
 30
0.0
 10
18.6537108508
 20
39.358591309
 30
0.0
  0
SPLINE
  5
287
100
AcDbEntity
  8
0
100
AcDbSpline
 62
7
  6
BYLAYER
 70
0
 71
3
 72
11
 73
7
 74
0
 42
0.0000001
 43
0.0000001
 44
0.0000000001
 40
0.0
 40
0.0
 40
0.0
 40
0.0
 40
0.2339652414
 40
0.4778384833
 40
0.7329085966
 40
1.0
 40
1.0
 40
1.0
 40
1.0
 10
27.6423339611
 20
22.752311532
 30
0.0
 10
27.9340401676
 20
22.7533283044
 30
0.0
 10
28.5298039963
 20
22.7612662268
 30
0.0
 10
29.443121364
 20
22.7928062172
 30
0.0
 10
30.3967521386
 20
22.8470094521
 30
0.0
 10
31.0458159384
 20
22.8983418544
 30
0.0
 10
31.3775047637
 20
22.9279725716
 30
0.0
  0
SPLINE
  5
288
100
AcDbEntity
  8
0
100
AcDbSpline
 62
7
  6
BYLAYER
 70
0
 71
3
 72
20
 73
16
 74
0
 42
0.0000001
 43
0.0000001
 44
0.0000000001
 40
0.0
 40
0.0
 40
0.0
 40
0.0
 40
0.0593674349
 40
0.1174681919
 40
0.1746296069
 40
0.2312464558
 40
0.2877430815
 40
0.3445405802
 40
0.4020449167
 40
0.4606389256
 40
0.5206695863
 40
0.5824400141
 40
0.7120557418
 40
0.8510135947
 40
1.0
 40
1.0
 40
1.0
 40
1.0
 10
22.8921873692
 20
44.7975452516
 30
0.0
 10
22.7446258375
 20
44.7843644875
 30
0.0
 10
22.4536447606
 20
44.7447695757
 30
0.0
 10
22.028978761
 20
44.6439077786
 30
0.0
 10
21.6232191406
 20
44.5025038065
 30
0.0
 10
21.2380754716
 20
44.3211577888
 30
0.0
 10
20.8750655512
 20
44.1005226874
 30
0.0
 10
20.5355769822
 20
43.8415289447
 30
0.0
 10
20.2209633176
 20
43.5451800123
 30
0.0
 10
19.9324160113
 20
43.2127017193
 30
0.0
 10
19.6709799374
 20
42.8453998708
 30
0.0
 10
19.3548229908
 20
42.3026286601
 30
0.0
 10
19.034675744
 20
41.5386464479
 30
0.0
 10
18.7787736535
 20
40.5253757275
 30
0.0
 10
18.6940482615
 20
39.8097442873
 30
0.0
 10
18.6705614879
 20
39.4386973165
 30
0.0
  0
SPLINE
  5
289
100
AcDbEntity
  8
0
100
AcDbSpline
 62
7
  6
BYLAYER
 70
0
 71
3
 72
20
 73
16
 74
0
 42
0.0000001
 43
0.0000001
 44
0.0000000001
 40
0.0
 40
0.0
 40
0.0
 40
0.0
 40
0.1490918685
 40
0.2931732942
 40
0.3629133465
 40
0.4309090764
 40
0.4970270534
 40
0.561162171
 40
0.6232325549
 40
0.6831876678
 40
0.7410059458
 40
0.7967033744
 40
0.8503346113
 40
0.9020095794
 40
1.0
 40
1.0
 40
1.0
 40
1.0
 10
31.3775040822
 20
39.8986561833
 30
0.0
 10
31.061184057
 20
40.2921630695
 30
0.0
 10
30.4087524614
 20
41.0421018394
 30
0.0
 10
29.5266119692
 20
41.9001423737
 30
0.0
 10
28.7983378576
 20
42.5173667163
 30
0.0
 10
28.2509005504
 20
42.9383786627
 30
0.0
 10
27.69863884
 20
43.3206217739
 30
0.0
 10
27.14393671
 20
43.6625242971
 30
0.0
 10
26.5890982047
 20
43.9625671527
 30
0.0
 10
26.0365043637
 20
44.2195287491
 30
0.0
 10
25.4884373001
 20
44.4322185625
 30
0.0
 10
24.9472922473
 20
44.599792203
 30
0.0
 10
24.4151502887
 20
44.7214204689
 30
0.0
 10
23.7333761982
 20
44.8199064134
 30
0.0
 10
23.2227040973
 20
44.8270732923
 30
0.0
 10
22.8921873692
 20
44.7975452516
 30
0.0
  0
SPLINE
  5
28A
100
AcDbEntity
  8
0
100
AcDbSpline
 62
7
  6
BYLAYER
 70
0
 71
3
 72
11
 73
7
 74
0
 42
0.0000001
 43
0.0000001
 44
0.0000000001
 40
0.0
 40
0.0
 40
0.0
 40
0.0
 40
0.2442393976
 40
0.4926107705
 40
0.7447041798
 40
1.0
 40
1.0
 40
1.0
 40
1.0
 10
35.6201624204
 20
28.963869549
 30
0.0
 10
35.6201624204
 20
29.4064308272
 30
0.0
 10
35.6342553369
 20
30.2990936767
 30
0.0
 10
35.695126802
 20
31.6472875925
 30
0.0
 10
35.7925742846
 20
33.0133854597
 30
0.0
 10
35.8784088928
 20
33.9288308468
 30
0.0
 10
35.925830006
 20
34.3889893283
 30
0.0
  0
SPLINE
  5
28B
100
AcDbEntity
  8
0
100
AcDbSpline
 62
7
  6
BYLAYER
 70
0
 71
3
 72
10
 73
6
 74
0
 42
0.0000001
 43
0.0000001
 44
0.0000000001
 40
0.0
 40
0.0
 40
0.0
 40
0.0
 40
0.5016857921
 40
0.7513585178
 40
1.0
 40
1.0
 40
1.0
 40
1.0
 10
35.7602256717
 20
35.036234648
 30
0.0
 10
34.9885516245
 20
35.8133091083
 30
0.0
 10
33.8551725162
 20
36.9999782912
 30
0.0
 10
32.4122131575
 20
38.6382713066
 30
0.0
 10
31.7175587919
 20
39.4756256753
 30
0.0
 10
31.3775048703
 20
39.8986565617
 30
0.0
  0
SPLINE
  5
28C
100
AcDbEntity
  8
0
100
AcDbSpline
 62
7
  6
BYLAYER
 70
0
 71
3
 72
10
 73
6
 74
0
 42
0.0000001
 43
0.0000001
 44
0.0000000001
 40
0.0
 40
0.0
 40
0.0
 40
0.0
 40
0.2622043298
 40
0.5170276376
 40
1.0
 40
1.0
 40
1.0
 40
1.0
 10
27.1343258066
 20
45.3256720999
 30
0.0
 10
26.7648652294
 20
45.269683719
 30
0.0
 10
26.035772546
 20
45.1629552608
 30
0.0
 10
24.623152434
 20
44.9743708004
 30
0.0
 10
23.5777630397
 20
44.8587885739
 30
0.0
 10
22.8921881802
 20
44.7975456879
 30
0.0
  0
SPLINE
  5
28D
100
AcDbEntity
  8
0
100
AcDbSpline
 62
7
  6
BYLAYER
 70
0
 71
3
 72
10
 73
6
 74
0
 42
0.0000001
 43
0.0000001
 44
0.0000000001
 40
0.0
 40
0.0
 40
0.0
 40
0.0
 40
0.2518572262
 40
0.5024569044
 40
1.0
 40
1.0
 40
1.0
 40
1.0
 10
31.3775048703
 20
39.8986565617
 30
0.0
 10
31.0390476477
 20
40.3196981879
 30
0.0
 10
30.3766883101
 20
41.17012469
 30
0.0
 10
29.1101229226
 20
42.9014531401
 30
0.0
 10
28.2171103661
 20
44.235761342
 30
0.0
 10
27.6423339604
 20
45.1349395421
 30
0.0
  0
SPLINE
  5
28E
100
AcDbEntity
  8
0
100
AcDbSpline
 62
7
  6
BYLAYER
 70
0
 71
3
 72
11
 73
7
 74
0
 42
0.0000001
 43
0.0000001
 44
0.0000000001
 40
0.0
 40
0.0
 40
0.0
 40
0.0
 40
0.2666114904
 40
0.5215759592
 40
0.7656426589
 40
1.0
 40
1.0
 40
1.0
 40
1.0
 10
22.8921881802
 20
44.7975456879
 30
0.0
 10
22.5703332442
 20
44.7687936805
 30
0.0
 10
21.9401054618
 20
44.7187581976
 30
0.0
 10
21.0136144709
 20
44.6651671438
 30
0.0
 10
20.1252542806
 20
44.6330169015
 30
0.0
 10
19.5454234268
 20
44.6240280731
 30
0.0
 10
19.2613840896
 20
44.6223708143
 30
0.0
  0
SPLINE
  5
28F
100
AcDbEntity
  8
0
100
AcDbSpline
 62
7
  6
BYLAYER
 70
0
 71
3
 72
11
 73
7
 74
0
 42
0.0000001
 43
0.0000001
 44
0.0000000001
 40
0.0
 40
0.0
 40
0.0
 40
0.0
 40
0.243890989
 40
0.4915600525
 40
0.7434919295
 40
1.0
 40
1.0
 40
1.0
 40
1.0
 10
35.9258302616
 20
23.8917025252
 30
0.0
 10
35.8778097663
 20
24.3022283097
 30
0.0
 10
35.7909610261
 20
25.130846452
 30
0.0
 10
35.6938375088
 20
26.3872733121
 30
0.0
 10
35.6335313552
 20
27.6674380857
 30
0.0
 10
35.6201624223
 20
28.5291624425
 30
0.0
 10
35.6201624204
 20
28.963869549
 30
0.0
  0
SPLINE
  5
290
100
AcDbEntity
  8
0
100
AcDbSpline
 62
7
  6
BYLAYER
 70
0
 71
3
 72
16
 73
12
 74
0
 42
0.0000001
 43
0.0000001
 44
0.0000000001
 40
0.0
 40
0.0
 40
0.0
 40
0.0
 40
0.0545822118
 40
0.1108758943
 40
0.2280880736
 40
0.3507348472
 40
0.4776464418
 40
0.6074891637
 40
0.738823411
 40
0.8701575655
 40
1.0
 40
1.0
 40
1.0
 40
1.0
 10
35.6201624219
 20
28.9638696444
 30
0.0
 10
35.6201624219
 20
29.1810105345
 30
0.0
 10
35.6074536257
 20
29.6221888565
 30
0.0
 10
35.5332494263
 20
30.5268705367
 30
0.0
 10
35.3477322372
 20
31.6923517166
 30
0.0
 10
34.9892343811
 20
33.1085127087
 30
0.0
 10
34.4978575514
 20
34.5373951388
 30
0.0
 10
33.8819498473
 20
35.9547903993
 30
0.0
 10
33.1518882105
 20
37.3368192178
 30
0.0
 10
32.3201018397
 20
38.6599941106
 30
0.0
 10
31.7011341134
 20
39.4960632425
 30
0.0
 10
31.3775040822
 20
39.8986561833
 30
0.0
  0
SPLINE
  5
291
100
AcDbEntity
  8
0
100
AcDbSpline
 62
7
  6
BYLAYER
 70
0
 71
3
 72
23
 73
19
 74
0
 42
0.0000001
 43
0.0000001
 44
0.0000000001
 40
0.0
 40
0.0
 40
0.0
 40
0.0
 40
0.0583031162
 40
0.1152947513
 40
0.1713530522
 40
0.2269333272
 40
0.282516143
 40
0.3385720042
 40
0.3955510578
 40
0.453867633
 40
0.5138885992
 40
0.5759208493
 40
0.6402120587
 40
0.7069417709
 40
0.7762362956
 40
0.8481770739
 40
0.9227900099
 40
1.0
 40
1.0
 40
1.0
 40
1.0
 10
31.3775040597
 20
22.9279721447
 30
0.0
 10
31.535562991
 20
22.9420903189
 30
0.0
 10
31.8470063601
 20
22.9855105137
 30
0.0
 10
32.3004299599
 20
23.0983474916
 30
0.0
 10
32.7318524468
 20
23.2577747349
 30
0.0
 10
33.1391882426
 20
23.463003393
 30
0.0
 10
33.5205671728
 20
23.7131777638
 30
0.0
 10
33.8743168907
 20
24.0070522071
 30
0.0
 10
34.1987775532
 20
24.3433291317
 30
0.0
 10
34.4926316795
 20
24.7203547057
 30
0.0
 10
34.7545876678
 20
25.1364627905
 30
0.0
 10
34.9836758009
 20
25.5897463686
 30
0.0
 10
35.1788994039
 20
26.0782551184
 30
0.0
 10
35.3395992347
 20
26.5998321542
 30
0.0
 10
35.4650732414
 20
27.1522946121
 30
0.0
 10
35.5548955773
 20
27.7333331922
 30
0.0
 10
35.6086332598
 20
28.3403773812
 30
0.0
 10
35.6201624183
 20
28.7537210953
 30
0.0
 10
35.6201624219
 20
28.9638696444
 30
0.0
  0
SPLINE
  5
292
100
AcDbEntity
  8
0
100
AcDbSpline
 62
7
  6
BYLAYER
 70
0
 71
3
 72
11
 73
7
 74
0
 42
0.0000001
 43
0.0000001
 44
0.0000000001
 40
0.0
 40
0.0
 40
0.0
 40
0.0
 40
0.2744646138
 40
0.5318275568
 40
0.7730165367
 40
1.0
 40
1.0
 40
1.0
 40
1.0
 10
27.7315503328
 20
23.7444962957
 30
0.0
 10
28.0413769651
 20
23.5908408718
 30
0.0
 10
28.657568751
 20
23.3233808893
 30
0.0
 10
29.5932879495
 20
23.0437094298
 30
0.0
 10
30.4995432645
 20
22.9024104168
 30
0.0
 10
31.0926309197
 20
22.9025198633
 30
0.0
 10
31.3775040597
 20
22.9279721447
 30
0.0
  0
SPLINE
  5
293
100
AcDbEntity
  8
0
100
AcDbSpline
 62
7
  6
BYLAYER
 70
0
 71
3
 72
12
 73
8
 74
0
 42
0.0000001
 43
0.0000001
 44
0.0000000001
 40
0.0
 40
0.0
 40
0.0
 40
0.0
 40
0.1081682869
 40
0.2183546418
 40
0.4513100563
 40
0.7105879139
 40
1.0
 40
1.0
 40
1.0
 40
1.0
 10
5.8954132975
 20
22.754956386
 30
0.0
 10
5.8790210471
 20
22.7454836882
 30
0.0
 10
5.8475061587
 20
22.723479441
 30
0.0
 10
5.7909335699
 20
22.6679004053
 30
0.0
 10
5.7349186432
 20
22.5765644806
 30
0.0
 10
5.6960151762
 20
22.4442168779
 30
0.0
 10
5.6882907961
 20
22.347843718
 30
0.0
 10
5.6882907961
 20
22.2971885616
 30
0.0
  0
SPLINE
  5
294
100
AcDbEntity
  8
0
100
AcDbSpline
 62
7
  6
BYLAYER
 70
0
 71
3
 72
11
 73
7
 74
0
 42
0.0000001
 43
0.0000001
 44
0.0000000001
 40
0.0
 40
0.0
 40
0.0
 40
0.0
 40
0.2390207478
 40
0.4819161236
 40
0.7344161991
 40
1.0
 40
1.0
 40
1.0
 40
1.0
 10
14.2764951313
 20
24.8176997952
 30
0.0
 10
14.2256213226
 20
24.792529037
 30
0.0
 10
14.1152244391
 20
24.7562820318
 30
0.0
 10
13.9393215676
 20
24.7475898159
 30
0.0
 10
13.7602182864
 20
24.7801105154
 30
0.0
 10
13.6450124241
 20
24.825347032
 30
0.0
 10
13.5882804393
 20
24.8528980576
 30
0.0
  0
SPLINE
  5
295
100
AcDbEntity
  8
0
100
AcDbSpline
 62
7
  6
BYLAYER
 70
0
 71
3
 72
23
 73
19
 74
0
 42
0.0000001
 43
0.0000001
 44
0.0000000001
 40
0.0
 40
0.0
 40
0.0
 40
0.0
 40
0.073641691
 40
0.1482631326
 40
0.2231676847
 40
0.2977290261
 40
0.3712947907
 40
0.4432455038
 40
0.5130099554
 40
0.5800767082
 40
0.6440242442
 40
0.7045419862
 40
0.7614586196
 40
0.8147785517
 40
0.8647141462
 40
0.9117177306
 40
0.9564991961
 40
1.0
 40
1.0
 40
1.0
 40
1.0
 10
20.4551633406
 20
32.5843043751
 30
0.0
 10
20.646356135
 20
32.3525730453
 30
0.0
 10
21.0149775644
 20
31.8723322572
 30
0.0
 10
21.5199775022
 20
31.1140494603
 30
0.0
 10
21.975642141
 20
30.3207589115
 30
0.0
 10
22.3760107801
 20
29.5029718207
 30
0.0
 10
22.7159105722
 20
28.6712292617
 30
0.0
 10
22.9909158681
 20
27.8363652286
 30
0.0
 10
23.1974456867
 20
27.0092081181
 30
0.0
 10
23.3327843166
 20
26.2004504278
 30
0.0
 10
23.3951767009
 20
25.4205213205
 30
0.0
 10
23.3837101523
 20
24.6794046759
 30
0.0
 10
23.2983085659
 20
23.9865451282
 30
0.0
 10
23.1397591355
 20
23.3507488979
 30
0.0
 10
22.9095424897
 20
22.7802164205
 30
0.0
 10
22.609727843
 20
22.2826308823
 30
0.0
 10
22.2437468707
 20
21.8654856459
 30
0.0
 10
21.95638598
 20
21.6438213909
 30
0.0
 10
21.8056995196
 20
21.5500845992
 30
0.0
  0
SPLINE
  5
296
100
AcDbEntity
  8
0
100
AcDbSpline
 62
7
  6
BYLAYER
 70
0
 71
3
 72
11
 73
7
 74
0
 42
0.0000001
 43
0.0000001
 44
0.0000000001
 40
0.0
 40
0.0
 40
0.0
 40
0.0
 40
0.2667076236
 40
0.5195053432
 40
0.7617565518
 40
1.0
 40
1.0
 40
1.0
 40
1.0
 10
12.5569875599
 20
26.6071528162
 30
0.0
 10
12.5601511738
 20
26.6729813349
 30
0.0
 10
12.5764534981
 20
26.8011046609
 30
0.0
 10
12.6367751942
 20
26.9809292741
 30
0.0
 10
12.7338761558
 20
27.136145015
 30
0.0
 10
12.8233570091
 20
27.2171237083
 30
0.0
 10
12.8723491619
 20
27.2497664728
 30
0.0
  0
SPLINE
  5
297
100
AcDbEntity
  8
0
100
AcDbSpline
 62
7
  6
BYLAYER
 70
0
 71
3
 72
21
 73
17
 74
0
 42
0.0000001
 43
0.0000001
 44
0.0000000001
 40
0.0
 40
0.0
 40
0.0
 40
0.0
 40
0.0623552433
 40
0.1287857043
 40
0.1984252469
 40
0.2704147081
 40
0.4174503684
 40
0.5616777103
 40
0.6303050436
 40
0.6954222619
 40
0.7563958742
 40
0.8128577566
 40
0.8647819631
 40
0.9125777905
 40
0.9571728911
 40
1.0
 40
1.0
 40
1.0
 40
1.0
 10
5.6882907961
 20
22.2971885616
 30
0.0
 10
5.6882907961
 20
22.2557395338
 30
0.0
 10
5.6939560347
 20
22.1700793936
 30
0.0
 10
5.7170171567
 20
22.0399927651
 30
0.0
 10
5.7546516024
 20
21.9066797878
 30
0.0
 10
5.8234753726
 20
21.727333463
 30
0.0
 10
5.9389921091
 20
21.5139220657
 30
0.0
 10
6.0870408209
 20
21.3243118868
 30
0.0
 10
6.2203180187
 20
21.1959520218
 30
0.0
 10
6.3224285311
 20
21.1159928768
 30
0.0
 10
6.4262075942
 20
21.0525172661
 30
0.0
 10
6.5295272637
 20
21.0068420485
 30
0.0
 10
6.6303477235
 20
20.9800649408
 30
0.0
 10
6.7266803964
 20
20.9729630726
 30
0.0
 10
6.8163888259
 20
20.9861123486
 30
0.0
 10
6.8707391732
 20
21.0086953954
 30
0.0
 10
6.8953877449
 20
21.0229392282
 30
0.0
  0
SPLINE
  5
298
100
AcDbEntity
  8
0
100
AcDbSpline
 62
7
  6
BYLAYER
 70
0
 71
3
 72
16
 73
12
 74
0
 42
0.0000001
 43
0.0000001
 44
0.0000000001
 40
0.0
 40
0.0
 40
0.0
 40
0.0
 40
0.1510401505
 40
0.2962112875
 40
0.4339796485
 40
0.5633424034
 40
0.6838590556
 40
0.7958547501
 40
0.9005029699
 40
0.9507582625
 40
1.0
 40
1.0
 40
1.0
 40
1.0
 10
10.6979825694
 20
22.3493047232
 30
0.0
 10
10.8830271544
 20
22.1257422067
 30
0.0
 10
11.2653088829
 20
21.7028453614
 30
0.0
 10
11.8813511841
 20
21.1389504036
 30
0.0
 10
12.5194400023
 20
20.6667326139
 30
0.0
 10
13.1676497531
 20
20.2959167457
 30
0.0
 10
13.8147673701
 20
20.034708434
 30
0.0
 10
14.4494303257
 20
19.8901357875
 30
0.0
 10
14.9659741529
 20
19.8722717915
 30
0.0
 10
15.3554978115
 20
19.9241131435
 30
0.0
 10
15.5413485899
 20
19.9711853303
 30
0.0
 10
15.6314728277
 20
19.9999834164
 30
0.0
  0
SPLINE
  5
299
100
AcDbEntity
  8
0
100
AcDbSpline
 62
7
  6
BYLAYER
 70
0
 71
3
 72
14
 73
10
 74
0
 42
0.0000001
 43
0.0000001
 44
0.0000000001
 40
0.0
 40
0.0
 40
0.0
 40
0.0
 40
0.1102083531
 40
0.2232022171
 40
0.3399113197
 40
0.4611378373
 40
0.7190424412
 40
0.8566388356
 40
1.0
 40
1.0
 40
1.0
 40
1.0
 10
9.3776280451
 20
30.8320249807
 30
0.0
 10
9.2959652066
 20
30.7577720379
 30
0.0
 10
9.141146969
 20
30.595360341
 30
0.0
 10
8.9407417899
 20
30.3190738025
 30
0.0
 10
8.7710868383
 20
30.0102761149
 30
0.0
 10
8.5829709366
 20
29.5497598412
 30
0.0
 10
8.4649375053
 20
29.042018206
 30
0.0
 10
8.4098109698
 20
28.5048919067
 30
0.0
 10
8.4031158616
 20
28.2232276419
 30
0.0
 10
8.4047884832
 20
28.0796613401
 30
0.0
  0
SPLINE
  5
29A
100
AcDbEntity
  8
0
100
AcDbSpline
 62
7
  6
BYLAYER
 70
0
 71
3
 72
11
 73
7
 74
0
 42
0.0000001
 43
0.0000001
 44
0.0000000001
 40
0.0
 40
0.0
 40
0.0
 40
0.0
 40
0.2325045677
 40
0.4784580584
 40
0.7353429696
 40
1.0
 40
1.0
 40
1.0
 40
1.0
 10
8.4058073205
 20
28.0185207637
 30
0.0
 10
8.4115883541
 20
27.7515131944
 30
0.0
 10
8.4589541082
 20
27.202455363
 30
0.0
 10
8.6232883195
 20
26.3725006643
 30
0.0
 10
8.8791197346
 20
25.5274917166
 30
0.0
 10
9.1046930932
 20
24.971501962
 30
0.0
 10
9.2310634065
 20
24.6950094294
 30
0.0
  0
SPLINE
  5
29B
100
AcDbEntity
  8
0
100
AcDbSpline
 62
7
  6
BYLAYER
 70
0
 71
3
 72
13
 73
9
 74
0
 42
0.0000001
 43
0.0000001
 44
0.0000000001
 40
0.0
 40
0.0
 40
0.0
 40
0.0
 40
0.26942434
 40
0.5227800325
 40
0.6448243698
 40
0.7645474187
 40
0.8826779493
 40
1.0
 40
1.0
 40
1.0
 40
1.0
 10
22.522015735
 20
21.9425273048
 30
0.0
 10
22.7520700319
 20
21.8958520933
 30
0.0
 10
23.2056776928
 20
21.8362883451
 30
0.0
 10
23.7702593166
 20
21.8557801586
 30
0.0
 10
24.1956478411
 20
21.930866603
 30
0.0
 10
24.4982813077
 20
22.0149240002
 30
0.0
 10
24.7871720515
 20
22.1272250172
 30
0.0
 10
24.9702277753
 20
22.2207514506
 30
0.0
 10
25.0587555767
 20
22.2718552702
 30
0.0
  0
SPLINE
  5
29C
100
AcDbEntity
  8
0
100
AcDbSpline
 62
7
  6
BYLAYER
 70
0
 71
3
 72
15
 73
11
 74
0
 42
0.0000001
 43
0.0000001
 44
0.0000000001
 40
0.0
 40
0.0
 40
0.0
 40
0.0
 40
0.1138214733
 40
0.2288266765
 40
0.346218905
 40
0.4670566133
 40
0.5922209128
 40
0.7224468921
 40
0.858262877
 40
1.0
 40
1.0
 40
1.0
 40
1.0
 10
19.1847729637
 20
20.035218929
 30
0.0
 10
19.0706889904
 20
19.9693529095
 30
0.0
 10
18.8315916438
 20
19.853078104
 30
0.0
 10
18.4492233809
 20
19.729304052
 30
0.0
 10
18.0457177565
 20
19.6565911112
 30
0.0
 10
17.6246664848
 20
19.634734601
 30
0.0
 10
17.1892577903
 20
19.6634005808
 30
0.0
 10
16.7424809445
 20
19.7415975914
 30
0.0
 10
16.2871766372
 20
19.868321764
 30
0.0
 10
15.9861915152
 20
19.9818502512
 30
0.0
 10
15.8351392205
 20
20.0458244538
 30
0.0
  0
SPLINE
  5
29D
100
AcDbEntity
  8
0
100
AcDbSpline
 62
7
  6
BYLAYER
 70
0
 71
3
 72
21
 73
17
 74
0
 42
0.0000001
 43
0.0000001
 44
0.0000000001
 40
0.0
 40
0.0
 40
0.0
 40
0.0
 40
0.0474077955
 40
0.0955351203
 40
0.1449194902
 40
0.1960261267
 40
0.2492380051
 40
0.3048411346
 40
0.3630351529
 40
0.4239282151
 40
0.4875572242
 40
0.5538862372
 40
0.622824447
 40
0.6942185489
 40
0.8435452951
 40
1.0
 40
1.0
 40
1.0
 40
1.0
 10
13.8066715722
 20
35.403714221
 30
0.0
 10
13.9144907094
 20
35.4613422048
 30
0.0
 10
14.1400792221
 20
35.5625906858
 30
0.0
 10
14.4995246974
 20
35.6686123662
 30
0.0
 10
14.8790673312
 20
35.7287536513
 30
0.0
 10
15.2760836945
 20
35.7428887254
 30
0.0
 10
15.6880533591
 20
35.7109725894
 30
0.0
 10
16.1124148068
 20
35.6334895417
 30
0.0
 10
16.5465363692
 20
35.5109091241
 30
0.0
 10
16.9878075367
 20
35.3441967544
 30
0.0
 10
17.4334920036
 20
35.134323514
 30
0.0
 10
17.8809153148
 20
34.8827178867
 30
0.0
 10
18.3272748366
 20
34.5908648984
 30
0.0
 10
18.9263014281
 20
34.1439583286
 30
0.0
 10
19.6533281688
 20
33.494689172
 30
0.0
 10
20.1851606584
 20
32.9105341103
 30
0.0
 10
20.4424163718
 20
32.5997293673
 30
0.0
  0
SPLINE
  5
29E
100
AcDbEntity
  8
0
100
AcDbSpline
 62
7
  6
BYLAYER
 70
0
 71
3
 72
9
 73
5
 74
0
 42
0.0000001
 43
0.0000001
 44
0.0000000001
 40
0.0
 40
0.0
 40
0.0
 40
0.0
 40
0.5256447756
 40
1.0
 40
1.0
 40
1.0
 40
1.0
 10
16.0755155703
 20
26.0980353196
 30
0.0
 10
16.0755155703
 20
26.0184648834
 30
0.0
 10
16.0643231383
 20
25.8667347133
 30
0.0
 10
16.0245667255
 20
25.7192836764
 30
0.0
 10
15.9975255486
 20
25.6527635144
 30
0.0
  0
SPLINE
  5
29F
100
AcDbEntity
  8
0
100
AcDbSpline
 62
7
  6
BYLAYER
 70
0
 71
3
 72
13
 73
9
 74
0
 42
0.0000001
 43
0.0000001
 44
0.0000000001
 40
0.0
 40
0.0
 40
0.0
 40
0.0
 40
0.1085515828
 40
0.2185595715
 40
0.3321221942
 40
0.4510410264
 40
0.7095796466
 40
1.0
 40
1.0
 40
1.0
 40
1.0
 10
14.2764923885
 20
24.8177047908
 30
0.0
 10
14.3014077215
 20
24.830025647
 30
0.0
 10
14.3494583932
 20
24.8594008086
 30
0.0
 10
14.4132968062
 20
24.9162026142
 30
0.0
 10
14.468339672
 20
24.9849834556
 30
0.0
 10
14.5308305248
 20
25.0945942263
 30
0.0
 10
14.582363737
 20
25.2597413125
 30
0.0
 10
14.594030473
 20
25.4007749553
 30
0.0
 10
14.594030473
 20
25.4751388051
 30
0.0
  0
SPLINE
  5
2A0
100
AcDbEntity
  8
0
100
AcDbSpline
 62
7
  6
BYLAYER
 70
0
 71
3
 72
9
 73
5
 74
0
 42
0.0000001
 43
0.0000001
 44
0.0000000001
 40
0.0
 40
0.0
 40
0.0
 40
0.0
 40
0.2636397656
 40
1.0
 40
1.0
 40
1.0
 40
1.0
 10
13.7300716523
 20
27.8243287889
 30
0.0
 10
13.7369147158
 20
27.8485778629
 30
0.0
 10
13.766270672
 20
27.9395015679
 30
0.0
 10
13.8102596493
 20
28.0261634597
 30
0.0
 10
13.851557425
 20
28.0831460694
 30
0.0
  0
SPLINE
  5
2A1
100
AcDbEntity
  8
0
100
AcDbSpline
 62
7
  6
BYLAYER
 70
0
 71
3
 72
23
 73
19
 74
0
 42
0.0000001
 43
0.0000001
 44
0.0000000001
 40
0.0
 40
0.0
 40
0.0
 40
0.0
 40
0.045132361
 40
0.0890130158
 40
0.1339325891
 40
0.1819198769
 40
0.234370128
 40
0.2919455218
 40
0.3546810881
 40
0.4221168737
 40
0.4934309276
 40
0.567553339
 40
0.6432448071
 40
0.7191837163
 40
0.7940297836
 40
0.8664959816
 40
0.9354935267
 40
1.0
 40
1.0
 40
1.0
 40
1.0
 10
13.851557425
 20
28.0831460694
 30
0.0
 10
13.8835215824
 20
28.1272501666
 30
0.0
 10
13.9577546216
 20
28.2070031962
 30
0.0
 10
14.0984954408
 20
28.290809622
 30
0.0
 10
14.26036373
 20
28.3325648962
 30
0.0
 10
14.4374264795
 20
28.3316859286
 30
0.0
 10
14.624668807
 20
28.28957826
 30
0.0
 10
14.817599166
 20
28.2081503574
 30
0.0
 10
15.0116202595
 20
28.0897591203
 30
0.0
 10
15.2019658063
 20
27.9375268297
 30
0.0
 10
15.3838562685
 20
27.7554131024
 30
0.0
 10
15.5526065671
 20
27.5481103785
 30
0.0
 10
15.703832198
 20
27.3209920869
 30
0.0
 10
15.8336134532
 20
27.0799849063
 30
0.0
 10
15.938567583
 20
26.8313825548
 30
0.0
 10
16.0159813297
 20
26.5815712252
 30
0.0
 10
16.0637463764
 20
26.3371281439
 30
0.0
 10
16.0755155703
 20
26.1758864897
 30
0.0
 10
16.0755155703
 20
26.0980353196
 30
0.0
  0
SPLINE
  5
2A2
100
AcDbEntity
  8
0
100
AcDbSpline
 62
7
  6
BYLAYER
 70
0
 71
3
 72
22
 73
18
 74
0
 42
0.0000001
 43
0.0000001
 44
0.0000000001
 40
0.0
 40
0.0
 40
0.0
 40
0.0
 40
0.1600130827
 40
0.237071635
 40
0.3116883569
 40
0.3836131368
 40
0.4526335321
 40
0.5185951621
 40
0.5814380848
 40
0.641190084
 40
0.6979925924
 40
0.7521016907
 40
0.8039096397
 40
0.8539333795
 40
0.9028078702
 40
0.9512475726
 40
1.0
 40
1.0
 40
1.0
 40
1.0
 10
15.0342787818
 20
28.9256777374
 30
0.0
 10
14.8091159471
 20
29.1977093126
 30
0.0
 10
14.4539403304
 20
29.5838479785
 30
0.0
 10
13.9451073656
 20
30.04716384
 30
0.0
 10
13.5600696508
 20
30.3563551253
 30
0.0
 10
13.1698557352
 20
30.6291065963
 30
0.0
 10
12.777456862
 20
30.8634429628
 30
0.0
 10
12.3857931036
 20
31.0574101814
 30
0.0
 10
11.9978936419
 20
31.2096005042
 30
0.0
 10
11.6166202102
 20
31.3186649751
 30
0.0
 10
11.2448787731
 20
31.3837941939
 30
0.0
 10
10.8854613831
 20
31.4041782611
 30
0.0
 10
10.5411698971
 20
31.3795967425
 30
0.0
 10
10.2148077014
 20
31.3098592614
 30
0.0
 10
9.9091033092
 20
31.1954727352
 30
0.0
 10
9.6268880782
 20
31.0372063686
 30
0.0
 10
9.457228995
 20
30.904408113
 30
0.0
 10
9.3776288048
 20
30.8320238608
 30
0.0
  0
SPLINE
  5
2A3
100
AcDbEntity
  8
0
100
AcDbSpline
 62
7
  6
BYLAYER
 70
0
 71
3
 72
20
 73
16
 74
0
 42
0.0000001
 43
0.0000001
 44
0.0000000001
 40
0.0
 40
0.0
 40
0.0
 40
0.0
 40
0.0474990349
 40
0.0956024747
 40
0.1448758189
 40
0.1958197268
 40
0.2488433421
 40
0.3042634535
 40
0.4229528164
 40
0.4865121558
 40
0.5528303971
 40
0.6218153507
 40
0.6933125802
 40
0.8430148066
 40
1.0
 40
1.0
 40
1.0
 40
1.0
 10
11.6683965827
 20
32.7274441849
 30
0.0
 10
11.7588965159
 20
32.7796962609
 30
0.0
 10
11.9486620033
 20
32.8722581
 30
0.0
 10
12.2525612956
 20
32.9714215347
 30
0.0
 10
12.5743457249
 20
33.0309179759
 30
0.0
 10
12.9117427254
 20
33.0502930273
 30
0.0
 10
13.2625461285
 20
33.0297357924
 30
0.0
 10
13.7562047082
 20
32.9474146468
 30
0.0
 10
14.2567355387
 20
32.7850674032
 30
0.0
 10
14.7536975421
 20
32.5561737317
 30
0.0
 10
15.1368394648
 20
32.3440657006
 30
0.0
 10
15.5192123678
 20
32.096918824
 30
0.0
 10
16.0327381478
 20
31.7169883847
 30
0.0
 10
16.6559955059
 20
31.1629912726
 30
0.0
 10
17.1114421215
 20
30.6634293232
 30
0.0
 10
17.3316637143
 20
30.3973675333
 30
0.0
  0
SPLINE
  5
2A4
100
AcDbEntity
  8
0
100
AcDbSpline
 62
7
  6
BYLAYER
 70
0
 71
3
 72
15
 73
11
 74
0
 42
0.0000001
 43
0.0000001
 44
0.0000000001
 40
0.0
 40
0.0
 40
0.0
 40
0.0
 40
0.0999803113
 40
0.2069609335
 40
0.3215731771
 40
0.4439371697
 40
0.5737463757
 40
0.7103312632
 40
0.8528165228
 40
1.0
 40
1.0
 40
1.0
 40
1.0
 10
15.2812840927
 20
35.7312631779
 30
0.0
 10
15.4887945828
 20
35.7316153564
 30
0.0
 10
15.9189699231
 20
35.6937575059
 30
0.0
 10
16.5692540967
 20
35.534512398
 30
0.0
 10
17.2359616564
 20
35.2741584721
 30
0.0
 10
17.909764364
 20
34.9167208305
 30
0.0
 10
18.5814540081
 20
34.4674057814
 30
0.0
 10
19.2417835759
 20
33.9326409011
 30
0.0
 10
19.8813103034
 20
33.3200294922
 30
0.0
 10
20.2825779724
 20
32.8714352338
 30
0.0
 10
20.4778934257
 20
32.6365502251
 30
0.0
  0
SPLINE
  5
2A5
100
AcDbEntity
  8
0
100
AcDbSpline
 62
7
  6
BYLAYER
 70
0
 71
3
 72
19
 73
15
 74
0
 42
0.0000001
 43
0.0000001
 44
0.0000000001
 40
0.0
 40
0.0
 40
0.0
 40
0.0
 40
0.156994718
 40
0.3067083356
 40
0.4471292325
 40
0.513452583
 40
0.5770163966
 40
0.6957143145
 40
0.7511387778
 40
0.8041660604
 40
0.8551138465
 40
0.9043906821
 40
0.9524976397
 40
1.0
 40
1.0
 40
1.0
 40
1.0
 10
16.9781117957
 20
30.1932454564
 30
0.0
 10
16.7578921676
 20
30.4593048726
 30
0.0
 10
16.3023886911
 20
30.9589286706
 30
0.0
 10
15.5658042122
 20
31.6136111893
 30
0.0
 10
14.9208528966
 20
32.0637550623
 30
0.0
 10
14.4001614938
 20
32.3520547827
 30
0.0
 10
13.9031820406
 20
32.5809457938
 30
0.0
 10
13.4026555958
 20
32.7432919348
 30
0.0
 10
12.9089958869
 20
32.8256239066
 30
0.0
 10
12.5581904267
 20
32.8461742638
 30
0.0
 10
12.2207925567
 20
32.8268045438
 30
0.0
 10
11.8990065853
 20
32.7673061543
 30
0.0
 10
11.5951093071
 20
32.6681374905
 30
0.0
 10
11.4053387412
 20
32.5755844031
 30
0.0
 10
11.3148403406
 20
32.5233295858
 30
0.0
  0
SPLINE
  5
2A6
100
AcDbEntity
  8
0
100
AcDbSpline
 62
7
  6
BYLAYER
 70
0
 71
3
 72
21
 73
17
 74
0
 42
0.0000001
 43
0.0000001
 44
0.0000000001
 40
0.0
 40
0.0
 40
0.0
 40
0.0
 40
0.0474937594
 40
0.0955911404
 40
0.1448595599
 40
0.1957967317
 40
0.2488152288
 40
0.3042279469
 40
0.3622551225
 40
0.4230210505
 40
0.4865734884
 40
0.5528829295
 40
0.6218605143
 40
0.6933512284
 40
0.8430310187
 40
1.0
 40
1.0
 40
1.0
 40
1.0
 10
15.8516979366
 20
36.5860508448
 30
0.0
 10
15.9589629146
 20
36.6479709421
 30
0.0
 10
16.1838794444
 20
36.7576474623
 30
0.0
 10
16.5440420847
 20
36.8752318838
 30
0.0
 10
16.9254259185
 20
36.9456838907
 30
0.0
 10
17.3253081541
 20
36.9687090758
 30
0.0
 10
17.7410508162
 20
36.9442876191
 30
0.0
 10
18.1699763539
 20
36.8728225426
 30
0.0
 10
18.6093501812
 20
36.7548175212
 30
0.0
 10
19.0564422292
 20
36.5912134134
 30
0.0
 10
19.5084091232
 20
36.3830173131
 30
0.0
 10
19.9624518294
 20
36.1316788029
 30
0.0
 10
20.4156472228
 20
35.8387382373
 30
0.0
 10
21.0242602993
 20
35.3884580588
 30
0.0
 10
21.762941041
 20
34.7318708628
 30
0.0
 10
22.3027206313
 20
34.1397990116
 30
0.0
 10
22.5637278834
 20
33.8244618289
 30
0.0
  0
SPLINE
  5
2A7
100
AcDbEntity
  8
0
100
AcDbSpline
 62
7
  6
BYLAYER
 70
0
 71
3
 72
21
 73
17
 74
0
 42
0.0000001
 43
0.0000001
 44
0.0000000001
 40
0.0
 40
0.0
 40
0.0
 40
0.0
 40
0.0428240713
 40
0.0874162928
 40
0.135211056
 40
0.187133389
 40
0.2435944536
 40
0.3045655159
 40
0.3696808179
 40
0.4383052884
 40
0.5825334228
 40
0.7295757974
 40
0.8015693121
 40
0.8712131193
 40
0.9376453259
 40
1.0
 40
1.0
 40
1.0
 40
1.0
 10
12.9664501018
 20
26.8374005694
 30
0.0
 10
12.9910968717
 20
26.8516435088
 30
0.0
 10
13.0454451163
 20
26.8742201419
 30
0.0
 10
13.1351473348
 20
26.8873785218
 30
0.0
 10
13.2314760931
 20
26.8802713144
 30
0.0
 10
13.3322963601
 20
26.8535046713
 30
0.0
 10
13.4356117526
 20
26.8078273375
 30
0.0
 10
13.5393917044
 20
26.7443603708
 30
0.0
 10
13.6414976035
 20
26.6644028209
 30
0.0
 10
13.7747787318
 20
26.536051062
 30
0.0
 10
13.9228306456
 20
26.3464387889
 30
0.0
 10
14.0383561348
 20
26.1330233083
 30
0.0
 10
14.1071836645
 20
25.9536675652
 30
0.0
 10
14.144821452
 20
25.8203485061
 30
0.0
 10
14.1678829165
 20
25.6902581768
 30
0.0
 10
14.1735486185
 20
25.6045972586
 30
0.0
 10
14.1735486185
 20
25.5631485913
 30
0.0
  0
SPLINE
  5
2A8
100
AcDbEntity
  8
0
100
AcDbSpline
 62
7
  6
BYLAYER
 70
0
 71
3
 72
23
 73
19
 74
0
 42
0.0000001
 43
0.0000001
 44
0.0000000001
 40
0.0
 40
0.0
 40
0.0
 40
0.0
 40
0.0738313691
 40
0.1486740625
 40
0.2237988612
 40
0.2985653745
 40
0.3723078269
 40
0.4443884541
 40
0.5142232693
 40
0.5812936058
 40
0.6451721625
 40
0.7055488265
 40
0.7622649153
 40
0.81534392
 40
0.865028792
 40
0.9118189631
 40
0.9564775803
 40
1.0
 40
1.0
 40
1.0
 40
1.0
 10
17.3316637143
 20
30.3973675333
 30
0.0
 10
17.4951305972
 20
30.1998742228
 30
0.0
 10
17.8102133356
 20
29.7903106871
 30
0.0
 10
18.2414876223
 20
29.1431912849
 30
0.0
 10
18.6301512072
 20
28.4658300076
 30
0.0
 10
18.9709755867
 20
27.7674340346
 30
0.0
 10
19.2595053845
 20
27.0572272941
 30
0.0
 10
19.4918653166
 20
26.3446580238
 30
0.0
 10
19.6649349552
 20
25.6391833043
 30
0.0
 10
19.7764480551
 20
24.9501448522
 30
0.0
 10
19.8248828031
 20
24.2866201427
 30
0.0
 10
19.8094601481
 20
23.6572999522
 30
0.0
 10
19.7302626071
 20
23.0703818767
 30
0.0
 10
19.5879881339
 20
22.533494129
 30
0.0
 10
19.3839292448
 20
22.0537748686
 30
0.0
 10
19.120073017
 20
21.6378636621
 30
0.0
 10
18.7995074035
 20
21.2922663144
 30
0.0
 10
18.5492192154
 20
21.1116907907
 30
0.0
 10
18.418344221
 20
21.0361221016
 30
0.0
  0
SPLINE
  5
2A9
100
AcDbEntity
  8
0
100
AcDbSpline
 62
7
  6
BYLAYER
 70
0
 71
3
 72
12
 73
8
 74
0
 42
0.0000001
 43
0.0000001
 44
0.0000000001
 40
0.0
 40
0.0
 40
0.0
 40
0.0
 40
0.1081682869
 40
0.2183546418
 40
0.4513100563
 40
0.7105879139
 40
1.0
 40
1.0
 40
1.0
 40
1.0
 10
6.8953877449
 20
21.0229392282
 30
0.0
 10
6.9117799953
 20
21.032411926
 30
0.0
 10
6.9432948837
 20
21.0544161732
 30
0.0
 10
6.9998674724
 20
21.109995209
 30
0.0
 10
7.0558823992
 20
21.2013311336
 30
0.0
 10
7.0947858662
 20
21.3336787363
 30
0.0
 10
7.1025102463
 20
21.4300518962
 30
0.0
 10
7.1025102463
 20
21.4807070526
 30
0.0
  0
SPLINE
  5
2AA
100
AcDbEntity
  8
0
100
AcDbSpline
 62
7
  6
BYLAYER
 70
0
 71
3
 72
22
 73
18
 74
0
 42
0.0000001
 43
0.0000001
 44
0.0000000001
 40
0.0
 40
0.0
 40
0.0
 40
0.0
 40
0.1569598371
 40
0.2328791879
 40
0.3066891627
 40
0.378175712
 40
0.4471492785
 40
0.5134548569
 40
0.5770035925
 40
0.6377659806
 40
0.6957897758
 40
0.7511992659
 40
0.8042146744
 40
0.8551488789
 40
0.9044144283
 40
0.9525090074
 40
1.0
 40
1.0
 40
1.0
 40
1.0
 10
23.6098381815
 20
34.7535332222
 30
0.0
 10
23.3162050229
 20
35.1082875527
 30
0.0
 10
22.8548450281
 20
35.6143794334
 30
0.0
 10
22.1972766634
 20
36.2290718818
 30
0.0
 10
21.6989409486
 20
36.6454833803
 30
0.0
 10
21.1932396079
 20
37.01959369
 30
0.0
 10
20.6834046012
 20
37.3491524423
 30
0.0
 10
20.1726040777
 20
37.6319081106
 30
0.0
 10
19.6641419454
 20
37.8661287626
 30
0.0
 10
19.1611632352
 20
38.050183374
 30
0.0
 10
18.6668677186
 20
38.1829390256
 30
0.0
 10
18.1843264788
 20
38.263337236
 30
0.0
 10
17.7166159865
 20
38.290811375
 30
0.0
 10
17.2667484708
 20
38.2649080417
 30
0.0
 10
16.8376916579
 20
38.1856495339
 30
0.0
 10
16.4325086875
 20
38.0533670598
 30
0.0
 10
16.1794775916
 20
37.9299809745
 30
0.0
 10
16.0588044913
 20
37.860320865
 30
0.0
  0
SPLINE
  5
2AB
100
AcDbEntity
  8
0
100
AcDbSpline
 62
7
  6
BYLAYER
 70
0
 71
3
 72
11
 73
7
 74
0
 42
0.0000001
 43
0.0000001
 44
0.0000000001
 40
0.0
 40
0.0
 40
0.0
 40
0.0
 40
0.266528855
 40
0.5191197222
 40
0.7617202611
 40
1.0
 40
1.0
 40
1.0
 40
1.0
 10
15.7314961101
 20
25.7095532289
 30
0.0
 10
15.7176339569
 20
25.6754529129
 30
0.0
 10
15.6857371173
 20
25.6108582825
 30
0.0
 10
15.6237886751
 20
25.5251622579
 30
0.0
 10
15.5497732941
 20
25.4551080448
 30
0.0
 10
15.4930313482
 20
25.4196036645
 30
0.0
 10
15.4635360499
 20
25.4050087483
 30
0.0
  0
SPLINE
  5
2AC
100
AcDbEntity
  8
0
100
AcDbSpline
 62
7
  6
BYLAYER
 70
0
 71
3
 72
9
 73
5
 74
0
 42
0.0000001
 43
0.0000001
 44
0.0000000001
 40
0.0
 40
0.0
 40
0.0
 40
0.0
 40
0.5256450325
 40
1.0
 40
1.0
 40
1.0
 40
1.0
 10
15.8002680627
 20
26.1021959134
 30
0.0
 10
15.8002680627
 20
26.0320303033
 30
0.0
 10
15.7903989044
 20
25.8982338897
 30
0.0
 10
15.7553411311
 20
25.7682109812
 30
0.0
 10
15.7314961101
 20
25.7095532289
 30
0.0
  0
SPLINE
  5
2AD
100
AcDbEntity
  8
0
100
AcDbSpline
 62
7
  6
BYLAYER
 70
0
 71
3
 72
9
 73
5
 74
0
 42
0.0000001
 43
0.0000001
 44
0.0000000001
 40
0.0
 40
0.0
 40
0.0
 40
0.0
 40
0.483163562
 40
1.0
 40
1.0
 40
1.0
 40
1.0
 10
14.594030473
 20
25.4751388051
 30
0.0
 10
14.594030473
 20
25.5410855337
 30
0.0
 10
14.5839124665
 20
25.6776667804
 30
0.0
 10
14.5572248945
 20
25.81184987
 30
0.0
 10
14.5398221138
 20
25.880212277
 30
0.0
  0
SPLINE
  5
2AE
100
AcDbEntity
  8
0
100
AcDbSpline
 62
7
  6
BYLAYER
 70
0
 71
3
 72
20
 73
16
 74
0
 42
0.0000001
 43
0.0000001
 44
0.0000000001
 40
0.0
 40
0.0
 40
0.0
 40
0.0
 40
0.1438731028
 40
0.2926653073
 40
0.4398878954
 40
0.5109730453
 40
0.5793855316
 40
0.6445253567
 40
0.7059447209
 40
0.7633608743
 40
0.8167432183
 40
0.8663318392
 40
0.9127234188
 40
0.9568601246
 40
1.0
 40
1.0
 40
1.0
 40
1.0
 10
14.5398221138
 20
25.880212277
 30
0.0
 10
14.5111556896
 20
25.9928210485
 30
0.0
 10
14.4328288288
 20
26.2171150976
 30
0.0
 10
14.2664258036
 20
26.5322976883
 30
0.0
 10
14.0905186271
 20
26.7725574664
 30
0.0
 10
13.9322782877
 20
26.9419306758
 30
0.0
 10
13.809507007
 20
27.0529124861
 30
0.0
 10
13.6832364987
 20
27.1474094006
 30
0.0
 10
13.5555497291
 20
27.2239785088
 30
0.0
 10
13.4283972141
 20
27.2812424128
 30
0.0
 10
13.3038090432
 20
27.3183288578
 30
0.0
 10
13.1836755482
 20
27.3343505977
 30
0.0
 10
13.0699227034
 20
27.3289171518
 30
0.0
 10
12.9646455863
 20
27.3016534754
 30
0.0
 10
12.9013418177
 20
27.269090113
 30
0.0
 10
12.8723502317
 20
27.2497647087
 30
0.0
  0
SPLINE
  5
2AF
100
AcDbEntity
  8
0
100
AcDbSpline
 62
7
  6
BYLAYER
 70
0
 71
3
 72
22
 73
18
 74
0
 42
0.0000001
 43
0.0000001
 44
0.0000000001
 40
0.0
 40
0.0
 40
0.0
 40
0.0
 40
0.0750135811
 40
0.1525197062
 40
0.3090973958
 40
0.385663325
 40
0.4592811099
 40
0.5288494209
 40
0.5935392674
 40
0.6528849327
 40
0.7069403026
 40
0.7564219069
 40
0.8027924285
 40
0.8481760055
 40
0.894926799
 40
0.9450708987
 40
1.0
 40
1.0
 40
1.0
 40
1.0
 10
14.2722798795
 20
25.8267950025
 30
0.0
 10
14.256873365
 20
25.887315584
 30
0.0
 10
14.2187454801
 20
26.0087308553
 30
0.0
 10
14.1177882718
 20
26.2457216264
 30
0.0
 10
13.9830636579
 20
26.4686662319
 30
0.0
 10
13.8209986865
 20
26.6664456144
 30
0.0
 10
13.6909759657
 20
26.7956672768
 30
0.0
 10
13.5550455168
 20
26.9034281798
 30
0.0
 10
13.4166354735
 20
26.987004381
 30
0.0
 10
13.2791083142
 20
27.0441371629
 30
0.0
 10
13.1457478429
 20
27.0731484989
 30
0.0
 10
13.0197672685
 20
27.0727491636
 30
0.0
 10
12.904757603
 20
27.0419316838
 30
0.0
 10
12.8049440026
 20
26.9810696744
 30
0.0
 10
12.7240691801
 20
26.8925575245
 30
0.0
 10
12.6642555006
 20
26.7799678793
 30
0.0
 10
12.6401465382
 20
26.6952321671
 30
0.0
 10
12.6313273857
 20
26.6503606934
 30
0.0
  0
SPLINE
  5
2B0
100
AcDbEntity
  8
0
100
AcDbSpline
 62
7
  6
BYLAYER
 70
0
 71
3
 72
9
 73
5
 74
0
 42
0.0000001
 43
0.0000001
 44
0.0000000001
 40
0.0
 40
0.0
 40
0.0
 40
0.0
 40
0.4831637088
 40
1.0
 40
1.0
 40
1.0
 40
1.0
 10
14.3187829537
 20
25.4792996502
 30
0.0
 10
14.3187829537
 20
25.5358725676
 30
0.0
 10
14.3101029422
 20
25.6530398051
 30
0.0
 10
14.2872089824
 20
25.768149811
 30
0.0
 10
14.2722798795
 20
25.8267950025
 30
0.0
  0
SPLINE
  5
2B1
100
AcDbEntity
  8
0
100
AcDbSpline
 62
7
  6
BYLAYER
 70
0
 71
3
 72
16
 73
12
 74
0
 42
0.0000001
 43
0.0000001
 44
0.0000000001
 40
0.0
 40
0.0
 40
0.0
 40
0.0
 40
0.133014277
 40
0.2541112346
 40
0.3670471977
 40
0.4223194612
 40
0.4777513092
 40
0.5918860414
 40
0.715063651
 40
0.8507686611
 40
1.0
 40
1.0
 40
1.0
 40
1.0
 10
13.639311172
 20
24.9078486562
 30
0.0
 10
13.6844952132
 20
24.8925641119
 30
0.0
 10
13.7737301176
 20
24.8708108194
 30
0.0
 10
13.9066010017
 20
24.8686932206
 30
0.0
 10
14.0085113519
 20
24.8951788985
 30
0.0
 10
14.0799426507
 20
24.9322246184
 30
0.0
 10
14.1454544353
 20
24.9796894522
 30
0.0
 10
14.215831122
 20
25.059586242
 30
0.0
 10
14.275816176
 20
25.1805238738
 30
0.0
 10
14.311588014
 20
25.3233564193
 30
0.0
 10
14.3187829537
 20
25.4257849636
 30
0.0
 10
14.3187829537
 20
25.4792996502
 30
0.0
  0
SPLINE
  5
2B2
100
AcDbEntity
  8
0
100
AcDbSpline
 62
7
  6
BYLAYER
 70
0
 71
3
 72
12
 73
8
 74
0
 42
0.0000001
 43
0.0000001
 44
0.0000000001
 40
0.0
 40
0.0
 40
0.0
 40
0.0
 40
0.289423478
 40
0.5486976308
 40
0.7816470647
 40
0.8918328264
 40
1.0
 40
1.0
 40
1.0
 40
1.0
 10
14.1735486185
 20
25.5631485913
 30
0.0
 10
14.1735486185
 20
25.5124913754
 30
0.0
 10
14.165824289
 20
25.4161167403
 30
0.0
 10
14.1269200052
 20
25.2837686165
 30
0.0
 10
14.070903923
 20
25.1924355641
 30
0.0
 10
14.014333261
 20
25.1368566934
 30
0.0
 10
13.9828197451
 20
25.1148508087
 30
0.0
 10
13.9664276849
 20
25.1053781223
 30
0.0
  0
SPLINE
  5
2B3
100
AcDbEntity
  8
0
100
AcDbSpline
 62
7
  6
BYLAYER
 70
0
 71
3
 72
21
 73
17
 74
0
 42
0.0000001
 43
0.0000001
 44
0.0000000001
 40
0.0
 40
0.0
 40
0.0
 40
0.0
 40
0.1569689813
 40
0.3066487716
 40
0.3781394857
 40
0.4471170705
 40
0.5134265116
 40
0.5769789495
 40
0.6377448775
 40
0.6957720531
 40
0.7511847712
 40
0.8042032683
 40
0.8551404401
 40
0.9044088596
 40
0.9525062406
 40
1.0
 40
1.0
 40
1.0
 40
1.0
 10
17.8968425578
 20
31.1300504134
 30
0.0
 10
17.6358353057
 20
31.4453875961
 30
0.0
 10
17.0960557154
 20
32.0374594473
 30
0.0
 10
16.3573749737
 20
32.6940466432
 30
0.0
 10
15.7487618972
 20
33.1443268217
 30
0.0
 10
15.2955665038
 20
33.4372673873
 30
0.0
 10
14.8415237976
 20
33.6886058975
 30
0.0
 10
14.3895569035
 20
33.8968019978
 30
0.0
 10
13.9424648555
 20
34.0604061056
 30
0.0
 10
13.5030910283
 20
34.1784111271
 30
0.0
 10
13.0741654906
 20
34.2498762035
 30
0.0
 10
12.6584228285
 20
34.2742976603
 30
0.0
 10
12.2585405928
 20
34.2512724752
 30
0.0
 10
11.8771567591
 20
34.1808204682
 30
0.0
 10
11.5169941188
 20
34.0632360468
 30
0.0
 10
11.292077589
 20
33.9535595266
 30
0.0
 10
11.184812611
 20
33.8916394292
 30
0.0
  0
SPLINE
  5
2B4
100
AcDbEntity
  8
0
100
AcDbSpline
 62
7
  6
BYLAYER
 70
0
 71
3
 72
21
 73
17
 74
0
 42
0.0000001
 43
0.0000001
 44
0.0000000001
 40
0.0
 40
0.0
 40
0.0
 40
0.0
 40
0.0623552433
 40
0.1287857043
 40
0.1984252469
 40
0.2704147081
 40
0.4174503684
 40
0.5616777103
 40
0.6303050436
 40
0.6954222619
 40
0.7563958742
 40
0.8128577566
 40
0.8647819631
 40
0.9125777905
 40
0.9571728911
 40
1.0
 40
1.0
 40
1.0
 40
1.0
 10
7.1025102463
 20
21.4807070526
 30
0.0
 10
7.1025102463
 20
21.5221560804
 30
0.0
 10
7.0968450077
 20
21.6078162206
 30
0.0
 10
7.0737838857
 20
21.7379028491
 30
0.0
 10
7.0361494399
 20
21.8712158264
 30
0.0
 10
6.9673256698
 20
22.0505621512
 30
0.0
 10
6.8518089333
 20
22.2639735485
 30
0.0
 10
6.7037602215
 20
22.4535837274
 30
0.0
 10
6.5704830237
 20
22.5819435924
 30
0.0
 10
6.4683725113
 20
22.6619027374
 30
0.0
 10
6.3645934482
 20
22.7253783482
 30
0.0
 10
6.2612737787
 20
22.7710535657
 30
0.0
 10
6.1604533189
 20
22.7978306734
 30
0.0
 10
6.064120646
 20
22.8049325417
 30
0.0
 10
5.9744122165
 20
22.7917832656
 30
0.0
 10
5.9200618692
 20
22.7692002188
 30
0.0
 10
5.8954132975
 20
22.754956386
 30
0.0
  0
SPLINE
  5
2B5
100
AcDbEntity
  8
0
100
AcDbSpline
 62
7
  6
BYLAYER
 70
0
 71
3
 72
9
 73
5
 74
0
 42
0.0000001
 43
0.0000001
 44
0.0000000001
 40
0.0
 40
0.0
 40
0.0
 40
0.0
 40
0.5033607359
 40
1.0
 40
1.0
 40
1.0
 40
1.0
 10
16.1366394101
 20
27.3078565982
 30
0.0
 10
15.9768869588
 20
27.5952615274
 30
0.0
 10
15.6336196239
 20
28.1522168506
 30
0.0
 10
15.2411423536
 20
28.6757545057
 30
0.0
 10
15.0342787818
 20
28.9256777374
 30
0.0
  0
SPLINE
  5
2B6
100
AcDbEntity
  8
0
100
AcDbSpline
 62
7
  6
BYLAYER
 70
0
 71
3
 72
23
 73
19
 74
0
 42
0.0000001
 43
0.0000001
 44
0.0000000001
 40
0.0
 40
0.0
 40
0.0
 40
0.0
 40
0.0463385158
 40
0.0924785037
 40
0.1394073181
 40
0.1880319877
 40
0.2391016954
 40
0.2931638112
 40
0.3505661269
 40
0.4114630146
 40
0.4758472445
 40
0.5435728677
 40
0.6143794118
 40
0.6879161242
 40
0.7637445734
 40
0.8413918865
 40
0.9203582194
 40
1.0
 40
1.0
 40
1.0
 40
1.0
 10
15.6314660306
 20
19.9999974459
 30
0.0
 10
15.7524806617
 20
20.0386628227
 30
0.0
 10
15.9878468208
 20
20.1371511366
 30
0.0
 10
16.3095432713
 20
20.3472326178
 30
0.0
 10
16.59312016
 20
20.6156704148
 30
0.0
 10
16.8352485946
 20
20.9387653696
 30
0.0
 10
17.0335083323
 20
21.3124924933
 30
0.0
 10
17.1862685956
 20
21.7324441967
 30
0.0
 10
17.2921543658
 20
22.1940599631
 30
0.0
 10
17.350373994
 20
22.6923966305
 30
0.0
 10
17.360458601
 20
23.2221951068
 30
0.0
 10
17.3223578939
 20
23.777846646
 30
0.0
 10
17.2366003914
 20
24.3534629091
 30
0.0
 10
17.1040367126
 20
24.9428640992
 30
0.0
 10
16.9262109795
 20
25.5397712392
 30
0.0
 10
16.7049359754
 20
26.1378466049
 30
0.0
 10
16.4426040186
 20
26.7304855008
 30
0.0
 10
16.2427195778
 20
27.1170115575
 30
0.0
 10
16.1366394101
 20
27.3078565982
 30
0.0
  0
SPLINE
  5
2B7
100
AcDbEntity
  8
0
100
AcDbSpline
 62
7
  6
BYLAYER
 70
0
 71
3
 72
9
 73
5
 74
0
 42
0.0000001
 43
0.0000001
 44
0.0000000001
 40
0.0
 40
0.0
 40
0.0
 40
0.0
 40
0.5128061192
 40
1.0
 40
1.0
 40
1.0
 40
1.0
 10
10.7255690437
 20
22.3771779162
 30
0.0
 10
10.9348365426
 20
22.1255893432
 30
0.0
 10
11.3678644107
 20
21.6550821901
 30
0.0
 10
11.8506363963
 20
21.2351277951
 30
0.0
 10
12.0978972298
 20
21.0466558663
 30
0.0
  0
SPLINE
  5
2B8
100
AcDbEntity
  8
0
100
AcDbSpline
 62
7
  6
BYLAYER
 70
0
 71
3
 72
30
 73
26
 74
0
 42
0.0000001
 43
0.0000001
 44
0.0000000001
 40
0.0
 40
0.0
 40
0.0
 40
0.0
 40
0.0690256133
 40
0.1328590491
 40
0.1627982402
 40
0.1914383453
 40
0.2188497744
 40
0.2451430382
 40
0.2704739331
 40
0.2950377594
 40
0.3190699271
 40
0.3428326184
 40
0.3666045531
 40
0.3906631008
 40
0.4152703023
 40
0.4406572442
 40
0.4670193455
 40
0.4945065982
 40
0.5531992776
 40
0.6172065874
 40
0.6863923135
 40
0.7602149997
 40
0.8378193817
 40
0.9181580007
 40
1.0
 40
1.0
 40
1.0
 40
1.0
 10
12.1945121481
 20
20.974306436
 30
0.0
 10
12.4064841184
 20
20.8184026959
 30
0.0
 10
12.8318905136
 20
20.5409113139
 30
0.0
 10
13.39469184
 20
20.2736124027
 30
0.0
 10
13.8379309595
 20
20.1260587067
 30
0.0
 10
14.1572637649
 20
20.0499988696
 30
0.0
 10
14.4686859179
 20
20.0066396161
 30
0.0
 10
14.7703953842
 20
19.9964236857
 30
0.0
 10
15.0605888553
 20
20.0193872668
 30
0.0
 10
15.3374769872
 20
20.0756575327
 30
0.0
 10
15.5993246191
 20
20.1648474456
 30
0.0
 10
15.844394112
 20
20.2865683508
 30
0.0
 10
16.0710884648
 20
20.4399873443
 30
0.0
 10
16.2779529759
 20
20.6240867447
 30
0.0
 10
16.4636697054
 20
20.8376547694
 30
0.0
 10
16.6272416232
 20
21.0792190393
 30
0.0
 10
16.7676660969
 20
21.3473242703
 30
0.0
 10
16.9266143498
 20
21.7465119336
 30
0.0
 10
17.0598799761
 20
22.3066681696
 30
0.0
 10
17.115148715
 20
23.0384703148
 30
0.0
 10
17.0690515898
 20
23.828351651
 30
0.0
 10
16.9229060635
 20
24.6582262367
 30
0.0
 10
16.6802860414
 20
25.509285354
 30
0.0
 10
16.3467963895
 20
26.3616918655
 30
0.0
 10
16.0701328621
 20
26.9156640813
 30
0.0
 10
15.9185576738
 20
27.1883575887
 30
0.0
  0
SPLINE
  5
2B9
100
AcDbEntity
  8
0
100
AcDbSpline
 62
7
  6
BYLAYER
 70
0
 71
3
 72
11
 73
7
 74
0
 42
0.0000001
 43
0.0000001
 44
0.0000000001
 40
0.0
 40
0.0
 40
0.0
 40
0.0
 40
0.2302849015
 40
0.4757956066
 40
0.7335503288
 40
1.0
 40
1.0
 40
1.0
 40
1.0
 10
8.4629570936
 20
28.0681601137
 30
0.0
 10
8.4629570936
 20
27.8016370963
 30
0.0
 10
8.5009910172
 20
27.2505817934
 30
0.0
 10
8.6566827778
 20
26.4144236164
 30
0.0
 10
8.9093224675
 20
25.5586798548
 30
0.0
 10
9.135876217
 20
24.9947839542
 30
0.0
 10
9.2635375588
 20
24.7140705131
 30
0.0
  0
SPLINE
  5
2BA
100
AcDbEntity
  8
0
100
AcDbSpline
 62
7
  6
BYLAYER
 70
0
 71
3
 72
25
 73
21
 74
0
 42
0.0000001
 43
0.0000001
 44
0.0000000001
 40
0.0
 40
0.0
 40
0.0
 40
0.0
 40
0.0217137206
 40
0.043572612
 40
0.0657164749
 40
0.0882767326
 40
0.1350625232
 40
0.1847433553
 40
0.2378162349
 40
0.2945261117
 40
0.3548971286
 40
0.4187678566
 40
0.485829875
 40
0.5556574069
 40
0.6277309674
 40
0.7014655428
 40
0.7762254525
 40
0.8513420377
 40
0.926172353
 40
1.0
 40
1.0
 40
1.0
 40
1.0
 10
25.0587555767
 20
22.2718552702
 30
0.0
 10
25.1458299358
 20
22.3221200714
 30
0.0
 10
25.3155960644
 20
22.431879592
 30
0.0
 10
25.5536857426
 20
22.6221179582
 30
0.0
 10
25.7748674287
 20
22.8374722499
 30
0.0
 10
26.0493369027
 20
23.1608678616
 30
0.0
 10
26.3462839971
 20
23.62878921
 30
0.0
 10
26.6182413412
 20
24.2683764254
 30
0.0
 10
26.8079928748
 20
24.9842364011
 30
0.0
 10
26.9135978109
 20
25.7667892201
 30
0.0
 10
26.9341160752
 20
26.6058824957
 30
0.0
 10
26.8695558196
 20
27.4905735897
 30
0.0
 10
26.7208911506
 20
28.4092856716
 30
0.0
 10
26.4901009254
 20
29.3499081785
 30
0.0
 10
26.1802958417
 20
30.3000043889
 30
0.0
 10
25.7956046559
 20
31.2469623187
 30
0.0
 10
25.3411461086
 20
32.1781490818
 30
0.0
 10
24.8229414692
 20
33.0812854166
 30
0.0
 10
24.2479235746
 20
33.9441174978
 30
0.0
 10
23.8278060129
 20
34.4901943253
 30
0.0
 10
23.6098381815
 20
34.7535332222
 30
0.0
  0
SPLINE
  5
2BB
100
AcDbEntity
  8
0
100
AcDbSpline
 62
7
  6
BYLAYER
 70
0
 71
3
 72
27
 73
23
 74
0
 42
0.0000001
 43
0.0000001
 44
0.0000000001
 40
0.0
 40
0.0
 40
0.0
 40
0.0
 40
0.0825669561
 40
0.1622682914
 40
0.2383234777
 40
0.3101905953
 40
0.3774834012
 40
0.4400848266
 40
0.4981995092
 40
0.5524143233
 40
0.5783917703
 40
0.6038071851
 40
0.6288445764
 40
0.6537036402
 40
0.6785910551
 40
0.703712405
 40
0.7292641347
 40
0.7554254761
 40
0.8101252721
 40
0.8688229309
 40
0.9320775527
 40
1.0
 40
1.0
 40
1.0
 40
1.0
 10
14.8506442347
 20
28.7556241367
 30
0.0
 10
14.6895342121
 20
28.9502699951
 30
0.0
 10
14.3578839434
 20
29.3207100711
 30
0.0
 10
13.8272813156
 20
29.8223533576
 30
0.0
 10
13.2790976969
 20
30.2538438275
 30
0.0
 10
12.7224009516
 20
30.6080743693
 30
0.0
 10
12.1659862691
 20
30.8791538399
 30
0.0
 10
11.6185950915
 20
31.0624124288
 30
0.0
 10
11.0889191554
 20
31.1543590034
 30
0.0
 10
10.6628743585
 20
31.1525607544
 30
0.0
 10
10.3431459282
 20
31.1020511129
 30
0.0
 10
10.1167711178
 20
31.0414279959
 30
0.0
 10
9.9015365447
 20
30.9577167453
 30
0.0
 10
9.6984197608
 20
30.8512336855
 30
0.0
 10
9.5082944869
 20
30.7225303563
 30
0.0
 10
9.3320553131
 20
30.5721209413
 30
0.0
 10
9.170438878
 20
30.4007196559
 30
0.0
 10
8.9724520277
 20
30.1415396381
 30
0.0
 10
8.7655653138
 20
29.7648064395
 30
0.0
 10
8.5898240976
 20
29.2512382752
 30
0.0
 10
8.4846300943
 20
28.6779610205
 30
0.0
 10
8.4629570936
 20
28.2760173858
 30
0.0
 10
8.4629570936
 20
28.0681601137
 30
0.0
  0
SPLINE
  5
2BC
100
AcDbEntity
  8
0
100
AcDbSpline
 62
7
  6
BYLAYER
 70
0
 71
3
 72
9
 73
5
 74
0
 42
0.0000001
 43
0.0000001
 44
0.0000000001
 40
0.0
 40
0.0
 40
0.0
 40
0.0
 40
0.502643005
 40
1.0
 40
1.0
 40
1.0
 40
1.0
 10
14.4290745146
 20
35.665386998
 30
0.0
 10
14.3198590211
 20
35.6348215548
 30
0.0
 10
14.1060190438
 20
35.5608511951
 30
0.0
 10
13.9030662682
 20
35.4607288394
 30
0.0
 10
13.8057649109
 20
35.4048216987
 30
0.0
  0
SPLINE
  5
2BD
100
AcDbEntity
  8
0
100
AcDbSpline
 62
7
  6
BYLAYER
 70
0
 71
3
 72
9
 73
5
 74
0
 42
0.0000001
 43
0.0000001
 44
0.0000000001
 40
0.0
 40
0.0
 40
0.0
 40
0.0
 40
0.5033607104
 40
1.0
 40
1.0
 40
1.0
 40
1.0
 10
15.9185576738
 20
27.1883575887
 30
0.0
 10
15.7637972677
 20
27.4667815074
 30
0.0
 10
15.4312559983
 20
28.006332408
 30
0.0
 10
15.0510436235
 20
28.5135106391
 30
0.0
 10
14.8506442347
 20
28.7556241367
 30
0.0
  0
SPLINE
  5
2BE
100
AcDbEntity
  8
0
100
AcDbSpline
 62
7
  6
BYLAYER
 70
0
 71
3
 72
19
 73
15
 74
0
 42
0.0000001
 43
0.0000001
 44
0.0000000001
 40
0.0
 40
0.0
 40
0.0
 40
0.0
 40
0.0691677133
 40
0.1392121035
 40
0.280073965
 40
0.419365231
 40
0.5539019646
 40
0.6185216931
 40
0.6809415508
 40
0.7409120346
 40
0.7982425268
 40
0.8528135966
 40
0.9045939889
 40
1.0
 40
1.0
 40
1.0
 40
1.0
 10
20.4961764325
 20
32.6145124207
 30
0.0
 10
20.6516668126
 20
32.4266559607
 30
0.0
 10
20.9537818029
 20
32.0394404558
 30
0.0
 10
21.5174787361
 20
31.2282562877
 30
0.0
 10
22.1384444493
 20
30.1580296131
 30
0.0
 10
22.7329704587
 20
28.8193352798
 30
0.0
 10
23.0923292679
 20
27.6782205145
 30
0.0
 10
23.2853636168
 20
26.7758592247
 30
0.0
 10
23.3801718329
 20
26.1228455983
 30
0.0
 10
23.4261715177
 20
25.4902923558
 30
0.0
 10
23.4229240646
 20
24.8837171444
 30
0.0
 10
23.3702876444
 20
24.3080949606
 30
0.0
 10
23.2387615866
 20
23.6085941058
 30
0.0
 10
23.063547991
 20
23.1134559361
 30
0.0
 10
22.9091518609
 20
22.8146188699
 30
0.0
  0
SPLINE
  5
2BF
100
AcDbEntity
  8
0
100
AcDbSpline
 62
7
  6
BYLAYER
 70
0
 71
3
 72
23
 73
19
 74
0
 42
0.0000001
 43
0.0000001
 44
0.0000000001
 40
0.0
 40
0.0
 40
0.0
 40
0.0
 40
0.043522869
 40
0.0881819439
 40
0.1349725221
 40
0.1846577541
 40
0.2377369698
 40
0.2944529631
 40
0.3548293335
 40
0.4187073167
 40
0.4857766035
 40
0.5556107188
 40
0.6276921029
 40
0.7014350642
 40
0.7762012598
 40
0.8513257104
 40
0.9261684616
 40
1.0
 40
1.0
 40
1.0
 40
1.0
 10
18.0647960296
 20
20.8319935952
 30
0.0
 10
18.1956724685
 20
20.9075631563
 30
0.0
 10
18.4459639561
 20
21.0881401196
 30
0.0
 10
18.7665311486
 20
21.4337429159
 30
0.0
 10
19.0303892346
 20
21.8496584046
 30
0.0
 10
19.234447348
 20
22.3293823345
 30
0.0
 10
19.3767187426
 20
22.8662730016
 30
0.0
 10
19.4559155028
 20
23.4531910226
 30
0.0
 10
19.4713350826
 20
24.0825085306
 30
0.0
 10
19.4228988839
 20
24.7460269101
 30
0.0
 10
19.3113875921
 20
25.435058056
 30
0.0
 10
19.1383174859
 20
26.1405297792
 30
0.0
 10
18.9059558965
 20
26.8531011766
 30
0.0
 10
18.6174259768
 20
27.5633121429
 30
0.0
 10
18.2765999543
 20
28.2617074545
 30
0.0
 10
17.8879373396
 20
28.9390675738
 30
0.0
 10
17.4566624382
 20
29.5861868544
 30
0.0
 10
17.1415791903
 20
29.9957515276
 30
0.0
 10
16.9781117957
 20
30.1932454564
 30
0.0
  0
SPLINE
  5
2C0
100
AcDbEntity
  8
0
100
AcDbSpline
 62
7
  6
BYLAYER
 70
0
 71
3
 72
25
 73
21
 74
0
 42
0.0000001
 43
0.0000001
 44
0.0000000001
 40
0.0
 40
0.0
 40
0.0
 40
0.0
 40
0.0217137206
 40
0.043572612
 40
0.0657164749
 40
0.0882767326
 40
0.1350625232
 40
0.1847433553
 40
0.2378162349
 40
0.2945261117
 40
0.3548971286
 40
0.4187678566
 40
0.485829875
 40
0.5556574069
 40
0.6277309674
 40
0.7014655428
 40
0.7762254525
 40
0.8513420377
 40
0.926172353
 40
1.0
 40
1.0
 40
1.0
 40
1.0
 10
19.1847691313
 20
20.0352255672
 30
0.0
 10
19.2621685617
 20
20.0799053904
 30
0.0
 10
19.4130717871
 20
20.1774694088
 30
0.0
 10
19.6247070566
 20
20.3465701787
 30
0.0
 10
19.8213129998
 20
20.5379962158
 30
0.0
 10
20.0652858656
 20
20.8254589818
 30
0.0
 10
20.3292388383
 20
21.2413890692
 30
0.0
 10
20.5709786998
 20
21.8099110385
 30
0.0
 10
20.7396467296
 20
22.4462310169
 30
0.0
 10
20.833517784
 20
23.1418335226
 30
0.0
 10
20.8517562411
 20
23.8876942121
 30
0.0
 10
20.7943693473
 20
24.6740862956
 30
0.0
 10
20.6622229749
 20
25.4907192573
 30
0.0
 10
20.457076108
 20
26.3268281523
 30
0.0
 10
20.1816938113
 20
27.1713581171
 30
0.0
 10
19.8397460906
 20
28.0130984992
 30
0.0
 10
19.4357829375
 20
28.8408200664
 30
0.0
 10
18.9751565913
 20
29.6436079195
 30
0.0
 10
18.4640295739
 20
30.4105697694
 30
0.0
 10
18.0905917413
 20
30.8959713939
 30
0.0
 10
17.8968425578
 20
31.1300504134
 30
0.0
  0
SPLINE
  5
2C1
100
AcDbEntity
  8
0
100
AcDbSpline
 62
7
  6
BYLAYER
 70
0
 71
3
 72
22
 73
18
 74
0
 42
0.0000001
 43
0.0000001
 44
0.0000000001
 40
0.0
 40
0.0
 40
0.0
 40
0.0
 40
0.0428623744
 40
0.0871242296
 40
0.1343716688
 40
0.1856837396
 40
0.2415824005
 40
0.3021210575
 40
0.3669644191
 40
0.4354946202
 40
0.5068866254
 40
0.580162272
 40
0.7279507452
 40
0.8004060267
 40
0.8704705116
 40
0.9372817591
 40
1.0
 40
1.0
 40
1.0
 40
1.0
 10
13.9744987881
 20
27.9841124091
 30
0.0
 10
14.0102154674
 20
28.0079018917
 30
0.0
 10
14.0895467471
 20
28.0468910919
 30
0.0
 10
14.2226588312
 20
28.0738605853
 30
0.0
 10
14.3666847871
 20
28.0695484309
 30
0.0
 10
14.518195616
 20
28.0347142875
 30
0.0
 10
14.6741304019
 20
27.970646083
 30
0.0
 10
14.83128132
 20
27.8788511189
 30
0.0
 10
14.9863878429
 20
27.7614122328
 30
0.0
 10
15.1361518346
 20
27.6209131667
 30
0.0
 10
15.2773110823
 20
27.460365138
 30
0.0
 10
15.4503334844
 20
27.2238012707
 30
0.0
 10
15.5927221358
 20
26.9647030113
 30
0.0
 10
15.6983142577
 20
26.6935873699
 30
0.0
 10
15.7560883766
 20
26.4917600882
 30
0.0
 10
15.7915862919
 20
26.2947620402
 30
0.0
 10
15.8002680627
 20
26.1649898533
 30
0.0
 10
15.8002680627
 20
26.1021959134
 30
0.0
  0
SPLINE
  5
2C2
100
AcDbEntity
  8
0
100
AcDbSpline
 62
7
  6
BYLAYER
 70
0
 71
3
 72
25
 73
21
 74
0
 42
0.0000001
 43
0.0000001
 44
0.0000000001
 40
0.0
 40
0.0
 40
0.0
 40
0.0
 40
0.0217094708
 40
0.0435683361
 40
0.0657158577
 40
0.08828283
 40
0.1350887565
 40
0.1847940424
 40
0.2378912718
 40
0.2946220963
 40
0.3550085596
 40
0.4188881119
 40
0.4859520885
 40
0.5557748011
 40
0.6278361866
 40
0.7015533658
 40
0.7762929804
 40
0.8513873186
 40
0.9261950335
 40
1.0
 40
1.0
 40
1.0
 40
1.0
 10
21.8084907134
 20
21.5500478415
 30
0.0
 10
21.885676787
 20
21.59493705
 30
0.0
 10
22.03614894
 20
21.6929019191
 30
0.0
 10
22.2471198638
 20
21.8625240635
 30
0.0
 10
22.4430703754
 20
22.0544066634
 30
0.0
 10
22.6861889279
 20
22.3424108717
 30
0.0
 10
22.9490920699
 20
22.758835205
 30
0.0
 10
23.1896879149
 20
23.327671221
 30
0.0
 10
23.3573364831
 20
23.9640743441
 30
0.0
 10
23.4503266939
 20
24.6595476651
 30
0.0
 10
23.4678322999
 20
25.4050876654
 30
0.0
 10
23.4098668207
 20
26.1909915933
 30
0.0
 10
23.2773010479
 20
27.0069953678
 30
0.0
 10
23.0718963089
 20
27.8423580231
 30
0.0
 10
22.796418662
 20
28.6860560654
 30
0.0
 10
22.4545241906
 20
29.5269126194
 30
0.0
 10
22.0507607814
 20
30.3537426244
 30
0.0
 10
21.5904563474
 20
31.1556624252
 30
0.0
 10
21.0797617987
 20
31.9218066039
 30
0.0
 10
20.7066817098
 20
32.4067094221
 30
0.0
 10
20.5131267555
 20
32.6405537827
 30
0.0
  0
SPLINE
  5
2C3
100
AcDbEntity
  8
0
100
AcDbSpline
 62
7
  6
BYLAYER
 70
0
 71
3
 72
25
 73
21
 74
0
 42
0.0000001
 43
0.0000001
 44
0.0000000001
 40
0.0
 40
0.0
 40
0.0
 40
0.0
 40
0.073827647
 40
0.1486579623
 40
0.2237745475
 40
0.2985344572
 40
0.3722690326
 40
0.4443425931
 40
0.514170125
 40
0.5812321434
 40
0.6451028714
 40
0.7054738883
 40
0.7621837651
 40
0.8152566447
 40
0.8649374768
 40
0.9117232674
 40
0.9342835251
 40
0.956427388
 40
0.9782862794
 40
1.0
 40
1.0
 40
1.0
 40
1.0
 10
22.5637278834
 20
33.8244618289
 30
0.0
 10
22.7574770669
 20
33.5903828094
 30
0.0
 10
23.1309148995
 20
33.104981185
 30
0.0
 10
23.6420419169
 20
32.338019335
 30
0.0
 10
24.1026682631
 20
31.5352314819
 30
0.0
 10
24.5066314162
 20
30.7075099147
 30
0.0
 10
24.8485791369
 20
29.8657695327
 30
0.0
 10
25.1239614336
 20
29.0212395678
 30
0.0
 10
25.3291083005
 20
28.1851306728
 30
0.0
 10
25.4612546729
 20
27.3684977112
 30
0.0
 10
25.5186415667
 20
26.5821056276
 30
0.0
 10
25.5004031096
 20
25.8362449382
 30
0.0
 10
25.4065320552
 20
25.1406424324
 30
0.0
 10
25.2378640254
 20
24.504322454
 30
0.0
 10
24.996124164
 20
23.9358004847
 30
0.0
 10
24.7321711912
 20
23.5198703973
 30
0.0
 10
24.4881983254
 20
23.2324076313
 30
0.0
 10
24.2915923822
 20
23.0409815943
 30
0.0
 10
24.0799571127
 20
22.8718808243
 30
0.0
 10
23.9290538873
 20
22.774316806
 30
0.0
 10
23.851654457
 20
22.7296369827
 30
0.0
  0
SPLINE
  5
2C4
100
AcDbEntity
  8
0
100
AcDbSpline
 62
7
  6
BYLAYER
 70
0
 71
3
 72
13
 73
9
 74
0
 42
0.0000001
 43
0.0000001
 44
0.0000000001
 40
0.0
 40
0.0
 40
0.0
 40
0.0
 40
0.2650756353
 40
0.3904989359
 40
0.5125823198
 40
0.6329361214
 40
0.7532792952
 40
1.0
 40
1.0
 40
1.0
 40
1.0
 10
15.9975255486
 20
25.6527635144
 30
0.0
 10
15.9747547968
 20
25.5967484194
 30
0.0
 10
15.9322142689
 20
25.5171872442
 30
0.0
 10
15.8577016335
 20
25.4267042081
 30
0.0
 10
15.7956708525
 20
25.3697603731
 30
0.0
 10
15.7270208532
 20
25.3229999426
 30
0.0
 10
15.6266947606
 20
25.2743633632
 30
0.0
 10
15.5438114723
 20
25.2548604634
 30
0.0
 10
15.4878345371
 20
25.2490320143
 30
0.0
  0
SPLINE
  5
2C5
100
AcDbEntity
  8
0
100
AcDbSpline
 62
7
  6
BYLAYER
 70
0
 71
3
 72
9
 73
5
 74
0
 42
0.0000001
 43
0.0000001
 44
0.0000000001
 40
0.0
 40
0.0
 40
0.0
 40
0.0
 40
0.4825345119
 40
1.0
 40
1.0
 40
1.0
 40
1.0
 10
15.4878345371
 20
25.2490320143
 30
0.0
 10
15.4419185429
 20
25.2442511338
 30
0.0
 10
15.3455873429
 20
25.2442345442
 30
0.0
 10
15.2509413511
 20
25.2610400122
 30
0.0
 10
15.2029579802
 20
25.2732239329
 30
0.0
  0
ENDSEC
  0
SECTION
  2
OBJECTS
  0
DICTIONARY
  5
C
100
AcDbDictionary
280
0
281
1
  3
ACAD_GROUP
350
D
  3
ACAD_MLINESTYLE
350
17
  3
ACAD_LAYOUT
350
1A
  3
ACAD_PLOTSETTINGS
350
19
  3
ACAD_PLOTSTYLENAME
350
E
  0
DICTIONARY
  5
D
102
{ACAD_REACTORS
330
C
102
}
100
AcDbDictionary
280
0
281
1
  0
ACDBDICTIONARYWDFLT
  5
E
102
{ACAD_REACTORS
330
C
102
}
100
AcDbDictionary
281
1
  3
Normal
350
F
100
AcDbDictionaryWithDefault
340
F
  0
DICTIONARY
  5
17
102
{ACAD_REACTORS
330
C
102
}
100
AcDbDictionary
280
0
281
1
  3
Standard
350
18
  0
DICTIONARY
  5
19
102
{ACAD_REACTORS
330
C
102
}
100
AcDbDictionary
281
1
  0
DICTIONARY
  5
1A
102
{ACAD_REACTORS
330
C
102
}
100
AcDbDictionary
281
1
  3
Model
350
2C6
  3
Layout1
350
2C7
  0
ACDBPLACEHOLDER
  5
F
102
{ACAD_REACTORS
330
E
102
}
  0
MLINESTYLE
  5
18
102
{ACAD_REACTORS
330
17
102
}
100
AcDbMlineStyle
  2
STANDARD
 70
0
  3

 62
256
 51
90.0
 52
90.0
 71
2
 49
0.5
 62
256
  6
BYLAYER
 49
-0.5
 62
256
  6
BYLAYER
  0
LAYOUT
  5
2C6
102
{ACAD_REACTORS
330
1A
102
}
100
AcDbPlotSettings
  1

  2
none_device
  4

  6

 40
0.0
 41
0.0
 42
0.0
 43
0.0
 44
210.0
 45
297.0
 46
0.0
 47
0.0
 48
0.0
 49
0.0
140
0.0
141
0.0
142
1.0
143
1.0
 70
1024
 72
1
 73
0
 74
0
  7

 75
0
147
1.0
148
0.0
149
0.0
100
AcDbLayout
  1
Model
 70
0
 71
0
 10
0.0
 20
0.0
 11
210.0
 21
297.0
 12
0.0
 22
0.0
 32
0.0
 14
0.0
 24
0.0
 34
0.0
 15
0.0
 25
0.0
 35
0.0
146
0.0
 13
0.0
 23
0.0
 33
0.0
 16
1.0
 26
0.0
 36
0.0
 17
0.0
 27
1.0
 37
0.0
 76
0
330
210
345
0
346
0
  0
LAYOUT
  5
2C7
102
{ACAD_REACTORS
330
1A
102
}
100
AcDbPlotSettings
  1

  2
none_device
  4

  6

 40
0.0
 41
0.0
 42
0.0
 43
0.0
 44
210.0
 45
297.0
 46
0.0
 47
0.0
 48
0.0
 49
0.0
140
0.0
141
0.0
142
1.0
143
1.0
 70
0
 72
1
 73
0
 74
0
  7

 75
0
147
1.0
148
0.0
149
0.0
100
AcDbLayout
  1
Layout1
 70
0
 71
1
 10
0.0
 20
0.0
 11
210.0
 21
297.0
 12
0.0
 22
0.0
 32
0.0
 14
0.0
 24
0.0
 34
0.0
 15
0.0
 25
0.0
 35
0.0
146
0.0
 13
0.0
 23
0.0
 33
0.0
 16
1.0
 26
0.0
 36
0.0
 17
0.0
 27
1.0
 37
0.0
 76
0
330
211
345
0
346
0
  0
ENDSEC
  0
EOF
