999
DXF file: C:\Users\sesa63760\Dev\_Creo\CAD\MCADID0004609_3D-CAD\drw0001_6.dxf
999
Pro/ENGINEER 2019471 by Parametric Technology Corporation
  0
SECTION
  2
HEADER
  9
$ACADVER
  1
AC1024
  9
$DWGCODEPAGE
  3
ANSI_1252
  9
$EXTMAX
 10
34.9513405389
 20
49.4311816193
 30
0.0
  9
$EXTMIN
 10
0.0
 20
0.0
 30
0.0
  9
$LIMMIN
 10
0.0
 20
0.0
  9
$LIMMAX
 10
34.9513405389
 20
49.4311816193
  9
$VIEWCTR
 10
17.4756702694
 20
24.7155908096
  9
$VIEWSIZE
 40
49.4311816193
  9
$CLAYER
  8
0
  9
$LTSCALE
 40
3.2221807278
  9
$CELTYPE
  6
BYLAYER
  9
$DIMSCALE
 40
1.0
  9
$DIMASZ
 40
0.4160873874
  9
$DIMEXO
 40
1.0
  9
$DIMDLI
 40
2.2262339574
  9
$DIMEXE
 40
1.0
  9
$DIMCEN
 40
0.5272659373
  9
$DIMLFAC
 40
1.0
  9
$DIMBLK
  1
_FILLED
  9
$DIMALT
 70
0
  9
$DIMALTF
 40
0.0393700787
  9
$DIMTXT
 40
0.5825223423
  9
$DIMTOL
 70
1
  9
$DIMLIM
 70
0
  9
$DIMTFAC
 40
1.0
  9
$DIMTP
 40
0.01
  9
$DIMTM
 40
0.01
  9
$DIMGAP
 40
0.625
  9
$DIMDSEP
 70
46
  9
$AUNITS
 70
0
  9
$PDMODE
 70
3
  9
$PDSIZE
 40
0.3125
  9
$HANDSEED
  5
235
  9
$TILEMODE
 70
1
  9
$MEASUREMENT
 70
1
  9
$INSUNITS
 70
4
  0
ENDSEC
  0
SECTION
  2
CLASSES
  0
CLASS
  1
ACDBDICTIONARYWDFLT
  2
AcDbDictionaryWithDefault
  3
AutoCAD 2000
 90
0
 91
1
280
0
281
0
  0
CLASS
  1
ACDBPLACEHOLDER
  2
AcDbPlaceHolder
  3
AutoCAD 2000
 90
0
 91
1
280
0
281
0
  0
CLASS
  1
LAYOUT
  2
AcDbLayout
  3
AutoCAD 2000
 90
0
 91
0
280
0
281
0
  0
ENDSEC
  0
SECTION
  2
TABLES
  0
TABLE
  2
VPORT
  5
8
100
AcDbSymbolTable
 70
2
  0
VPORT
  5
1F4
100
AcDbSymbolTableRecord
100
AcDbViewportTableRecord
  2
*ACTIVE
 70
0
 10
0.0
 20
0.0
 11
1.0
 21
1.0
 12
17.4756702694
 22
24.7155908096
 13
0.0
 23
0.0
 14
1.0
 24
1.0
 15
0.0
 25
0.0
 16
0.0
 26
0.0
 36
1.0
 17
0.0
 27
0.0
 37
0.0
 40
49.4311816193
 41
0.7070707071
 42
50.0
 43
0.0
 44
0.0
 50
0.0
 51
0.0
 71
0
 72
100
 73
1
 74
1
 75
0
 76
0
 77
0
 78
0
  0
ENDTAB
  0
TABLE
  2
LTYPE
  5
5
100
AcDbSymbolTable
 70
6
  0
LTYPE
  5
14
100
AcDbSymbolTableRecord
100
AcDbLinetypeTableRecord
  2
BYBLOCK
 70
0
  3

 72
65
 73
0
 40
0.0
  0
LTYPE
  5
15
100
AcDbSymbolTableRecord
100
AcDbLinetypeTableRecord
  2
BYLAYER
 70
0
  3

 72
65
 73
0
 40
0.0
  0
LTYPE
  5
16
100
AcDbSymbolTableRecord
100
AcDbLinetypeTableRecord
  2
CONTINUOUS
 70
64
  3
Solid line
 72
65
 73
0
 40
0.0
  0
LTYPE
  5
1F5
100
AcDbSymbolTableRecord
100
AcDbLinetypeTableRecord
  2
CENTER
 70
64
  3
____ _ ____ _ ____ _ ____ _ ____ _ ____ _ ____
 72
65
 73
4
 40
0.6
 49
0.375
 74
0
 49
-0.075
 74
0
 49
0.075
 74
0
 49
-0.075
 74
0
  0
LTYPE
  5
1F6
100
AcDbSymbolTableRecord
100
AcDbLinetypeTableRecord
  2
HIDDEN
 70
64
  3
- - - - - - - - - - - - - - - - - - - -
 72
65
 73
2
 40
0.2
 49
0.1
 74
0
 49
-0.1
 74
0
  0
LTYPE
  5
1F7
100
AcDbSymbolTableRecord
100
AcDbLinetypeTableRecord
  2
PHANTOM
 70
64
  3
_____ _ _ _____ _ _ _____ _ _ _____
 72
65
 73
6
 40
0.8
 49
0.45
 74
0
 49
-0.05
 74
0
 49
0.1
 74
0
 49
-0.05
 74
0
 49
0.1
 74
0
 49
-0.05
 74
0
  0
LTYPE
  5
1F8
100
AcDbSymbolTableRecord
100
AcDbLinetypeTableRecord
  2
DOT
 70
64
  3
. . . . . . . . . . . . . . . . . . . .
 72
65
 73
2
 40
0.2
 49
0.1
 74
0
 49
-0.1
 74
0
  0
LTYPE
  5
1F9
100
AcDbSymbolTableRecord
100
AcDbLinetypeTableRecord
  2
DASHED
 70
64
  3
- - - - - - - - - - - - - - - - - - - -
 72
65
 73
2
 40
0.2
 49
0.1
 74
0
 49
-0.1
 74
0
  0
ENDTAB
  0
TABLE
  2
LAYER
  5
2
100
AcDbSymbolTable
 70
36
  0
LAYER
  5
10
100
AcDbSymbolTableRecord
100
AcDbLayerTableRecord
  2
0
 70
0
 62
7
  6
CONTINUOUS
370
-3
390
F
  0
LAYER
  5
1FA
100
AcDbSymbolTableRecord
100
AcDbLayerTableRecord
  2
DEFAULT_1
 70
0
 62
7
  6
CENTER
370
-3
390
F
  0
LAYER
  5
1FB
100
AcDbSymbolTableRecord
100
AcDbLayerTableRecord
  2
DEFAULT_2
 70
0
 62
7
  6
HIDDEN
370
-3
390
F
  0
LAYER
  5
1FC
100
AcDbSymbolTableRecord
100
AcDbLayerTableRecord
  2
DEFAULT_3
 70
0
 62
7
  6
PHANTOM
370
-3
390
F
  0
LAYER
  5
1FD
100
AcDbSymbolTableRecord
100
AcDbLayerTableRecord
  2
00_COMPONENTS
 70
0
 62
7
  6
CONTINUOUS
370
-3
390
F
  0
LAYER
  5
1FE
100
AcDbSymbolTableRecord
100
AcDbLayerTableRecord
  2
01_1_DEFAULT_DATUMS
 70
0
 62
7
  6
CONTINUOUS
370
-3
390
F
  0
LAYER
  5
1FF
100
AcDbSymbolTableRecord
100
AcDbLayerTableRecord
  2
01_PLANES
 70
0
 62
7
  6
CONTINUOUS
370
-3
390
F
  0
LAYER
  5
200
100
AcDbSymbolTableRecord
100
AcDbLayerTableRecord
  2
02_COORD_SYS
 70
0
 62
7
  6
CONTINUOUS
370
-3
390
F
  0
LAYER
  5
201
100
AcDbSymbolTableRecord
100
AcDbLayerTableRecord
  2
03_AXES
 70
0
 62
7
  6
CONTINUOUS
370
-3
390
F
  0
LAYER
  5
202
100
AcDbSymbolTableRecord
100
AcDbLayerTableRecord
  2
04_POINTS
 70
0
 62
7
  6
CONTINUOUS
370
-3
390
F
  0
LAYER
  5
203
100
AcDbSymbolTableRecord
100
AcDbLayerTableRecord
  2
05_CURVES
 70
0
 62
7
  6
CONTINUOUS
370
-3
390
F
  0
LAYER
  5
204
100
AcDbSymbolTableRecord
100
AcDbLayerTableRecord
  2
06_SURFS
 70
0
 62
7
  6
CONTINUOUS
370
-3
390
F
  0
LAYER
  5
205
100
AcDbSymbolTableRecord
100
AcDbLayerTableRecord
  2
07_COSMETICS
 70
0
 62
7
  6
CONTINUOUS
370
-3
390
F
  0
LAYER
  5
206
100
AcDbSymbolTableRecord
100
AcDbLayerTableRecord
  2
10_NOTES
 70
0
 62
7
  6
CONTINUOUS
370
-3
390
F
  0
LAYER
  5
207
100
AcDbSymbolTableRecord
100
AcDbLayerTableRecord
  2
11_NOTES_PUB
 70
0
 62
7
  6
CONTINUOUS
370
-3
390
F
  0
LAYER
  5
208
100
AcDbSymbolTableRecord
100
AcDbLayerTableRecord
  2
13_REF_GTOL
 70
0
 62
7
  6
CONTINUOUS
370
-3
390
F
  0
LAYER
  5
209
100
AcDbSymbolTableRecord
100
AcDbLayerTableRecord
  2
16_MISC
 70
0
 62
7
  6
CONTINUOUS
370
-3
390
F
  0
LAYER
  5
20A
100
AcDbSymbolTableRecord
100
AcDbLayerTableRecord
  2
17_NO_PRINT
 70
0
 62
7
  6
CONTINUOUS
370
-3
390
F
  0
LAYER
  5
20B
100
AcDbSymbolTableRecord
100
AcDbLayerTableRecord
  2
18_DATUM_CAMS_JOINTS
 70
0
 62
7
  6
CONTINUOUS
370
-3
390
F
  0
LAYER
  5
20C
100
AcDbSymbolTableRecord
100
AcDbLayerTableRecord
  2
19_DATUM_FUNCTIONAL
 70
0
 62
7
  6
CONTINUOUS
370
-3
390
F
  0
LAYER
  5
20D
100
AcDbSymbolTableRecord
100
AcDbLayerTableRecord
  2
20_DATUM_KINEMATIC_SCHEME
 70
0
 62
7
  6
CONTINUOUS
370
-3
390
F
  0
ENDTAB
  0
TABLE
  2
STYLE
  5
3
100
AcDbSymbolTable
 70
1
  0
STYLE
  5
11
100
AcDbSymbolTableRecord
100
AcDbTextStyleTableRecord
  2
STANDARD
 70
0
 40
0.0
 41
1.0
 50
0.0
 71
0
 42
0.2
  3
ARIAL.TTF
  4

  0
STYLE
  5
20E
100
AcDbSymbolTableRecord
100
AcDbTextStyleTableRecord
  2
TEXTSTYLE_1
 70
0
 40
0.0
 41
0.8
 50
0.0
 71
0
 42
0.2
  3
gdt
  4

  0
ENDTAB
  0
TABLE
  2
VIEW
  5
6
100
AcDbSymbolTable
 70
0
  0
ENDTAB
  0
TABLE
  2
UCS
  5
7
100
AcDbSymbolTable
 70
0
  0
ENDTAB
  0
TABLE
  2
APPID
  5
9
100
AcDbSymbolTable
 70
1
  0
APPID
  5
20F
100
AcDbSymbolTableRecord
100
AcDbRegAppTableRecord
  2
ACAD
 70
0
  0
ENDTAB
  0
TABLE
  2
BLOCK_RECORD
  5
1
100
AcDbSymbolTable
 70
0
  0
BLOCK_RECORD
  5
210
100
AcDbSymbolTableRecord
100
AcDbBlockTableRecord
  2
*Model_Space
  0
BLOCK_RECORD
  5
211
100
AcDbSymbolTableRecord
100
AcDbBlockTableRecord
  2
*Paper_Space
  0
BLOCK_RECORD
  5
212
100
AcDbSymbolTableRecord
100
AcDbBlockTableRecord
  2
_FILLED
  0
ENDTAB
  0
TABLE
  2
DIMSTYLE
  5
A
100
AcDbSymbolTable
 70
1
100
AcDbDimStyleTable
 71
0
  0
DIMSTYLE
105
213
100
AcDbSymbolTableRecord
100
AcDbDimStyleTableRecord
  2
STANDARD
 70
0
  3

  4

 40
1.0
 41
0.4160873874
 42
1.0
 43
0.38
 44
1.0
 45
0.0
 46
0.0
 47
0.01
 48
0.01
140
0.5825223423
141
0.09
142
0.0
143
25.4
144
1.0
145
0.0
146
1.0
147
0.625
 71
1
 72
0
 73
0
 74
0
 75
0
 76
0
 77
1
 78
8
 79
2
170
0
171
1
172
0
173
0
174
0
175
0
176
0
177
0
178
0
270
2
179
2
271
2
272
2
273
2
274
2
275
0
280
0
281
0
282
0
283
1
284
8
285
0
286
0
287
3
288
0
340
11
278
46
341
212
342
212
343
212
344
212
  0
ENDTAB
  0
ENDSEC
  0
SECTION
  2
BLOCKS
  0
BLOCK
  5
20
100
AcDbEntity
  8
0
100
AcDbBlockBegin
  2
*Model_Space
 70
0
 10
0.0
 20
0.0
 30
0.0
  3
*Model_Space
  1

  0
ENDBLK
  5
21
100
AcDbEntity
  8
0
100
AcDbBlockEnd
  0
BLOCK
  5
1C
100
AcDbEntity
  8
0
100
AcDbBlockBegin
  2
*Paper_Space
 70
0
 10
0.0
 20
0.0
 30
0.0
  3
*Paper_Space
  1

  0
ENDBLK
  5
1D
100
AcDbEntity
  8
0
100
AcDbBlockEnd
  0
BLOCK
  5
214
100
AcDbEntity
  8
0
100
AcDbBlockBegin
  2
_FILLED
 70
64
 10
0.0
 20
0.0
  3
_FILLED
  1

  0
SOLID
  5
215
100
AcDbEntity
  8
0
  6
BYBLOCK
 62
0
100
AcDbTrace
 10
0.0
 20
0.0
 11
-1.0
 21
0.25
 12
-1.0
 22
-0.25
 13
-1.0
 23
-0.25
  0
ENDBLK
  5
216
100
AcDbEntity
  8
0
  6
BYBLOCK
 62
0
100
AcDbBlockEnd
  0
ENDSEC
  0
SECTION
  2
ENTITIES
  0
LINE
  5
217
100
AcDbEntity
  8
0
100
AcDbLine
 62
7
  6
BYLAYER
 10
22.3281866188
 20
7.6155908096
 11
13.2281867429
 21
7.6155908096
  0
LINE
  5
218
100
AcDbEntity
  8
0
100
AcDbLine
 62
7
  6
BYLAYER
 10
24.3281866808
 20
9.6155908096
 11
11.2281866808
 21
9.6155908096
  0
LWPOLYLINE
  5
219
100
AcDbEntity
  8
0
100
AcDbPolyline
 62
7
  6
BYLAYER
 90
4
 70
0
 10
9.9310079797
 20
16.6084920253
 10
10.7283713086
 20
15.7966254197
 10
11.0106292107
 20
15.2602039093
 10
11.2281902619
 20
14.1385774918
  0
LINE
  5
21A
100
AcDbEntity
  8
0
100
AcDbLine
 62
7
  6
BYLAYER
 10
11.9130380179
 20
15.2155908096
 11
23.6433352044
 21
15.2155908096
  0
LINE
  5
21B
100
AcDbEntity
  8
0
100
AcDbLine
 62
7
  6
BYLAYER
 10
14.3599745831
 20
18.1304446798
 11
12.7943780944
 21
19.4654944983
  0
LINE
  5
21C
100
AcDbEntity
  8
0
100
AcDbLine
 62
7
  6
BYLAYER
 10
11.2281866808
 20
9.6155908096
 11
11.2281866808
 21
14.1385774918
  0
LINE
  5
21D
100
AcDbEntity
  8
0
100
AcDbLine
 62
7
  6
BYLAYER
 10
17.7781751729
 20
21.28311293
 11
17.7782032012
 21
21.4952979507
  0
LINE
  5
21E
100
AcDbEntity
  8
0
100
AcDbLine
 62
7
  6
BYLAYER
 10
24.3281866808
 20
9.6155908096
 11
24.3281866808
 21
14.1385774918
  0
LINE
  5
21F
100
AcDbEntity
  8
0
100
AcDbLine
 62
7
  6
BYLAYER
 10
21.1963980058
 20
18.1304439633
 11
22.761993689
 21
19.4654929085
  0
LWPOLYLINE
  5
220
100
AcDbEntity
  8
0
100
AcDbPolyline
 62
7
  6
BYLAYER
 90
4
 70
0
 10
24.3281830998
 20
14.1385774918
 10
24.5457445013
 20
15.2602047786
 10
24.8280023961
 20
15.796625937
 10
25.625365382
 20
16.6084920254
  0
ARC
  5
221
100
AcDbEntity
  8
0
100
AcDbCircle
 62
7
  6
BYLAYER
 10
17.7781866808
 20
27.9905908096
 40
13.825
100
AcDbArc
 50
304.5835522914
 51
235.4164477145
  0
CIRCLE
  5
222
100
AcDbEntity
  8
0
100
AcDbCircle
 62
7
  6
BYLAYER
 10
17.7781866808
 20
27.9905908096
 40
5.925
  0
ARC
  5
223
100
AcDbEntity
  8
0
100
AcDbCircle
 62
7
  6
BYLAYER
 10
22.3281866808
 20
9.6155908096
 40
2.0
100
AcDbArc
 50
269.9999982226
 51
360.0
  0
ARC
  5
224
100
AcDbEntity
  8
0
100
AcDbCircle
 62
7
  6
BYLAYER
 10
13.2281866808
 20
9.6155908096
 40
2.0
100
AcDbArc
 50
180.0
 51
270.0000017774
  0
SPLINE
  5
225
100
AcDbEntity
  8
0
100
AcDbSpline
 62
7
  6
BYLAYER
 70
0
 71
3
 72
11
 73
7
 74
0
 42
0.0000001
 43
0.0000001
 44
0.0000000001
 40
0.0
 40
0.0
 40
0.0
 40
0.0
 40
0.2874998479
 40
0.5584569257
 40
0.8000170587
 40
1.0
 40
1.0
 40
1.0
 40
1.0
 10
22.7619951302
 20
19.4654946177
 30
0.0
 10
22.989189215
 20
19.2593952149
 30
0.0
 10
23.4207240365
 20
18.8482480768
 30
0.0
 10
24.0206551141
 20
18.2409801064
 30
0.0
 10
24.544542865
 20
17.6900743381
 30
0.0
 10
24.8650367103
 20
17.3447785733
 30
0.0
 10
25.0095102113
 20
17.1877599849
 30
0.0
  0
SPLINE
  5
226
100
AcDbEntity
  8
0
100
AcDbSpline
 62
7
  6
BYLAYER
 70
0
 71
3
 72
11
 73
7
 74
0
 42
0.0000001
 43
0.0000001
 44
0.0000000001
 40
0.0
 40
0.0
 40
0.0
 40
0.0
 40
0.1999828923
 40
0.4415430448
 40
0.7125001652
 40
1.0
 40
1.0
 40
1.0
 40
1.0
 10
10.5468631401
 20
17.1877599829
 30
0.0
 10
10.6913366075
 20
17.3447785318
 30
0.0
 10
11.0118304295
 20
17.6900742771
 30
0.0
 10
11.5357181894
 20
18.240980059
 30
0.0
 10
12.1356493056
 20
18.8482480688
 30
0.0
 10
12.5671841587
 20
19.2593952214
 30
0.0
 10
12.7943782292
 20
19.4654946206
 30
0.0
  0
SPLINE
  5
227
100
AcDbEntity
  8
0
100
AcDbSpline
 62
7
  6
BYLAYER
 70
0
 71
3
 72
15
 73
11
 74
0
 42
0.0000001
 43
0.0000001
 44
0.0000000001
 40
0.0
 40
0.0
 40
0.0
 40
0.0
 40
0.1172685346
 40
0.2387541903
 40
0.3636634011
 40
0.4909438154
 40
0.6194411585
 40
0.7479289478
 40
0.8751541378
 40
1.0
 40
1.0
 40
1.0
 40
1.0
 10
11.9130417041
 20
15.2155942852
 30
0.0
 10
11.8908629411
 20
15.3086738977
 30
0.0
 10
11.8359933501
 20
15.4959822079
 30
0.0
 10
11.7256105428
 20
15.7718741763
 30
0.0
 10
11.5860659777
 20
16.0434581318
 30
0.0
 10
11.4197505465
 20
16.3062880305
 30
0.0
 10
11.2291083404
 20
16.5557067714
 30
0.0
 10
11.0181548699
 20
16.7881139073
 30
0.0
 10
10.7907286174
 20
17.0000255968
 30
0.0
 10
10.6292438248
 20
17.1278259894
 30
0.0
 10
10.5468649937
 20
17.1877497921
 30
0.0
  0
SPLINE
  5
228
100
AcDbEntity
  8
0
100
AcDbSpline
 62
7
  6
BYLAYER
 70
0
 71
3
 72
10
 73
6
 74
0
 42
0.0000001
 43
0.0000001
 44
0.0000000001
 40
0.0
 40
0.0
 40
0.0
 40
0.0
 40
0.4435798105
 40
0.7145491978
 40
1.0
 40
1.0
 40
1.0
 40
1.0
 10
11.913044297
 20
15.2155949298
 30
0.0
 10
12.2728552715
 20
15.6482525516
 30
0.0
 10
12.853318022
 20
16.34449936
 30
0.0
 10
13.6689511005
 20
17.316134477
 30
0.0
 10
14.1249998523
 20
17.8549111353
 30
0.0
 10
14.3599735386
 20
18.1304451656
 30
0.0
  0
SPLINE
  5
229
100
AcDbEntity
  8
0
100
AcDbSpline
 62
7
  6
BYLAYER
 70
0
 71
3
 72
28
 73
24
 74
0
 42
0.0000001
 43
0.0000001
 44
0.0000000001
 40
0.0
 40
0.0
 40
0.0
 40
0.0
 40
0.0167195343
 40
0.0334207025
 40
0.0500818978
 40
0.0666802263
 40
0.0996215596
 40
0.1321731785
 40
0.1482511054
 40
0.1641987251
 40
0.1957360811
 40
0.2267855398
 40
0.2573650085
 40
0.3173341148
 40
0.3761999818
 40
0.4345754441
 40
0.4930700795
 40
0.5522199768
 40
0.6124415771
 40
0.7369407025
 40
0.8667867997
 40
0.9331645745
 40
1.0
 40
1.0
 40
1.0
 40
1.0
 10
17.7781908518
 20
21.4952857346
 30
0.0
 10
17.7472794262
 20
21.4952512811
 30
0.0
 10
17.6854910693
 20
21.494877481
 30
0.0
 10
17.5929029365
 20
21.4939560701
 30
0.0
 10
17.5005461046
 20
21.4924278936
 30
0.0
 10
17.3781917553
 20
21.4892365335
 30
0.0
 10
17.2265374846
 20
21.483164612
 30
0.0
 10
17.0759065494
 20
21.4756333758
 30
0.0
 10
16.9568004199
 20
21.4673266194
 30
0.0
 10
16.839660424
 20
21.4579166482
 30
0.0
 10
16.6950673134
 20
21.444607694
 30
0.0
 10
16.5238992418
 20
21.4252037031
 30
0.0
 10
16.3011798836
 20
21.3944663591
 30
0.0
 10
16.0290382021
 20
21.3461986288
 30
0.0
 10
15.7101458454
 20
21.2701435294
 30
0.0
 10
15.3993832323
 20
21.1745230853
 30
0.0
 10
15.0951712339
 20
21.0582677878
 30
0.0
 10
14.7961517847
 20
20.9208832152
 30
0.0
 10
14.3986023961
 20
20.7076617151
 30
0.0
 10
13.9102051908
 20
20.3899906046
 30
0.0
 10
13.4411876953
 20
20.0264619311
 30
0.0
 10
13.070009989
 20
19.7121435982
 30
0.0
 10
12.8858922867
 20
19.5485243408
 30
0.0
 10
12.7943797331
 20
19.4654929624
 30
0.0
  0
SPLINE
  5
22A
100
AcDbEntity
  8
0
100
AcDbSpline
 62
7
  6
BYLAYER
 70
0
 71
3
 72
28
 73
24
 74
0
 42
0.0000001
 43
0.0000001
 44
0.0000000001
 40
0.0
 40
0.0
 40
0.0
 40
0.0
 40
0.0668351763
 40
0.1332124433
 40
0.2630580228
 40
0.3875566005
 40
0.4477785551
 40
0.5069287209
 40
0.5654235939
 40
0.6237994438
 40
0.6826658267
 40
0.742637255
 40
0.7732159703
 40
0.8042622252
 40
0.8357975402
 40
0.8517476534
 40
0.8678282778
 40
0.9003767174
 40
0.9333208002
 40
0.9499183045
 40
0.9665789129
 40
0.9832803722
 40
1.0
 40
1.0
 40
1.0
 40
1.0
 10
22.7619936287
 20
19.4654929622
 30
0.0
 10
22.6704810883
 20
19.5485232795
 30
0.0
 10
22.4863652664
 20
19.7121417139
 30
0.0
 10
22.1151914638
 20
20.0264595185
 30
0.0
 10
21.64617347
 20
20.3899806171
 30
0.0
 10
21.1577813886
 20
20.7076546017
 30
0.0
 10
20.7602329134
 20
20.9208763179
 30
0.0
 10
20.4612122941
 20
21.0582603297
 30
0.0
 10
20.1569992593
 20
21.1745161553
 30
0.0
 10
19.8462336095
 20
21.27013046
 30
0.0
 10
19.5273373806
 20
21.3461947441
 30
0.0
 10
19.2551858521
 20
21.3944257109
 30
0.0
 10
19.0324718435
 20
21.4251732611
 30
0.0
 10
18.86132058
 20
21.4446204685
 30
0.0
 10
18.7167371482
 20
21.4579808449
 30
0.0
 10
18.5995864438
 20
21.4673304217
 30
0.0
 10
18.4804726841
 20
21.475569338
 30
0.0
 10
18.3298455699
 20
21.4832494212
 30
0.0
 10
18.1781881718
 20
21.4891813917
 30
0.0
 10
18.0558334909
 20
21.4924309366
 30
0.0
 10
17.9634790106
 20
21.4939745903
 30
0.0
 10
17.8708913701
 20
21.4948884757
 30
0.0
 10
17.8091023866
 20
21.4952529471
 30
0.0
 10
17.7781908518
 20
21.4952857346
 30
0.0
  0
SPLINE
  5
22B
100
AcDbEntity
  8
0
100
AcDbSpline
 62
7
  6
BYLAYER
 70
0
 71
3
 72
14
 73
10
 74
0
 42
0.0000001
 43
0.0000001
 44
0.0000000001
 40
0.0
 40
0.0
 40
0.0
 40
0.0
 40
0.2360663135
 40
0.3603111791
 40
0.4873562679
 40
0.6160848058
 40
0.7452643755
 40
0.8736260463
 40
1.0
 40
1.0
 40
1.0
 40
1.0
 10
23.6433313615
 20
15.2155884492
 30
0.0
 10
23.6879647935
 20
15.4029129863
 30
0.0
 10
23.7855236387
 20
15.6826596494
 30
0.0
 10
23.9666153363
 20
16.0369344199
 30
0.0
 10
24.1320085887
 20
16.2996646929
 30
0.0
 10
24.3223742653
 20
16.5498823258
 30
0.0
 10
24.5339569753
 20
16.7838894391
 30
0.0
 10
24.7630558457
 20
16.9979142606
 30
0.0
 10
24.926144725
 20
17.1271187088
 30
0.0
 10
25.0095102187
 20
17.1877599768
 30
0.0
  0
SPLINE
  5
22C
100
AcDbEntity
  8
0
100
AcDbSpline
 62
7
  6
BYLAYER
 70
0
 71
3
 72
12
 73
8
 74
0
 42
0.0000001
 43
0.0000001
 44
0.0000000001
 40
0.0
 40
0.0
 40
0.0
 40
0.0
 40
0.2854514546
 40
0.4908159336
 40
0.6820554087
 40
0.8534981186
 40
1.0
 40
1.0
 40
1.0
 40
1.0
 10
21.196399823
 20
18.1304451657
 30
0.0
 10
21.4313751536
 20
17.8549091273
 30
0.0
 10
21.8336576228
 20
17.3796555465
 30
0.0
 10
22.3902834959
 20
16.7172095156
 30
0.0
 10
22.8526922794
 20
16.1645093828
 30
0.0
 10
23.2664981482
 20
15.668508026
 30
0.0
 10
23.5243996363
 20
15.3583893453
 30
0.0
 10
23.6433423771
 20
15.2155829091
 30
0.0
  0
SPLINE
  5
22D
100
AcDbEntity
  8
0
100
AcDbSpline
 62
7
  6
BYLAYER
 70
0
 71
3
 72
20
 73
16
 74
0
 42
0.0000001
 43
0.0000001
 44
0.0000000001
 40
0.0
 40
0.0
 40
0.0
 40
0.0
 40
0.0495725447
 40
0.0738578902
 40
0.097970307
 40
0.1465703838
 40
0.1969041023
 40
0.2497849232
 40
0.3055569891
 40
0.3643746264
 40
0.4261887127
 40
0.5581927979
 40
0.6996649123
 40
0.8479565724
 40
1.0
 40
1.0
 40
1.0
 40
1.0
 10
17.7781834689
 20
21.2831128987
 30
0.0
 10
17.7000619673
 20
21.2830930354
 30
0.0
 10
17.5831272248
 20
21.2649388875
 30
0.0
 10
17.4372496184
 20
21.2139992805
 30
0.0
 10
17.2984359924
 20
21.14945702
 30
0.0
 10
17.1323273976
 20
21.0484187545
 30
0.0
 10
16.9406288048
 20
20.9049497621
 30
0.0
 10
16.7495509759
 20
20.7427136268
 30
0.0
 10
16.5561299767
 20
20.5630745065
 30
0.0
 10
16.3580835619
 20
20.367946936
 30
0.0
 10
16.0808096594
 20
20.0822100174
 30
0.0
 10
15.7222669209
 20
19.6940008489
 30
0.0
 10
15.2803522766
 20
19.1975017893
 30
0.0
 10
14.8234284251
 20
18.6721512403
 30
0.0
 10
14.5154453452
 20
18.3127618665
 30
0.0
 10
14.3599758076
 20
18.1304432306
 30
0.0
  0
SPLINE
  5
22E
100
AcDbEntity
  8
0
100
AcDbSpline
 62
7
  6
BYLAYER
 70
0
 71
3
 72
20
 73
16
 74
0
 42
0.0000001
 43
0.0000001
 44
0.0000000001
 40
0.0
 40
0.0
 40
0.0
 40
0.0
 40
0.1519946151
 40
0.3003371394
 40
0.4418095743
 40
0.57381365
 40
0.6356281484
 40
0.6944451651
 40
0.7502169407
 40
0.8030977272
 40
0.8534312997
 40
0.9020312332
 40
0.9261436295
 40
0.9504284732
 40
1.0
 40
1.0
 40
1.0
 40
1.0
 10
21.1963974536
 20
18.1304431451
 30
0.0
 10
21.0409776186
 20
18.3127035026
 30
0.0
 10
20.7330417806
 20
18.6721386479
 30
0.0
 10
20.2760539725
 20
19.1974399269
 30
0.0
 10
19.8341004328
 20
19.6940132033
 30
0.0
 10
19.4755531423
 20
20.082220913
 30
0.0
 10
19.1982788852
 20
20.3679577299
 30
0.0
 10
19.000232586
 20
20.5630848505
 30
0.0
 10
18.8068118723
 20
20.7427226384
 30
0.0
 10
18.6157340139
 20
20.9049580658
 30
0.0
 10
18.424035717
 20
21.0484272743
 30
0.0
 10
18.2579254498
 20
21.1494625168
 30
0.0
 10
18.1191117528
 20
21.214002518
 30
0.0
 10
17.973236537
 20
21.2649418727
 30
0.0
 10
17.8563034425
 20
21.2830952371
 30
0.0
 10
17.7781834371
 20
21.2831123329
 30
0.0
  0
SPLINE
  5
22F
100
AcDbEntity
  8
0
100
AcDbSpline
 62
7
  6
BYLAYER
 70
0
 71
3
 72
29
 73
25
 74
0
 42
0.0000001
 43
0.0000001
 44
0.0000000001
 40
0.0
 40
0.0
 40
0.0
 40
0.0
 40
0.2167993501
 40
0.4126209868
 40
0.5017285898
 40
0.5845139661
 40
0.6606550517
 40
0.7298279124
 40
0.79172498
 40
0.8460603775
 40
0.8925485355
 40
0.9127633725
 40
0.9309253959
 40
0.9470145466
 40
0.9610107461
 40
0.9728938966
 40
0.9826438821
 40
0.9902405707
 40
0.9932253769
 40
0.9956665475
 40
0.997564337
 40
0.9989190035
 40
0.9997308051
 40
1.0
 40
1.0
 40
1.0
 40
1.0
 10
23.6433352044
 20
15.2155908096
 30
0.0
 10
23.6890585873
 20
15.1354523688
 30
0.0
 10
23.7777844097
 20
14.9838950742
 30
0.0
 10
23.8893757156
 20
14.8018366483
 30
0.0
 10
23.9729334484
 20
14.6695189364
 30
0.0
 10
24.0300061922
 20
14.5807195158
 30
0.0
 10
24.0830847097
 20
14.4994413205
 30
0.0
 10
24.1317748126
 20
14.4259169822
 30
0.0
 10
24.1757102643
 20
14.3603760374
 30
0.0
 10
24.2145632309
 20
14.3030517911
 30
0.0
 10
24.2436494772
 20
14.2605382506
 30
0.0
 10
24.2641192989
 20
14.2307825999
 30
0.0
 10
24.2772863185
 20
14.2117060634
 30
0.0
 10
24.2889754581
 20
14.1948247403
 30
0.0
 10
24.2991631205
 20
14.1801553854
 30
0.0
 10
24.3078301591
 20
14.1677104353
 30
0.0
 10
24.3149448308
 20
14.1575149096
 30
0.0
 10
24.3199139336
 20
14.1504117215
 30
0.0
 10
24.3230716799
 20
14.1458871781
 30
0.0
 10
24.3248937147
 20
14.143294994
 30
0.0
 10
24.3261866708
 20
14.1414049236
 30
0.0
 10
24.3273908806
 20
14.1397690944
 30
0.0
 10
24.3276094202
 20
14.139300107
 30
0.0
 10
24.3282589574
 20
14.138529386
 30
0.0
 10
24.3281658289
 20
14.1385961078
 30
0.0
  0
SPLINE
  5
230
100
AcDbEntity
  8
0
100
AcDbSpline
 62
7
  6
BYLAYER
 70
0
 71
3
 72
29
 73
25
 74
0
 42
0.0000001
 43
0.0000001
 44
0.0000000001
 40
0.0
 40
0.0
 40
0.0
 40
0.0
 40
0.0002676733
 40
0.0010693929
 40
0.0024032406
 40
0.0042673006
 40
0.0066596601
 40
0.0095784086
 40
0.0169874432
 40
0.0264791759
 40
0.0380384206
 40
0.0516500354
 40
0.067298923
 40
0.0849700313
 40
0.1046483545
 40
0.1499668134
 40
0.2031352313
 40
0.2640352863
 40
0.3325172271
 40
0.4083048179
 40
0.4910950856
 40
0.580591908
 40
0.778555184
 40
1.0
 40
1.0
 40
1.0
 40
1.0
 10
9.931025858
 20
16.6084796993
 30
0.0
 10
9.9311010282
 20
16.6084866679
 30
0.0
 10
9.9312954045
 20
16.6087749357
 30
0.0
 10
9.9318603564
 20
16.6091069822
 30
0.0
 10
9.9327134771
 20
16.6098728342
 30
0.0
 10
9.9339450507
 20
16.6108453763
 30
0.0
 10
9.9355079881
 20
16.6121354408
 30
0.0
 10
9.9382842839
 20
16.614405296
 30
0.0
 10
9.9425988531
 20
16.6179605824
 30
0.0
 10
9.9487835187
 20
16.6230762919
 30
0.0
 10
9.956299078
 20
16.6293284062
 30
0.0
 10
9.965130602
 20
16.6367135614
 30
0.0
 10
9.9752618823
 20
16.6452315177
 30
0.0
 10
9.9866771645
 20
16.6548809404
 30
0.0
 10
10.0044423988
 20
16.6699801775
 30
0.0
 10
10.0297443729
 20
16.6916704951
 30
0.0
 10
10.063712199
 20
16.7211138413
 30
0.0
 10
10.1024289078
 20
16.7550513594
 30
0.0
 10
10.1457237928
 20
16.7934427197
 30
0.0
 10
10.1932772043
 20
16.8363342294
 30
0.0
 10
10.2447390939
 20
16.8837367572
 30
0.0
 10
10.3206816453
 20
16.9554116524
 30
0.0
 10
10.4229761988
 20
17.0561192151
 30
0.0
 10
10.5045810099
 20
17.1417868113
 30
0.0
 10
10.5468652109
 20
17.1877500282
 30
0.0
  0
SPLINE
  5
231
100
AcDbEntity
  8
0
100
AcDbSpline
 62
7
  6
BYLAYER
 70
0
 71
3
 72
29
 73
25
 74
0
 42
0.0000001
 43
0.0000001
 44
0.0000000001
 40
0.0
 40
0.0
 40
0.0
 40
0.0
 40
0.0002731986
 40
0.0010885925
 40
0.0024459254
 40
0.0043449404
 40
0.0067853807
 40
0.0097669894
 40
0.0173526847
 40
0.0270973707
 40
0.0389825127
 40
0.0529849776
 40
0.0690816506
 40
0.0872494406
 40
0.1074652816
 40
0.153946877
 40
0.2082876038
 40
0.270193921
 40
0.3393708526
 40
0.4155147037
 40
0.4982998327
 40
0.5873995624
 40
0.7831977655
 40
1.0
 40
1.0
 40
1.0
 40
1.0
 10
11.2282075429
 20
14.1385960414
 30
0.0
 10
11.2283022184
 20
14.138663529
 30
0.0
 10
11.2285010826
 20
14.13910964
 30
0.0
 10
11.2291622775
 20
14.139898339
 30
0.0
 10
11.2301183897
 20
14.1413551224
 30
0.0
 10
11.2315232649
 20
14.1433262954
 30
0.0
 10
11.233301172
 20
14.1458867836
 30
0.0
 10
11.2364736191
 20
14.1504224818
 30
0.0
 10
11.241419525
 20
14.15751265
 30
0.0
 10
11.2485349702
 20
14.1677085334
 30
0.0
 10
11.2572015039
 20
14.1801523701
 30
0.0
 10
11.2673962184
 20
14.1948260247
 30
0.0
 10
11.2790927322
 20
14.2117120237
 30
0.0
 10
11.2922654786
 20
14.2307921041
 30
0.0
 10
11.3127351331
 20
14.2605479336
 30
0.0
 10
11.3418163065
 20
14.3030648406
 30
0.0
 10
11.3806754439
 20
14.3603889886
 30
0.0
 10
11.4246179645
 20
14.4259347671
 30
0.0
 10
11.4733060309
 20
14.4994686611
 30
0.0
 10
11.5263833834
 20
14.5807509386
 30
0.0
 10
11.583454371
 20
14.6695487635
 30
0.0
 10
11.6670044434
 20
14.8018554115
 30
0.0
 10
11.7785905059
 20
14.9839028071
 30
0.0
 10
11.867314099
 20
15.1354512722
 30
0.0
 10
11.9130380179
 20
15.2155908096
 30
0.0
  0
SPLINE
  5
232
100
AcDbEntity
  8
0
100
AcDbSpline
 62
7
  6
BYLAYER
 70
0
 71
3
 72
29
 73
25
 74
0
 42
0.0000001
 43
0.0000001
 44
0.0000000001
 40
0.0
 40
0.0
 40
0.0
 40
0.0
 40
0.2214437953
 40
0.4194071706
 40
0.5089042885
 40
0.5916949222
 40
0.6674828794
 40
0.7359651171
 40
0.7968653452
 40
0.8500338219
 40
0.8953522505
 40
0.915030533
 40
0.932701588
 40
0.9483504124
 40
0.9619619577
 40
0.9735211295
 40
0.983012789
 40
0.9904217533
 40
0.9933404688
 40
0.9957327971
 40
0.9975968283
 40
0.9989306498
 40
0.9997323463
 40
1.0
 40
1.0
 40
1.0
 40
1.0
 10
25.0095080909
 20
17.1877499309
 30
0.0
 10
25.0517920687
 20
17.1417869042
 30
0.0
 10
25.1333966868
 20
17.0561194899
 30
0.0
 10
25.235691128
 20
16.9554120752
 30
0.0
 10
25.3116338443
 20
16.8837370497
 30
0.0
 10
25.3630959517
 20
16.8363343357
 30
0.0
 10
25.4106495814
 20
16.7934426394
 30
0.0
 10
25.4539446457
 20
16.7550511295
 30
0.0
 10
25.4926614686
 20
16.7211135215
 30
0.0
 10
25.5266293478
 20
16.6916701464
 30
0.0
 10
25.5519313093
 20
16.6699798396
 30
0.0
 10
25.5696965434
 20
16.6548806276
 30
0.0
 10
25.5811117328
 20
16.6452312416
 30
0.0
 10
25.5912431614
 20
16.6367133036
 30
0.0
 10
25.6000740711
 20
16.6293282376
 30
0.0
 10
25.6075912453
 20
16.6230760098
 30
0.0
 10
25.6137712395
 20
16.6179607568
 30
0.0
 10
25.6180963923
 20
16.6144045309
 30
0.0
 10
25.620856385
 20
16.6121361751
 30
0.0
 10
25.6224535217
 20
16.6108430092
 30
0.0
 10
25.6235965179
 20
16.6098785351
 30
0.0
 10
25.6246504056
 20
16.609094423
 30
0.0
 10
25.6248624917
 20
16.608794486
 30
0.0
 10
25.6254226232
 20
16.6084729451
 30
0.0
 10
25.6253474348
 20
16.6084796519
 30
0.0
  0
ENDSEC
  0
SECTION
  2
OBJECTS
  0
DICTIONARY
  5
C
100
AcDbDictionary
280
0
281
1
  3
ACAD_GROUP
350
D
  3
ACAD_MLINESTYLE
350
17
  3
ACAD_LAYOUT
350
1A
  3
ACAD_PLOTSETTINGS
350
19
  3
ACAD_PLOTSTYLENAME
350
E
  0
DICTIONARY
  5
D
102
{ACAD_REACTORS
330
C
102
}
100
AcDbDictionary
280
0
281
1
  0
ACDBDICTIONARYWDFLT
  5
E
102
{ACAD_REACTORS
330
C
102
}
100
AcDbDictionary
281
1
  3
Normal
350
F
100
AcDbDictionaryWithDefault
340
F
  0
DICTIONARY
  5
17
102
{ACAD_REACTORS
330
C
102
}
100
AcDbDictionary
280
0
281
1
  3
Standard
350
18
  0
DICTIONARY
  5
19
102
{ACAD_REACTORS
330
C
102
}
100
AcDbDictionary
281
1
  0
DICTIONARY
  5
1A
102
{ACAD_REACTORS
330
C
102
}
100
AcDbDictionary
281
1
  3
Model
350
233
  3
Layout1
350
234
  0
ACDBPLACEHOLDER
  5
F
102
{ACAD_REACTORS
330
E
102
}
  0
MLINESTYLE
  5
18
102
{ACAD_REACTORS
330
17
102
}
100
AcDbMlineStyle
  2
STANDARD
 70
0
  3

 62
256
 51
90.0
 52
90.0
 71
2
 49
0.5
 62
256
  6
BYLAYER
 49
-0.5
 62
256
  6
BYLAYER
  0
LAYOUT
  5
233
102
{ACAD_REACTORS
330
1A
102
}
100
AcDbPlotSettings
  1

  2
none_device
  4

  6

 40
0.0
 41
0.0
 42
0.0
 43
0.0
 44
210.0
 45
297.0
 46
0.0
 47
0.0
 48
0.0
 49
0.0
140
0.0
141
0.0
142
1.0
143
1.0
 70
1024
 72
1
 73
0
 74
0
  7

 75
0
147
1.0
148
0.0
149
0.0
100
AcDbLayout
  1
Model
 70
0
 71
0
 10
0.0
 20
0.0
 11
210.0
 21
297.0
 12
0.0
 22
0.0
 32
0.0
 14
0.0
 24
0.0
 34
0.0
 15
0.0
 25
0.0
 35
0.0
146
0.0
 13
0.0
 23
0.0
 33
0.0
 16
1.0
 26
0.0
 36
0.0
 17
0.0
 27
1.0
 37
0.0
 76
0
330
210
345
0
346
0
  0
LAYOUT
  5
234
102
{ACAD_REACTORS
330
1A
102
}
100
AcDbPlotSettings
  1

  2
none_device
  4

  6

 40
0.0
 41
0.0
 42
0.0
 43
0.0
 44
210.0
 45
297.0
 46
0.0
 47
0.0
 48
0.0
 49
0.0
140
0.0
141
0.0
142
1.0
143
1.0
 70
0
 72
1
 73
0
 74
0
  7

 75
0
147
1.0
148
0.0
149
0.0
100
AcDbLayout
  1
Layout1
 70
0
 71
1
 10
0.0
 20
0.0
 11
210.0
 21
297.0
 12
0.0
 22
0.0
 32
0.0
 14
0.0
 24
0.0
 34
0.0
 15
0.0
 25
0.0
 35
0.0
146
0.0
 13
0.0
 23
0.0
 33
0.0
 16
1.0
 26
0.0
 36
0.0
 17
0.0
 27
1.0
 37
0.0
 76
0
330
211
345
0
346
0
  0
ENDSEC
  0
EOF
