999
DXF file: C:\Users\sesa63760\Dev\_Creo\CAD\MCADID0003945_3D-CAD\drw0001_3.dxf
999
Pro/ENGINEER 2019471 by Parametric Technology Corporation
  0
SECTION
  2
HEADER
  9
$ACADVER
  1
AC1024
  9
$DWGCODEPAGE
  3
ANSI_1252
  9
$EXTMAX
 10
39.6001610306
 20
56.005942029
 30
0.0
  9
$EXTMIN
 10
0.0
 20
0.0
 30
0.0
  9
$LIMMIN
 10
0.0
 20
0.0
  9
$LIMMAX
 10
39.6001610306
 20
56.005942029
  9
$VIEWCTR
 10
19.8000805153
 20
28.0029710145
  9
$VIEWSIZE
 40
56.005942029
  9
$CLAYER
  8
0
  9
$LTSCALE
 40
3.6507577026
  9
$CELTYPE
  6
BYLAYER
  9
$DIMSCALE
 40
1.0
  9
$DIMASZ
 40
0.4714304885
  9
$DIMEXO
 40
1.0
  9
$DIMDLI
 40
2.5223416855
  9
$DIMEXE
 40
1.0
  9
$DIMCEN
 40
0.597396715
  9
$DIMLFAC
 40
1.0
  9
$DIMBLK
  1
_FILLED
  9
$DIMALT
 70
0
  9
$DIMALTF
 40
0.0393700787
  9
$DIMTXT
 40
0.6600026838
  9
$DIMTOL
 70
1
  9
$DIMLIM
 70
0
  9
$DIMTFAC
 40
1.0
  9
$DIMTP
 40
0.01
  9
$DIMTM
 40
0.01
  9
$DIMGAP
 40
0.625
  9
$DIMDSEP
 70
46
  9
$AUNITS
 70
0
  9
$PDMODE
 70
3
  9
$PDSIZE
 40
0.3125
  9
$HANDSEED
  5
27E
  9
$TILEMODE
 70
1
  9
$MEASUREMENT
 70
1
  9
$INSUNITS
 70
4
  0
ENDSEC
  0
SECTION
  2
CLASSES
  0
CLASS
  1
ACDBDICTIONARYWDFLT
  2
AcDbDictionaryWithDefault
  3
AutoCAD 2000
 90
0
 91
1
280
0
281
0
  0
CLASS
  1
ACDBPLACEHOLDER
  2
AcDbPlaceHolder
  3
AutoCAD 2000
 90
0
 91
1
280
0
281
0
  0
CLASS
  1
LAYOUT
  2
AcDbLayout
  3
AutoCAD 2000
 90
0
 91
0
280
0
281
0
  0
ENDSEC
  0
SECTION
  2
TABLES
  0
TABLE
  2
VPORT
  5
8
100
AcDbSymbolTable
 70
2
  0
VPORT
  5
1F4
100
AcDbSymbolTableRecord
100
AcDbViewportTableRecord
  2
*ACTIVE
 70
0
 10
0.0
 20
0.0
 11
1.0
 21
1.0
 12
19.8000805153
 22
28.0029710145
 13
0.0
 23
0.0
 14
1.0
 24
1.0
 15
0.0
 25
0.0
 16
0.0
 26
0.0
 36
1.0
 17
0.0
 27
0.0
 37
0.0
 40
56.005942029
 41
0.7070707071
 42
50.0
 43
0.0
 44
0.0
 50
0.0
 51
0.0
 71
0
 72
100
 73
1
 74
1
 75
0
 76
0
 77
0
 78
0
  0
ENDTAB
  0
TABLE
  2
LTYPE
  5
5
100
AcDbSymbolTable
 70
6
  0
LTYPE
  5
14
100
AcDbSymbolTableRecord
100
AcDbLinetypeTableRecord
  2
BYBLOCK
 70
0
  3

 72
65
 73
0
 40
0.0
  0
LTYPE
  5
15
100
AcDbSymbolTableRecord
100
AcDbLinetypeTableRecord
  2
BYLAYER
 70
0
  3

 72
65
 73
0
 40
0.0
  0
LTYPE
  5
16
100
AcDbSymbolTableRecord
100
AcDbLinetypeTableRecord
  2
CONTINUOUS
 70
64
  3
Solid line
 72
65
 73
0
 40
0.0
  0
LTYPE
  5
1F5
100
AcDbSymbolTableRecord
100
AcDbLinetypeTableRecord
  2
CENTER
 70
64
  3
____ _ ____ _ ____ _ ____ _ ____ _ ____ _ ____
 72
65
 73
4
 40
0.6
 49
0.375
 74
0
 49
-0.075
 74
0
 49
0.075
 74
0
 49
-0.075
 74
0
  0
LTYPE
  5
1F6
100
AcDbSymbolTableRecord
100
AcDbLinetypeTableRecord
  2
HIDDEN
 70
64
  3
- - - - - - - - - - - - - - - - - - - -
 72
65
 73
2
 40
0.2
 49
0.1
 74
0
 49
-0.1
 74
0
  0
LTYPE
  5
1F7
100
AcDbSymbolTableRecord
100
AcDbLinetypeTableRecord
  2
PHANTOM
 70
64
  3
_____ _ _ _____ _ _ _____ _ _ _____
 72
65
 73
6
 40
0.8
 49
0.45
 74
0
 49
-0.05
 74
0
 49
0.1
 74
0
 49
-0.05
 74
0
 49
0.1
 74
0
 49
-0.05
 74
0
  0
LTYPE
  5
1F8
100
AcDbSymbolTableRecord
100
AcDbLinetypeTableRecord
  2
DOT
 70
64
  3
. . . . . . . . . . . . . . . . . . . .
 72
65
 73
2
 40
0.2
 49
0.1
 74
0
 49
-0.1
 74
0
  0
LTYPE
  5
1F9
100
AcDbSymbolTableRecord
100
AcDbLinetypeTableRecord
  2
DASHED
 70
64
  3
- - - - - - - - - - - - - - - - - - - -
 72
65
 73
2
 40
0.2
 49
0.1
 74
0
 49
-0.1
 74
0
  0
ENDTAB
  0
TABLE
  2
LAYER
  5
2
100
AcDbSymbolTable
 70
36
  0
LAYER
  5
10
100
AcDbSymbolTableRecord
100
AcDbLayerTableRecord
  2
0
 70
0
 62
7
  6
CONTINUOUS
370
-3
390
F
  0
LAYER
  5
1FA
100
AcDbSymbolTableRecord
100
AcDbLayerTableRecord
  2
DEFAULT_1
 70
0
 62
7
  6
CENTER
370
-3
390
F
  0
LAYER
  5
1FB
100
AcDbSymbolTableRecord
100
AcDbLayerTableRecord
  2
DEFAULT_2
 70
0
 62
7
  6
HIDDEN
370
-3
390
F
  0
LAYER
  5
1FC
100
AcDbSymbolTableRecord
100
AcDbLayerTableRecord
  2
DEFAULT_3
 70
0
 62
7
  6
PHANTOM
370
-3
390
F
  0
LAYER
  5
1FD
100
AcDbSymbolTableRecord
100
AcDbLayerTableRecord
  2
00_COMPONENTS
 70
0
 62
7
  6
CONTINUOUS
370
-3
390
F
  0
LAYER
  5
1FE
100
AcDbSymbolTableRecord
100
AcDbLayerTableRecord
  2
01_1_DEFAULT_DATUMS
 70
0
 62
7
  6
CONTINUOUS
370
-3
390
F
  0
LAYER
  5
1FF
100
AcDbSymbolTableRecord
100
AcDbLayerTableRecord
  2
01_PLANES
 70
0
 62
7
  6
CONTINUOUS
370
-3
390
F
  0
LAYER
  5
200
100
AcDbSymbolTableRecord
100
AcDbLayerTableRecord
  2
02_COORD_SYS
 70
0
 62
7
  6
CONTINUOUS
370
-3
390
F
  0
LAYER
  5
201
100
AcDbSymbolTableRecord
100
AcDbLayerTableRecord
  2
03_AXES
 70
0
 62
7
  6
CONTINUOUS
370
-3
390
F
  0
LAYER
  5
202
100
AcDbSymbolTableRecord
100
AcDbLayerTableRecord
  2
04_POINTS
 70
0
 62
7
  6
CONTINUOUS
370
-3
390
F
  0
LAYER
  5
203
100
AcDbSymbolTableRecord
100
AcDbLayerTableRecord
  2
05_CURVES
 70
0
 62
7
  6
CONTINUOUS
370
-3
390
F
  0
LAYER
  5
204
100
AcDbSymbolTableRecord
100
AcDbLayerTableRecord
  2
06_SURFS
 70
0
 62
7
  6
CONTINUOUS
370
-3
390
F
  0
LAYER
  5
205
100
AcDbSymbolTableRecord
100
AcDbLayerTableRecord
  2
07_COSMETICS
 70
0
 62
7
  6
CONTINUOUS
370
-3
390
F
  0
LAYER
  5
206
100
AcDbSymbolTableRecord
100
AcDbLayerTableRecord
  2
10_NOTES
 70
0
 62
7
  6
CONTINUOUS
370
-3
390
F
  0
LAYER
  5
207
100
AcDbSymbolTableRecord
100
AcDbLayerTableRecord
  2
11_NOTES_PUB
 70
0
 62
7
  6
CONTINUOUS
370
-3
390
F
  0
LAYER
  5
208
100
AcDbSymbolTableRecord
100
AcDbLayerTableRecord
  2
13_REF_GTOL
 70
0
 62
7
  6
CONTINUOUS
370
-3
390
F
  0
LAYER
  5
209
100
AcDbSymbolTableRecord
100
AcDbLayerTableRecord
  2
16_MISC
 70
0
 62
7
  6
CONTINUOUS
370
-3
390
F
  0
LAYER
  5
20A
100
AcDbSymbolTableRecord
100
AcDbLayerTableRecord
  2
17_NO_PRINT
 70
0
 62
7
  6
CONTINUOUS
370
-3
390
F
  0
LAYER
  5
20B
100
AcDbSymbolTableRecord
100
AcDbLayerTableRecord
  2
18_DATUM_CAMS_JOINTS
 70
0
 62
7
  6
CONTINUOUS
370
-3
390
F
  0
LAYER
  5
20C
100
AcDbSymbolTableRecord
100
AcDbLayerTableRecord
  2
19_DATUM_FUNCTIONAL
 70
0
 62
7
  6
CONTINUOUS
370
-3
390
F
  0
LAYER
  5
20D
100
AcDbSymbolTableRecord
100
AcDbLayerTableRecord
  2
20_DATUM_KINEMATIC_SCHEME
 70
0
 62
7
  6
CONTINUOUS
370
-3
390
F
  0
ENDTAB
  0
TABLE
  2
STYLE
  5
3
100
AcDbSymbolTable
 70
1
  0
STYLE
  5
11
100
AcDbSymbolTableRecord
100
AcDbTextStyleTableRecord
  2
STANDARD
 70
0
 40
0.0
 41
1.0
 50
0.0
 71
0
 42
0.2
  3
ARIAL.TTF
  4

  0
STYLE
  5
20E
100
AcDbSymbolTableRecord
100
AcDbTextStyleTableRecord
  2
TEXTSTYLE_1
 70
0
 40
0.0
 41
0.8
 50
0.0
 71
0
 42
0.2
  3
gdt
  4

  0
ENDTAB
  0
TABLE
  2
VIEW
  5
6
100
AcDbSymbolTable
 70
0
  0
ENDTAB
  0
TABLE
  2
UCS
  5
7
100
AcDbSymbolTable
 70
0
  0
ENDTAB
  0
TABLE
  2
APPID
  5
9
100
AcDbSymbolTable
 70
1
  0
APPID
  5
20F
100
AcDbSymbolTableRecord
100
AcDbRegAppTableRecord
  2
ACAD
 70
0
  0
ENDTAB
  0
TABLE
  2
BLOCK_RECORD
  5
1
100
AcDbSymbolTable
 70
0
  0
BLOCK_RECORD
  5
210
100
AcDbSymbolTableRecord
100
AcDbBlockTableRecord
  2
*Model_Space
  0
BLOCK_RECORD
  5
211
100
AcDbSymbolTableRecord
100
AcDbBlockTableRecord
  2
*Paper_Space
  0
BLOCK_RECORD
  5
212
100
AcDbSymbolTableRecord
100
AcDbBlockTableRecord
  2
_FILLED
  0
ENDTAB
  0
TABLE
  2
DIMSTYLE
  5
A
100
AcDbSymbolTable
 70
1
100
AcDbDimStyleTable
 71
0
  0
DIMSTYLE
105
213
100
AcDbSymbolTableRecord
100
AcDbDimStyleTableRecord
  2
STANDARD
 70
0
  3

  4

 40
1.0
 41
0.4714304885
 42
1.0
 43
0.38
 44
1.0
 45
0.0
 46
0.0
 47
0.01
 48
0.01
140
0.6600026838
141
0.09
142
0.0
143
25.4
144
1.0
145
0.0
146
1.0
147
0.625
 71
1
 72
0
 73
0
 74
0
 75
0
 76
0
 77
1
 78
8
 79
2
170
0
171
1
172
0
173
0
174
0
175
0
176
0
177
0
178
0
270
2
179
2
271
2
272
2
273
2
274
2
275
0
280
0
281
0
282
0
283
1
284
8
285
0
286
0
287
3
288
0
340
11
278
46
341
212
342
212
343
212
344
212
  0
ENDTAB
  0
ENDSEC
  0
SECTION
  2
BLOCKS
  0
BLOCK
  5
20
100
AcDbEntity
  8
0
100
AcDbBlockBegin
  2
*Model_Space
 70
0
 10
0.0
 20
0.0
 30
0.0
  3
*Model_Space
  1

  0
ENDBLK
  5
21
100
AcDbEntity
  8
0
100
AcDbBlockEnd
  0
BLOCK
  5
1C
100
AcDbEntity
  8
0
100
AcDbBlockBegin
  2
*Paper_Space
 70
0
 10
0.0
 20
0.0
 30
0.0
  3
*Paper_Space
  1

  0
ENDBLK
  5
1D
100
AcDbEntity
  8
0
100
AcDbBlockEnd
  0
BLOCK
  5
214
100
AcDbEntity
  8
0
100
AcDbBlockBegin
  2
_FILLED
 70
64
 10
0.0
 20
0.0
  3
_FILLED
  1

  0
SOLID
  5
215
100
AcDbEntity
  8
0
  6
BYBLOCK
 62
0
100
AcDbTrace
 10
0.0
 20
0.0
 11
-1.0
 21
0.25
 12
-1.0
 22
-0.25
 13
-1.0
 23
-0.25
  0
ENDBLK
  5
216
100
AcDbEntity
  8
0
  6
BYBLOCK
 62
0
100
AcDbBlockEnd
  0
ENDSEC
  0
SECTION
  2
ENTITIES
  0
LINE
  5
217
100
AcDbEntity
  8
0
100
AcDbLine
 62
7
  6
BYLAYER
 10
28.3984888692
 20
4.4900724638
 11
12.2984974128
 21
4.4900724638
  0
LINE
  5
218
100
AcDbEntity
  8
0
100
AcDbLine
 62
7
  6
BYLAYER
 10
28.5984974128
 20
4.6900724638
 11
21.2554152701
 21
4.6900724638
  0
LINE
  5
219
100
AcDbEntity
  8
0
100
AcDbLine
 62
7
  6
BYLAYER
 10
19.4415795554
 20
4.6900724638
 11
12.0984974128
 21
4.6900724638
  0
LINE
  5
21A
100
AcDbEntity
  8
0
100
AcDbLine
 62
7
  6
BYLAYER
 10
29.1483364187
 20
4.8900724638
 11
11.5484974128
 21
4.8900724638
  0
LINE
  5
21B
100
AcDbEntity
  8
0
100
AcDbLine
 62
7
  6
BYLAYER
 10
29.3484974128
 20
5.0900724638
 11
11.3484974128
 21
5.0900724638
  0
LINE
  5
21C
100
AcDbEntity
  8
0
100
AcDbLine
 62
7
  6
BYLAYER
 10
11.5484974128
 20
4.8900724638
 11
11.3484974128
 21
5.0900724638
  0
LINE
  5
21D
100
AcDbEntity
  8
0
100
AcDbLine
 62
7
  6
BYLAYER
 10
32.3484974128
 20
7.4900724638
 11
8.3484974103
 21
7.4900724638
  0
LINE
  5
21E
100
AcDbEntity
  8
0
100
AcDbLine
 62
7
  6
BYLAYER
 10
8.3484974128
 20
11.4900724638
 11
32.3484974128
 21
11.4900724638
  0
LINE
  5
21F
100
AcDbEntity
  8
0
100
AcDbLine
 62
7
  6
BYLAYER
 10
32.3484974128
 20
15.4900724638
 11
8.3484974128
 21
15.4900724638
  0
LINE
  5
220
100
AcDbEntity
  8
0
100
AcDbLine
 62
7
  6
BYLAYER
 10
8.3484974128
 20
11.4900724646
 11
8.3484974128
 21
7.4900724633
  0
LINE
  5
221
100
AcDbEntity
  8
0
100
AcDbLine
 62
7
  6
BYLAYER
 10
8.3484974128
 20
15.4900724629
 11
8.3484974128
 21
19.4900724642
  0
LINE
  5
222
100
AcDbEntity
  8
0
100
AcDbLine
 62
7
  6
BYLAYER
 10
8.7815101147
 20
11.0577914281
 11
8.7815101147
 21
7.9223534995
  0
LINE
  5
223
100
AcDbEntity
  8
0
100
AcDbLine
 62
7
  6
BYLAYER
 10
8.7815101147
 20
15.9223534385
 11
8.7815101147
 21
19.0577914891
  0
LINE
  5
224
100
AcDbEntity
  8
0
100
AcDbLine
 62
7
  6
BYLAYER
 10
11.3484974128
 20
5.0900724638
 11
11.3484974128
 21
7.4900724638
  0
LINE
  5
225
100
AcDbEntity
  8
0
100
AcDbLine
 62
7
  6
BYLAYER
 10
11.3484974128
 20
11.4900724638
 11
11.3484974128
 21
15.4900724638
  0
LINE
  5
226
100
AcDbEntity
  8
0
100
AcDbLine
 62
7
  6
BYLAYER
 10
11.3484974128
 20
19.4900724638
 11
11.3484974128
 21
28.7900724638
  0
LINE
  5
227
100
AcDbEntity
  8
0
100
AcDbLine
 62
7
  6
BYLAYER
 10
8.3484974103
 20
19.4900724638
 11
32.3484974128
 21
19.4900724638
  0
LINE
  5
228
100
AcDbEntity
  8
0
100
AcDbLine
 62
7
  6
BYLAYER
 10
12.0984974128
 20
4.6900724638
 11
12.0984974128
 21
4.8900724638
  0
LINE
  5
229
100
AcDbEntity
  8
0
100
AcDbLine
 62
7
  6
BYLAYER
 10
12.3484974128
 20
29.7900724638
 11
12.3484974128
 21
32.6900724638
  0
LINE
  5
22A
100
AcDbEntity
  8
0
100
AcDbLine
 62
7
  6
BYLAYER
 10
12.3484974128
 20
32.7900724638
 11
12.3484974128
 21
36.3900724638
  0
LINE
  5
22B
100
AcDbEntity
  8
0
100
AcDbLine
 62
7
  6
BYLAYER
 10
12.3984974128
 20
32.6900724638
 11
12.3984974128
 21
32.7900724638
  0
LINE
  5
22C
100
AcDbEntity
  8
0
100
AcDbLine
 62
7
  6
BYLAYER
 10
14.0454386363
 20
39.6248020993
 11
13.5984974128
 21
37.0900724638
  0
LINE
  5
22D
100
AcDbEntity
  8
0
100
AcDbLine
 62
7
  6
BYLAYER
 10
13.5984974128
 20
36.5900724638
 11
13.5984974128
 21
37.0900724638
  0
LINE
  5
22E
100
AcDbEntity
  8
0
100
AcDbLine
 62
7
  6
BYLAYER
 10
12.3484974128
 20
29.7900724638
 11
11.3484974128
 21
28.7900724638
  0
LINE
  5
22F
100
AcDbEntity
  8
0
100
AcDbLine
 62
7
  6
BYLAYER
 10
19.4415795554
 20
4.6900724638
 11
19.4415795554
 21
4.8900724638
  0
LINE
  5
230
100
AcDbEntity
  8
0
100
AcDbLine
 62
7
  6
BYLAYER
 10
19.9154847109
 20
11.0577914899
 11
19.9154847109
 21
7.9223534376
  0
LINE
  5
231
100
AcDbEntity
  8
0
100
AcDbLine
 62
7
  6
BYLAYER
 10
19.9154847109
 20
15.9223534989
 11
19.9154847109
 21
19.0577914287
  0
LINE
  5
232
100
AcDbEntity
  8
0
100
AcDbLine
 62
7
  6
BYLAYER
 10
20.6083050339
 20
11.0321825071
 11
20.6083050339
 21
7.9479624198
  0
LINE
  5
233
100
AcDbEntity
  8
0
100
AcDbLine
 62
7
  6
BYLAYER
 10
20.6083050339
 20
15.9479623927
 11
20.6083050339
 21
19.0321825349
  0
LINE
  5
234
100
AcDbEntity
  8
0
100
AcDbLine
 62
7
  6
BYLAYER
 10
21.2554152701
 20
4.8900724638
 11
21.2554152701
 21
4.6900724638
  0
LINE
  5
235
100
AcDbEntity
  8
0
100
AcDbLine
 62
7
  6
BYLAYER
 10
22.3183458938
 20
41.7900724638
 11
22.3183458938
 21
51.7900724638
  0
LINE
  5
236
100
AcDbEntity
  8
0
100
AcDbLine
 62
7
  6
BYLAYER
 10
21.9132284587
 20
41.600539655
 11
21.8282788874
 21
39.9796052726
  0
LINE
  5
237
100
AcDbEntity
  8
0
100
AcDbLine
 62
7
  6
BYLAYER
 10
11.3484974128
 20
28.7900724638
 11
29.3484974128
 21
28.7900724638
  0
LINE
  5
238
100
AcDbEntity
  8
0
100
AcDbLine
 62
7
  6
BYLAYER
 10
28.3484974128
 20
29.7900724638
 11
12.3484974128
 21
29.7900724638
  0
LINE
  5
239
100
AcDbEntity
  8
0
100
AcDbLine
 62
7
  6
BYLAYER
 10
24.8084129002
 20
39.9796052726
 11
24.7234633288
 21
41.600539655
  0
LINE
  5
23A
100
AcDbEntity
  8
0
100
AcDbLine
 62
7
  6
BYLAYER
 10
24.3183458938
 20
51.7900724638
 11
24.3183458938
 21
41.7900724638
  0
LINE
  5
23B
100
AcDbEntity
  8
0
100
AcDbLine
 62
7
  6
BYLAYER
 10
12.3486183658
 20
32.6900724638
 11
28.3483764598
 21
32.6900724638
  0
LINE
  5
23C
100
AcDbEntity
  8
0
100
AcDbLine
 62
7
  6
BYLAYER
 10
28.3483473194
 20
32.7900724638
 11
12.3484974128
 21
32.7900724638
  0
LINE
  5
23D
100
AcDbEntity
  8
0
100
AcDbLine
 62
7
  6
BYLAYER
 10
27.0984974128
 20
36.5900724638
 11
27.0984974128
 21
37.0900724638
  0
LINE
  5
23E
100
AcDbEntity
  8
0
100
AcDbLine
 62
7
  6
BYLAYER
 10
28.3484974128
 20
29.7900724638
 11
29.3484974128
 21
28.7900724638
  0
LINE
  5
23F
100
AcDbEntity
  8
0
100
AcDbLine
 62
7
  6
BYLAYER
 10
28.2984974128
 20
32.6900724638
 11
28.2984974128
 21
32.7900724638
  0
LINE
  5
240
100
AcDbEntity
  8
0
100
AcDbLine
 62
7
  6
BYLAYER
 10
28.3484974128
 20
29.7900724638
 11
28.3484974128
 21
32.6900724638
  0
LINE
  5
241
100
AcDbEntity
  8
0
100
AcDbLine
 62
7
  6
BYLAYER
 10
28.3484974128
 20
32.7900724638
 11
28.3484974128
 21
36.3900724638
  0
LINE
  5
242
100
AcDbEntity
  8
0
100
AcDbLine
 62
7
  6
BYLAYER
 10
28.5984974128
 20
4.6900724638
 11
28.5984974128
 21
4.8900724638
  0
LINE
  5
243
100
AcDbEntity
  8
0
100
AcDbLine
 62
7
  6
BYLAYER
 10
29.3484974128
 20
5.0900724638
 11
29.3484974128
 21
7.4900724638
  0
LINE
  5
244
100
AcDbEntity
  8
0
100
AcDbLine
 62
7
  6
BYLAYER
 10
29.3484974128
 20
11.4900724638
 11
29.3484974128
 21
15.4900724638
  0
LINE
  5
245
100
AcDbEntity
  8
0
100
AcDbLine
 62
7
  6
BYLAYER
 10
29.3484974128
 20
19.4900724638
 11
29.3484974128
 21
28.7900724638
  0
LINE
  5
246
100
AcDbEntity
  8
0
100
AcDbLine
 62
7
  6
BYLAYER
 10
12.3484974128
 20
36.3900724638
 11
28.3484974128
 21
36.3900724638
  0
LINE
  5
247
100
AcDbEntity
  8
0
100
AcDbLine
 62
7
  6
BYLAYER
 10
12.5486159342
 20
36.5900724638
 11
28.1483788914
 21
36.5900724638
  0
LINE
  5
248
100
AcDbEntity
  8
0
100
AcDbLine
 62
7
  6
BYLAYER
 10
13.5984974128
 20
37.0900724638
 11
27.0984974128
 21
37.0900724638
  0
LINE
  5
249
100
AcDbEntity
  8
0
100
AcDbLine
 62
7
  6
BYLAYER
 10
26.6515561892
 20
39.6248020993
 11
27.0984974128
 21
37.0900724638
  0
LINE
  5
24A
100
AcDbEntity
  8
0
100
AcDbLine
 62
7
  6
BYLAYER
 10
32.0886897917
 20
11.0321825351
 11
32.0886897917
 21
7.9479623925
  0
LINE
  5
24B
100
AcDbEntity
  8
0
100
AcDbLine
 62
7
  6
BYLAYER
 10
32.0886897917
 20
15.9479624203
 11
32.0886897917
 21
19.0321825079
  0
LINE
  5
24C
100
AcDbEntity
  8
0
100
AcDbLine
 62
7
  6
BYLAYER
 10
32.3484974128
 20
7.4900724617
 11
32.3484974128
 21
11.4900724651
  0
LINE
  5
24D
100
AcDbEntity
  8
0
100
AcDbLine
 62
7
  6
BYLAYER
 10
32.3484974128
 20
15.4900724625
 11
32.3484974128
 21
19.4900724658
  0
LINE
  5
24E
100
AcDbEntity
  8
0
100
AcDbLine
 62
7
  6
BYLAYER
 10
14.0454386363
 20
39.6248020993
 11
26.6515561892
 21
39.6248020993
  0
LINE
  5
24F
100
AcDbEntity
  8
0
100
AcDbLine
 62
7
  6
BYLAYER
 10
14.2424001869
 20
39.7900724638
 11
26.4543729938
 21
39.7900724638
  0
LINE
  5
250
100
AcDbEntity
  8
0
100
AcDbLine
 62
7
  6
BYLAYER
 10
24.8084129002
 20
39.9796052726
 11
21.8282788874
 21
39.9796052726
  0
LINE
  5
251
100
AcDbEntity
  8
0
100
AcDbLine
 62
7
  6
BYLAYER
 10
21.9132284587
 20
41.600539655
 11
24.7234633288
 21
41.600539655
  0
LINE
  5
252
100
AcDbEntity
  8
0
100
AcDbLine
 62
7
  6
BYLAYER
 10
22.1129543657
 20
41.7900724638
 11
24.5237374053
 21
41.7900724638
  0
LINE
  5
253
100
AcDbEntity
  8
0
100
AcDbLine
 62
7
  6
BYLAYER
 10
29.1484974128
 20
4.8900724638
 11
29.3484974128
 21
5.0900724638
  0
LINE
  5
254
100
AcDbEntity
  8
0
100
AcDbLine
 62
7
  6
BYLAYER
 10
22.3183458938
 20
51.7900724638
 11
24.3183458938
 21
51.7900724638
  0
ARC
  5
255
100
AcDbEntity
  8
0
100
AcDbCircle
 62
7
  6
BYLAYER
 10
18.3781905482
 20
-31.9164300584
 40
50.9973973433
100
AcDbArc
 50
87.4936582217
 51
88.2725821876
  0
ARC
  5
256
100
AcDbEntity
  8
0
100
AcDbCircle
 62
7
  6
BYLAYER
 10
18.3781905482
 20
-39.916430058
 40
50.9973973429
100
AcDbArc
 50
87.4936582217
 51
88.2725821876
  0
ARC
  5
257
100
AcDbEntity
  8
0
100
AcDbCircle
 62
7
  6
BYLAYER
 10
18.3781905484
 20
66.8965749806
 40
50.997397338
100
AcDbArc
 50
271.7274178124
 51
272.5063417784
  0
ARC
  5
258
100
AcDbEntity
  8
0
100
AcDbCircle
 62
7
  6
BYLAYER
 10
18.3781905484
 20
58.8965749803
 40
50.9973973378
100
AcDbArc
 50
271.7274178124
 51
272.5063417784
  0
ARC
  5
259
100
AcDbEntity
  8
0
100
AcDbCircle
 62
7
  6
BYLAYER
 10
9.7470136111
 20
-8.9411818302
 40
20.0222658764
100
AcDbArc
 50
92.7639597512
 51
94.005259677
  0
ARC
  5
25A
100
AcDbEntity
  8
0
100
AcDbCircle
 62
7
  6
BYLAYER
 10
9.7456059129
 20
35.8975245006
 40
19.9984234296
100
AcDbArc
 50
265.9940003437
 51
267.2367802255
  0
ARC
  5
25B
100
AcDbEntity
  8
0
100
AcDbCircle
 62
7
  6
BYLAYER
 10
9.7439562734
 20
-0.889486427
 40
19.9704831907
100
AcDbArc
 50
92.7623503681
 51
94.0068690627
  0
ARC
  5
25C
100
AcDbEntity
  8
0
100
AcDbCircle
 62
7
  6
BYLAYER
 10
9.7423305468
 20
27.8421425497
 40
19.9429479801
100
AcDbArc
 50
265.9922717519
 51
267.23850882
  0
ARC
  5
25D
100
AcDbEntity
  8
0
100
AcDbCircle
 62
7
  6
BYLAYER
 10
32.9325678971
 20
3.8015846773
 40
7.2796755173
100
AcDbArc
 50
94.6019609032
 51
96.656835653
  0
ARC
  5
25E
100
AcDbEntity
  8
0
100
AcDbCircle
 62
7
  6
BYLAYER
 10
32.9317180237
 20
23.1699381206
 40
7.271012998
100
AcDbArc
 50
263.3419401456
 51
265.3992632894
  0
ARC
  5
25F
100
AcDbEntity
  8
0
100
AcDbCircle
 62
7
  6
BYLAYER
 10
32.9299147009
 20
11.8283881233
 40
7.2527452233
100
AcDbArc
 50
94.5980576665
 51
96.6605629176
  0
ARC
  5
260
100
AcDbEntity
  8
0
100
AcDbCircle
 62
7
  6
BYLAYER
 10
32.9289326088
 20
15.1417931432
 40
7.2427349021
100
AcDbArc
 50
263.3380116165
 51
265.4033678038
  0
ARC
  5
261
100
AcDbEntity
  8
0
100
AcDbCircle
 62
7
  6
BYLAYER
 10
12.2984974128
 20
4.6900724638
 40
0.2
100
AcDbArc
 50
180.0
 51
270.0
  0
ARC
  5
262
100
AcDbEntity
  8
0
100
AcDbCircle
 62
7
  6
BYLAYER
 10
28.3984974128
 20
4.6900724638
 40
0.2
100
AcDbArc
 50
270.0
 51
360.0
  0
ARC
  5
263
100
AcDbEntity
  8
0
100
AcDbCircle
 62
7
  6
BYLAYER
 10
22.1129543657
 20
41.5900724638
 40
0.2
100
AcDbArc
 50
90.0
 51
177.0
  0
ARC
  5
264
100
AcDbEntity
  8
0
100
AcDbCircle
 62
7
  6
BYLAYER
 10
24.5237374219
 20
41.5900724638
 40
0.2
100
AcDbArc
 50
3.0
 51
90.0
  0
ARC
  5
265
100
AcDbEntity
  8
0
100
AcDbCircle
 62
7
  6
BYLAYER
 10
25.0081388071
 20
39.9900724638
 40
0.2
100
AcDbArc
 50
183.0
 51
270.0
  0
ARC
  5
266
100
AcDbEntity
  8
0
100
AcDbCircle
 62
7
  6
BYLAYER
 10
21.6285529804
 20
39.9900724638
 40
0.2
100
AcDbArc
 50
270.0
 51
357.0
  0
ARC
  5
267
100
AcDbEntity
  8
0
100
AcDbCircle
 62
7
  6
BYLAYER
 10
14.2424001869
 20
39.5900724638
 40
0.2
100
AcDbArc
 50
90.0
 51
170.0
  0
ARC
  5
268
100
AcDbEntity
  8
0
100
AcDbCircle
 62
7
  6
BYLAYER
 10
26.4545946386
 20
39.5900724638
 40
0.2
100
AcDbArc
 50
10.0
 51
90.0
  0
ARC
  5
269
100
AcDbEntity
  8
0
100
AcDbCircle
 62
7
  6
BYLAYER
 10
28.1484974128
 20
36.3900724638
 40
0.2
100
AcDbArc
 50
0.0
 51
90.0
  0
ARC
  5
26A
100
AcDbEntity
  8
0
100
AcDbCircle
 62
7
  6
BYLAYER
 10
12.5484974128
 20
36.3900724638
 40
0.2
100
AcDbArc
 50
90.0
 51
180.0
  0
SPLINE
  5
26B
100
AcDbEntity
  8
0
100
AcDbSpline
 62
7
  6
BYLAYER
 70
0
 71
3
 72
46
 73
42
 74
0
 42
0.0000001
 43
0.0000001
 44
0.0000000001
 40
0.0
 40
0.0
 40
0.0
 40
0.0
 40
0.0078203419
 40
0.0156509926
 40
0.0195642981
 40
0.0234727408
 40
0.0312879554
 40
0.0391011997
 40
0.0469140062
 40
0.0547272192
 40
0.0625396004
 40
0.0937829694
 40
0.125028847
 40
0.1562756963
 40
0.1875232059
 40
0.218770918
 40
0.2500187108
 40
0.3125131405
 40
0.3750080915
 40
0.437503397
 40
0.4999987669
 40
0.5624941342
 40
0.624989395
 40
0.6874844178
 40
0.7499788771
 40
0.8124719432
 40
0.8437194197
 40
0.8749665044
 40
0.8905905132
 40
0.9062144773
 40
0.9218383662
 40
0.9374619855
 40
0.9452744295
 40
0.9530865733
 40
0.9609001109
 40
0.9687154653
 40
0.976526659
 40
0.9804365242
 40
0.9843518922
 40
0.9921794592
 40
1.0
 40
1.0
 40
1.0
 40
1.0
 10
19.4415795554
 20
4.6900724638
 30
0.0
 10
19.4415795554
 20
4.6851935426
 30
0.0
 10
19.4452521094
 20
4.6754725437
 30
0.0
 10
19.4537615321
 20
4.6665778872
 30
0.0
 10
19.461511096
 20
4.6606233823
 30
0.0
 10
19.4696159894
 20
4.6551839451
 30
0.0
 10
19.4802594963
 20
4.6492098011
 30
0.0
 10
19.4934763815
 20
4.6429301329
 30
0.0
 10
19.5070558009
 20
4.6374831494
 30
0.0
 10
19.5208717743
 20
4.6326818049
 30
0.0
 10
19.5488134535
 20
4.6240531793
 30
0.0
 10
19.5913717717
 20
4.6132877612
 30
0.0
 10
19.6487683975
 20
4.6019996681
 30
0.0
 10
19.7065732898
 20
4.5930407665
 30
0.0
 10
19.764609308
 20
4.58578157
 30
0.0
 10
19.822771911
 20
4.5796294332
 30
0.0
 10
19.9004515005
 20
4.5727772907
 30
0.0
 10
19.9977211354
 20
4.5663039294
 30
0.0
 10
20.1145878631
 20
4.561268852
 30
0.0
 10
20.2315268373
 20
4.558429023
 30
0.0
 10
20.3484957463
 20
4.5574741284
 30
0.0
 10
20.4654653419
 20
4.558402199
 30
0.0
 10
20.5824027568
 20
4.56130608
 30
0.0
 10
20.6992687027
 20
4.5663687221
 30
0.0
 10
20.8159912797
 20
4.5740658451
 30
0.0
 10
20.9130497887
 20
4.583279411
 30
0.0
 10
20.990407601
 20
4.5931343572
 30
0.0
 10
21.0385771292
 20
4.6006092762
 30
0.0
 10
21.07692082
 20
4.6076890575
 30
0.0
 10
21.1055542625
 20
4.6136376614
 30
0.0
 10
21.1340255376
 20
4.6203270229
 30
0.0
 10
21.1575095568
 20
4.6268734805
 30
0.0
 10
21.1760633974
 20
4.6328638934
 30
0.0
 10
21.1898617754
 20
4.6377098135
 30
0.0
 10
21.2034820671
 20
4.6430461686
 30
0.0
 10
21.2168129024
 20
4.6490827751
 30
0.0
 10
21.2274500369
 20
4.6550847176
 30
0.0
 10
21.2354945848
 20
4.6606121929
 30
0.0
 10
21.2432128297
 20
4.6666033548
 30
0.0
 10
21.2517551876
 20
4.6754642767
 30
0.0
 10
21.2554152701
 20
4.6851934186
 30
0.0
 10
21.2554152701
 20
4.6900724638
 30
0.0
  0
SPLINE
  5
26C
100
AcDbEntity
  8
0
100
AcDbSpline
 62
7
  6
BYLAYER
 70
0
 71
3
 72
11
 73
7
 74
0
 42
0.0000001
 43
0.0000001
 44
0.0000000001
 40
0.0
 40
0.0
 40
0.0
 40
0.0
 40
0.2497610148
 40
0.4996305173
 40
0.7496940754
 40
1.0
 40
1.0
 40
1.0
 40
1.0
 10
26.3484973374
 20
19.4900714088
 30
0.0
 10
26.8283300423
 20
19.4900722989
 30
0.0
 10
27.7883257385
 20
19.469377797
 30
0.0
 10
29.2261001056
 20
19.3782731495
 30
0.0
 10
30.6603281383
 20
19.2322998405
 30
0.0
 10
31.6131022613
 20
19.1033278503
 30
0.0
 10
32.0886897917
 20
19.0321825079
 30
0.0
  0
SPLINE
  5
26D
100
AcDbEntity
  8
0
100
AcDbSpline
 62
7
  6
BYLAYER
 70
0
 71
3
 72
11
 73
7
 74
0
 42
0.0000001
 43
0.0000001
 44
0.0000000001
 40
0.0
 40
0.0
 40
0.0
 40
0.0
 40
0.2497610148
 40
0.4996305173
 40
0.7496940754
 40
1.0
 40
1.0
 40
1.0
 40
1.0
 10
26.348497303
 20
15.4900735188
 30
0.0
 10
25.8686646136
 20
15.4900726313
 30
0.0
 10
24.908668948
 20
15.5107671258
 30
0.0
 10
23.4708946279
 20
15.6018717889
 30
0.0
 10
22.0366666421
 20
15.7478450981
 30
0.0
 10
21.083892549
 20
15.8768170797
 30
0.0
 10
20.6083050339
 20
15.9479624197
 30
0.0
  0
SPLINE
  5
26E
100
AcDbEntity
  8
0
100
AcDbSpline
 62
7
  6
BYLAYER
 70
0
 71
3
 72
11
 73
7
 74
0
 42
0.0000001
 43
0.0000001
 44
0.0000000001
 40
0.0
 40
0.0
 40
0.0
 40
0.0
 40
0.2502906423
 40
0.5003498602
 40
0.7502261965
 40
1.0
 40
1.0
 40
1.0
 40
1.0
 10
19.9154847109
 20
15.9223534989
 30
0.0
 10
19.454137706
 20
15.854951025
 30
0.0
 10
18.5299365678
 20
15.7329434722
 30
0.0
 10
17.1389195749
 20
15.5952753416
 30
0.0
 10
15.7446459407
 20
15.5095144888
 30
0.0
 10
14.8137792805
 20
15.4900728076
 30
0.0
 10
14.3484973202
 20
15.4900735182
 30
0.0
  0
SPLINE
  5
26F
100
AcDbEntity
  8
0
100
AcDbSpline
 62
7
  6
BYLAYER
 70
0
 71
3
 72
11
 73
7
 74
0
 42
0.0000001
 43
0.0000001
 44
0.0000000001
 40
0.0
 40
0.0
 40
0.0
 40
0.0
 40
0.2503070893
 40
0.5003710161
 40
0.7502402897
 40
1.0
 40
1.0
 40
1.0
 40
1.0
 10
20.6083050339
 20
19.0321825071
 30
0.0
 10
21.083894827
 20
19.1033281879
 30
0.0
 10
22.0366691105
 20
19.2323231123
 30
0.0
 10
23.4709026386
 20
19.3782697989
 30
0.0
 10
24.9086738386
 20
19.4693882808
 30
0.0
 10
25.8686670885
 20
19.4900728139
 30
0.0
 10
26.3484973374
 20
19.4900714088
 30
0.0
  0
SPLINE
  5
270
100
AcDbEntity
  8
0
100
AcDbSpline
 62
7
  6
BYLAYER
 70
0
 71
3
 72
11
 73
7
 74
0
 42
0.0000001
 43
0.0000001
 44
0.0000000001
 40
0.0
 40
0.0
 40
0.0
 40
0.0
 40
0.2497738053
 40
0.4996501424
 40
0.7497093592
 40
1.0
 40
1.0
 40
1.0
 40
1.0
 10
14.3484973202
 20
19.4900714093
 30
0.0
 10
14.8137792839
 20
19.4900721199
 30
0.0
 10
15.7446459489
 20
19.4706304401
 30
0.0
 10
17.1389195861
 20
19.3848695888
 30
0.0
 10
18.5299365745
 20
19.247201447
 30
0.0
 10
19.4541377088
 20
19.1251939021
 30
0.0
 10
19.9154847109
 20
19.0577914287
 30
0.0
  0
SPLINE
  5
271
100
AcDbEntity
  8
0
100
AcDbSpline
 62
7
  6
BYLAYER
 70
0
 71
3
 72
11
 73
7
 74
0
 42
0.0000001
 43
0.0000001
 44
0.0000000001
 40
0.0
 40
0.0
 40
0.0
 40
0.0
 40
0.2502906423
 40
0.5003498602
 40
0.7502261965
 40
1.0
 40
1.0
 40
1.0
 40
1.0
 10
8.7815101147
 20
19.0577914281
 30
0.0
 10
9.2428571042
 20
19.1251938997
 30
0.0
 10
10.1670582125
 20
19.2472014437
 30
0.0
 10
11.5580751584
 20
19.3848695769
 30
0.0
 10
12.9523487458
 20
19.4706304428
 30
0.0
 10
13.8832153754
 20
19.4900721174
 30
0.0
 10
14.3484973202
 20
19.4900714093
 30
0.0
  0
SPLINE
  5
272
100
AcDbEntity
  8
0
100
AcDbSpline
 62
7
  6
BYLAYER
 70
0
 71
3
 72
11
 73
7
 74
0
 42
0.0000001
 43
0.0000001
 44
0.0000000001
 40
0.0
 40
0.0
 40
0.0
 40
0.0
 40
0.2497738053
 40
0.4996501424
 40
0.7497093592
 40
1.0
 40
1.0
 40
1.0
 40
1.0
 10
14.3484973202
 20
15.4900735182
 30
0.0
 10
13.883215372
 20
15.4900728102
 30
0.0
 10
12.9523487376
 20
15.5095144835
 30
0.0
 10
11.5580751472
 20
15.5952753479
 30
0.0
 10
10.1670582059
 20
15.7329434922
 30
0.0
 10
9.2428571015
 20
15.8549510282
 30
0.0
 10
8.7815101147
 20
15.9223534995
 30
0.0
  0
SPLINE
  5
273
100
AcDbEntity
  8
0
100
AcDbSpline
 62
7
  6
BYLAYER
 70
0
 71
3
 72
11
 73
7
 74
0
 42
0.0000001
 43
0.0000001
 44
0.0000000001
 40
0.0
 40
0.0
 40
0.0
 40
0.0
 40
0.2503070893
 40
0.5003710161
 40
0.7502402897
 40
1.0
 40
1.0
 40
1.0
 40
1.0
 10
32.0886897917
 20
15.9479624203
 30
0.0
 10
31.6130999834
 20
15.8768167372
 30
0.0
 10
30.6603256691
 20
15.7478218092
 30
0.0
 10
29.2260920948
 20
15.6018751203
 30
0.0
 10
27.7883208482
 20
15.5107566401
 30
0.0
 10
26.8283275674
 20
15.490072111
 30
0.0
 10
26.348497303
 20
15.4900735188
 30
0.0
  0
SPLINE
  5
274
100
AcDbEntity
  8
0
100
AcDbSpline
 62
7
  6
BYLAYER
 70
0
 71
3
 72
11
 73
7
 74
0
 42
0.0000001
 43
0.0000001
 44
0.0000000001
 40
0.0
 40
0.0
 40
0.0
 40
0.0
 40
0.2503070893
 40
0.5003710161
 40
0.7502402897
 40
1.0
 40
1.0
 40
1.0
 40
1.0
 10
20.6083050339
 20
11.0321825071
 30
0.0
 10
21.083894827
 20
11.1033281879
 30
0.0
 10
22.0366691105
 20
11.2323231123
 30
0.0
 10
23.4709026386
 20
11.3782697989
 30
0.0
 10
24.9086738386
 20
11.4693882808
 30
0.0
 10
25.8686670885
 20
11.4900728139
 30
0.0
 10
26.3484973374
 20
11.4900714088
 30
0.0
  0
SPLINE
  5
275
100
AcDbEntity
  8
0
100
AcDbSpline
 62
7
  6
BYLAYER
 70
0
 71
3
 72
11
 73
7
 74
0
 42
0.0000001
 43
0.0000001
 44
0.0000000001
 40
0.0
 40
0.0
 40
0.0
 40
0.0
 40
0.2497738053
 40
0.4996501424
 40
0.7497093592
 40
1.0
 40
1.0
 40
1.0
 40
1.0
 10
14.3484973202
 20
11.4900714094
 30
0.0
 10
14.8137792839
 20
11.4900721199
 30
0.0
 10
15.7446459489
 20
11.47063044
 30
0.0
 10
17.1389195861
 20
11.3848695888
 30
0.0
 10
18.5299365745
 20
11.247201447
 30
0.0
 10
19.4541377088
 20
11.1251939021
 30
0.0
 10
19.9154847109
 20
11.0577914287
 30
0.0
  0
SPLINE
  5
276
100
AcDbEntity
  8
0
100
AcDbSpline
 62
7
  6
BYLAYER
 70
0
 71
3
 72
11
 73
7
 74
0
 42
0.0000001
 43
0.0000001
 44
0.0000000001
 40
0.0
 40
0.0
 40
0.0
 40
0.0
 40
0.2497610148
 40
0.4996305173
 40
0.7496940754
 40
1.0
 40
1.0
 40
1.0
 40
1.0
 10
26.348497303
 20
7.4900735187
 30
0.0
 10
25.8686646136
 20
7.4900726313
 30
0.0
 10
24.908668948
 20
7.5107671258
 30
0.0
 10
23.4708946279
 20
7.6018717889
 30
0.0
 10
22.0366666421
 20
7.7478450981
 30
0.0
 10
21.083892549
 20
7.8768170797
 30
0.0
 10
20.6083050339
 20
7.9479624198
 30
0.0
  0
SPLINE
  5
277
100
AcDbEntity
  8
0
100
AcDbSpline
 62
7
  6
BYLAYER
 70
0
 71
3
 72
11
 73
7
 74
0
 42
0.0000001
 43
0.0000001
 44
0.0000000001
 40
0.0
 40
0.0
 40
0.0
 40
0.0
 40
0.2502906423
 40
0.5003498602
 40
0.7502261965
 40
1.0
 40
1.0
 40
1.0
 40
1.0
 10
19.9154847109
 20
7.9223534989
 30
0.0
 10
19.454137706
 20
7.854951025
 30
0.0
 10
18.5299365678
 20
7.7329434722
 30
0.0
 10
17.1389195749
 20
7.5952753416
 30
0.0
 10
15.7446459407
 20
7.5095144888
 30
0.0
 10
14.8137792805
 20
7.4900728076
 30
0.0
 10
14.3484973202
 20
7.4900735182
 30
0.0
  0
SPLINE
  5
278
100
AcDbEntity
  8
0
100
AcDbSpline
 62
7
  6
BYLAYER
 70
0
 71
3
 72
11
 73
7
 74
0
 42
0.0000001
 43
0.0000001
 44
0.0000000001
 40
0.0
 40
0.0
 40
0.0
 40
0.0
 40
0.2497610148
 40
0.4996305173
 40
0.7496940754
 40
1.0
 40
1.0
 40
1.0
 40
1.0
 10
26.3484973374
 20
11.4900714088
 30
0.0
 10
26.8283300423
 20
11.4900722989
 30
0.0
 10
27.7883257385
 20
11.469377797
 30
0.0
 10
29.2261001056
 20
11.3782731495
 30
0.0
 10
30.6603281383
 20
11.2322998405
 30
0.0
 10
31.6131022613
 20
11.1033278503
 30
0.0
 10
32.0886897917
 20
11.0321825079
 30
0.0
  0
SPLINE
  5
279
100
AcDbEntity
  8
0
100
AcDbSpline
 62
7
  6
BYLAYER
 70
0
 71
3
 72
11
 73
7
 74
0
 42
0.0000001
 43
0.0000001
 44
0.0000000001
 40
0.0
 40
0.0
 40
0.0
 40
0.0
 40
0.2503070893
 40
0.5003710161
 40
0.7502402897
 40
1.0
 40
1.0
 40
1.0
 40
1.0
 10
32.0886897917
 20
7.9479624203
 30
0.0
 10
31.6130999834
 20
7.8768167372
 30
0.0
 10
30.6603256691
 20
7.7478218092
 30
0.0
 10
29.2260920948
 20
7.6018751203
 30
0.0
 10
27.7883208482
 20
7.5107566402
 30
0.0
 10
26.8283275674
 20
7.490072111
 30
0.0
 10
26.348497303
 20
7.4900735187
 30
0.0
  0
SPLINE
  5
27A
100
AcDbEntity
  8
0
100
AcDbSpline
 62
7
  6
BYLAYER
 70
0
 71
3
 72
11
 73
7
 74
0
 42
0.0000001
 43
0.0000001
 44
0.0000000001
 40
0.0
 40
0.0
 40
0.0
 40
0.0
 40
0.2502906423
 40
0.5003498602
 40
0.7502261965
 40
1.0
 40
1.0
 40
1.0
 40
1.0
 10
8.7815101147
 20
11.0577914281
 30
0.0
 10
9.2428571042
 20
11.1251938997
 30
0.0
 10
10.1670582125
 20
11.2472014437
 30
0.0
 10
11.5580751584
 20
11.3848695769
 30
0.0
 10
12.9523487458
 20
11.4706304427
 30
0.0
 10
13.8832153754
 20
11.4900721174
 30
0.0
 10
14.3484973202
 20
11.4900714094
 30
0.0
  0
SPLINE
  5
27B
100
AcDbEntity
  8
0
100
AcDbSpline
 62
7
  6
BYLAYER
 70
0
 71
3
 72
11
 73
7
 74
0
 42
0.0000001
 43
0.0000001
 44
0.0000000001
 40
0.0
 40
0.0
 40
0.0
 40
0.0
 40
0.2497738053
 40
0.4996501424
 40
0.7497093592
 40
1.0
 40
1.0
 40
1.0
 40
1.0
 10
14.3484973202
 20
7.4900735182
 30
0.0
 10
13.883215372
 20
7.4900728102
 30
0.0
 10
12.9523487376
 20
7.5095144835
 30
0.0
 10
11.5580751472
 20
7.5952753479
 30
0.0
 10
10.1670582059
 20
7.7329434922
 30
0.0
 10
9.2428571015
 20
7.8549510282
 30
0.0
 10
8.7815101147
 20
7.9223534995
 30
0.0
  0
ENDSEC
  0
SECTION
  2
OBJECTS
  0
DICTIONARY
  5
C
100
AcDbDictionary
280
0
281
1
  3
ACAD_GROUP
350
D
  3
ACAD_MLINESTYLE
350
17
  3
ACAD_LAYOUT
350
1A
  3
ACAD_PLOTSETTINGS
350
19
  3
ACAD_PLOTSTYLENAME
350
E
  0
DICTIONARY
  5
D
102
{ACAD_REACTORS
330
C
102
}
100
AcDbDictionary
280
0
281
1
  0
ACDBDICTIONARYWDFLT
  5
E
102
{ACAD_REACTORS
330
C
102
}
100
AcDbDictionary
281
1
  3
Normal
350
F
100
AcDbDictionaryWithDefault
340
F
  0
DICTIONARY
  5
17
102
{ACAD_REACTORS
330
C
102
}
100
AcDbDictionary
280
0
281
1
  3
Standard
350
18
  0
DICTIONARY
  5
19
102
{ACAD_REACTORS
330
C
102
}
100
AcDbDictionary
281
1
  0
DICTIONARY
  5
1A
102
{ACAD_REACTORS
330
C
102
}
100
AcDbDictionary
281
1
  3
Model
350
27C
  3
Layout1
350
27D
  0
ACDBPLACEHOLDER
  5
F
102
{ACAD_REACTORS
330
E
102
}
  0
MLINESTYLE
  5
18
102
{ACAD_REACTORS
330
17
102
}
100
AcDbMlineStyle
  2
STANDARD
 70
0
  3

 62
256
 51
90.0
 52
90.0
 71
2
 49
0.5
 62
256
  6
BYLAYER
 49
-0.5
 62
256
  6
BYLAYER
  0
LAYOUT
  5
27C
102
{ACAD_REACTORS
330
1A
102
}
100
AcDbPlotSettings
  1

  2
none_device
  4

  6

 40
0.0
 41
0.0
 42
0.0
 43
0.0
 44
210.0
 45
297.0
 46
0.0
 47
0.0
 48
0.0
 49
0.0
140
0.0
141
0.0
142
1.0
143
1.0
 70
1024
 72
1
 73
0
 74
0
  7

 75
0
147
1.0
148
0.0
149
0.0
100
AcDbLayout
  1
Model
 70
0
 71
0
 10
0.0
 20
0.0
 11
210.0
 21
297.0
 12
0.0
 22
0.0
 32
0.0
 14
0.0
 24
0.0
 34
0.0
 15
0.0
 25
0.0
 35
0.0
146
0.0
 13
0.0
 23
0.0
 33
0.0
 16
1.0
 26
0.0
 36
0.0
 17
0.0
 27
1.0
 37
0.0
 76
0
330
210
345
0
346
0
  0
LAYOUT
  5
27D
102
{ACAD_REACTORS
330
1A
102
}
100
AcDbPlotSettings
  1

  2
none_device
  4

  6

 40
0.0
 41
0.0
 42
0.0
 43
0.0
 44
210.0
 45
297.0
 46
0.0
 47
0.0
 48
0.0
 49
0.0
140
0.0
141
0.0
142
1.0
143
1.0
 70
0
 72
1
 73
0
 74
0
  7

 75
0
147
1.0
148
0.0
149
0.0
100
AcDbLayout
  1
Layout1
 70
0
 71
1
 10
0.0
 20
0.0
 11
210.0
 21
297.0
 12
0.0
 22
0.0
 32
0.0
 14
0.0
 24
0.0
 34
0.0
 15
0.0
 25
0.0
 35
0.0
146
0.0
 13
0.0
 23
0.0
 33
0.0
 16
1.0
 26
0.0
 36
0.0
 17
0.0
 27
1.0
 37
0.0
 76
0
330
211
345
0
346
0
  0
ENDSEC
  0
EOF
