999
DXF file: C:\Users\sesa63760\Dev\_Creo\CAD\MCADID0003405_3D-CAD\drw0001_7.dxf
999
Pro/ENGINEER 2019471 by Parametric Technology Corporation
  0
SECTION
  2
HEADER
  9
$ACADVER
  1
AC1024
  9
$DWGCODEPAGE
  3
ANSI_1252
  9
$EXTMAX
 10
39.1859514179
 20
55.420131291
 30
0.0
  9
$EXTMIN
 10
0.0
 20
0.0
 30
0.0
  9
$LIMMIN
 10
0.0
 20
0.0
  9
$LIMMAX
 10
39.1859514179
 20
55.420131291
  9
$VIEWCTR
 10
19.5929757089
 20
27.7100656455
  9
$VIEWSIZE
 40
55.420131291
  9
$CLAYER
  8
0
  9
$LTSCALE
 40
3.6125715212
  9
$CELTYPE
  6
BYLAYER
  9
$DIMSCALE
 40
1.0
  9
$DIMASZ
 40
0.4664994216
  9
$DIMEXO
 40
1.0
  9
$DIMDLI
 40
2.4959585056
  9
$DIMEXE
 40
1.0
  9
$DIMCEN
 40
0.5911480671
  9
$DIMLFAC
 40
1.0
  9
$DIMBLK
  1
_FILLED
  9
$DIMALT
 70
0
  9
$DIMALTF
 40
0.0393700787
  9
$DIMTXT
 40
0.6530991903
  9
$DIMTOL
 70
1
  9
$DIMLIM
 70
0
  9
$DIMTFAC
 40
1.0
  9
$DIMTP
 40
0.01
  9
$DIMTM
 40
0.01
  9
$DIMGAP
 40
0.625
  9
$DIMDSEP
 70
46
  9
$AUNITS
 70
0
  9
$PDMODE
 70
3
  9
$PDSIZE
 40
0.3125
  9
$HANDSEED
  5
25E
  9
$TILEMODE
 70
1
  9
$MEASUREMENT
 70
1
  9
$INSUNITS
 70
4
  0
ENDSEC
  0
SECTION
  2
CLASSES
  0
CLASS
  1
ACDBDICTIONARYWDFLT
  2
AcDbDictionaryWithDefault
  3
AutoCAD 2000
 90
0
 91
1
280
0
281
0
  0
CLASS
  1
ACDBPLACEHOLDER
  2
AcDbPlaceHolder
  3
AutoCAD 2000
 90
0
 91
1
280
0
281
0
  0
CLASS
  1
LAYOUT
  2
AcDbLayout
  3
AutoCAD 2000
 90
0
 91
0
280
0
281
0
  0
ENDSEC
  0
SECTION
  2
TABLES
  0
TABLE
  2
VPORT
  5
8
100
AcDbSymbolTable
 70
2
  0
VPORT
  5
1F4
100
AcDbSymbolTableRecord
100
AcDbViewportTableRecord
  2
*ACTIVE
 70
0
 10
0.0
 20
0.0
 11
1.0
 21
1.0
 12
19.5929757089
 22
27.7100656455
 13
0.0
 23
0.0
 14
1.0
 24
1.0
 15
0.0
 25
0.0
 16
0.0
 26
0.0
 36
1.0
 17
0.0
 27
0.0
 37
0.0
 40
55.420131291
 41
0.7070707071
 42
50.0
 43
0.0
 44
0.0
 50
0.0
 51
0.0
 71
0
 72
100
 73
1
 74
1
 75
0
 76
0
 77
0
 78
0
  0
ENDTAB
  0
TABLE
  2
LTYPE
  5
5
100
AcDbSymbolTable
 70
6
  0
LTYPE
  5
14
100
AcDbSymbolTableRecord
100
AcDbLinetypeTableRecord
  2
BYBLOCK
 70
0
  3

 72
65
 73
0
 40
0.0
  0
LTYPE
  5
15
100
AcDbSymbolTableRecord
100
AcDbLinetypeTableRecord
  2
BYLAYER
 70
0
  3

 72
65
 73
0
 40
0.0
  0
LTYPE
  5
16
100
AcDbSymbolTableRecord
100
AcDbLinetypeTableRecord
  2
CONTINUOUS
 70
64
  3
Solid line
 72
65
 73
0
 40
0.0
  0
LTYPE
  5
1F5
100
AcDbSymbolTableRecord
100
AcDbLinetypeTableRecord
  2
CENTER
 70
64
  3
____ _ ____ _ ____ _ ____ _ ____ _ ____ _ ____
 72
65
 73
4
 40
0.6
 49
0.375
 74
0
 49
-0.075
 74
0
 49
0.075
 74
0
 49
-0.075
 74
0
  0
LTYPE
  5
1F6
100
AcDbSymbolTableRecord
100
AcDbLinetypeTableRecord
  2
HIDDEN
 70
64
  3
- - - - - - - - - - - - - - - - - - - -
 72
65
 73
2
 40
0.2
 49
0.1
 74
0
 49
-0.1
 74
0
  0
LTYPE
  5
1F7
100
AcDbSymbolTableRecord
100
AcDbLinetypeTableRecord
  2
PHANTOM
 70
64
  3
_____ _ _ _____ _ _ _____ _ _ _____
 72
65
 73
6
 40
0.8
 49
0.45
 74
0
 49
-0.05
 74
0
 49
0.1
 74
0
 49
-0.05
 74
0
 49
0.1
 74
0
 49
-0.05
 74
0
  0
LTYPE
  5
1F8
100
AcDbSymbolTableRecord
100
AcDbLinetypeTableRecord
  2
DOT
 70
64
  3
. . . . . . . . . . . . . . . . . . . .
 72
65
 73
2
 40
0.2
 49
0.1
 74
0
 49
-0.1
 74
0
  0
LTYPE
  5
1F9
100
AcDbSymbolTableRecord
100
AcDbLinetypeTableRecord
  2
DASHED
 70
64
  3
- - - - - - - - - - - - - - - - - - - -
 72
65
 73
2
 40
0.2
 49
0.1
 74
0
 49
-0.1
 74
0
  0
ENDTAB
  0
TABLE
  2
LAYER
  5
2
100
AcDbSymbolTable
 70
36
  0
LAYER
  5
10
100
AcDbSymbolTableRecord
100
AcDbLayerTableRecord
  2
0
 70
0
 62
7
  6
CONTINUOUS
370
-3
390
F
  0
LAYER
  5
1FA
100
AcDbSymbolTableRecord
100
AcDbLayerTableRecord
  2
DEFAULT_1
 70
0
 62
7
  6
CENTER
370
-3
390
F
  0
LAYER
  5
1FB
100
AcDbSymbolTableRecord
100
AcDbLayerTableRecord
  2
DEFAULT_2
 70
0
 62
7
  6
HIDDEN
370
-3
390
F
  0
LAYER
  5
1FC
100
AcDbSymbolTableRecord
100
AcDbLayerTableRecord
  2
DEFAULT_3
 70
0
 62
7
  6
PHANTOM
370
-3
390
F
  0
LAYER
  5
1FD
100
AcDbSymbolTableRecord
100
AcDbLayerTableRecord
  2
00_COMPONENTS
 70
0
 62
7
  6
CONTINUOUS
370
-3
390
F
  0
LAYER
  5
1FE
100
AcDbSymbolTableRecord
100
AcDbLayerTableRecord
  2
01_1_DEFAULT_DATUMS
 70
0
 62
7
  6
CONTINUOUS
370
-3
390
F
  0
LAYER
  5
1FF
100
AcDbSymbolTableRecord
100
AcDbLayerTableRecord
  2
01_PLANES
 70
0
 62
7
  6
CONTINUOUS
370
-3
390
F
  0
LAYER
  5
200
100
AcDbSymbolTableRecord
100
AcDbLayerTableRecord
  2
02_COORD_SYS
 70
0
 62
7
  6
CONTINUOUS
370
-3
390
F
  0
LAYER
  5
201
100
AcDbSymbolTableRecord
100
AcDbLayerTableRecord
  2
03_AXES
 70
0
 62
7
  6
CONTINUOUS
370
-3
390
F
  0
LAYER
  5
202
100
AcDbSymbolTableRecord
100
AcDbLayerTableRecord
  2
04_POINTS
 70
0
 62
7
  6
CONTINUOUS
370
-3
390
F
  0
LAYER
  5
203
100
AcDbSymbolTableRecord
100
AcDbLayerTableRecord
  2
05_CURVES
 70
0
 62
7
  6
CONTINUOUS
370
-3
390
F
  0
LAYER
  5
204
100
AcDbSymbolTableRecord
100
AcDbLayerTableRecord
  2
06_SURFS
 70
0
 62
7
  6
CONTINUOUS
370
-3
390
F
  0
LAYER
  5
205
100
AcDbSymbolTableRecord
100
AcDbLayerTableRecord
  2
07_COSMETICS
 70
0
 62
7
  6
CONTINUOUS
370
-3
390
F
  0
LAYER
  5
206
100
AcDbSymbolTableRecord
100
AcDbLayerTableRecord
  2
10_NOTES
 70
0
 62
7
  6
CONTINUOUS
370
-3
390
F
  0
LAYER
  5
207
100
AcDbSymbolTableRecord
100
AcDbLayerTableRecord
  2
11_NOTES_PUB
 70
0
 62
7
  6
CONTINUOUS
370
-3
390
F
  0
LAYER
  5
208
100
AcDbSymbolTableRecord
100
AcDbLayerTableRecord
  2
13_REF_GTOL
 70
0
 62
7
  6
CONTINUOUS
370
-3
390
F
  0
LAYER
  5
209
100
AcDbSymbolTableRecord
100
AcDbLayerTableRecord
  2
16_MISC
 70
0
 62
7
  6
CONTINUOUS
370
-3
390
F
  0
LAYER
  5
20A
100
AcDbSymbolTableRecord
100
AcDbLayerTableRecord
  2
17_NO_PRINT
 70
0
 62
7
  6
CONTINUOUS
370
-3
390
F
  0
LAYER
  5
20B
100
AcDbSymbolTableRecord
100
AcDbLayerTableRecord
  2
18_DATUM_CAMS_JOINTS
 70
0
 62
7
  6
CONTINUOUS
370
-3
390
F
  0
LAYER
  5
20C
100
AcDbSymbolTableRecord
100
AcDbLayerTableRecord
  2
19_DATUM_FUNCTIONAL
 70
0
 62
7
  6
CONTINUOUS
370
-3
390
F
  0
LAYER
  5
20D
100
AcDbSymbolTableRecord
100
AcDbLayerTableRecord
  2
20_DATUM_KINEMATIC_SCHEME
 70
0
 62
7
  6
CONTINUOUS
370
-3
390
F
  0
ENDTAB
  0
TABLE
  2
STYLE
  5
3
100
AcDbSymbolTable
 70
1
  0
STYLE
  5
11
100
AcDbSymbolTableRecord
100
AcDbTextStyleTableRecord
  2
STANDARD
 70
0
 40
0.0
 41
1.0
 50
0.0
 71
0
 42
0.2
  3
ARIAL.TTF
  4

  0
STYLE
  5
20E
100
AcDbSymbolTableRecord
100
AcDbTextStyleTableRecord
  2
TEXTSTYLE_1
 70
0
 40
0.0
 41
0.8
 50
0.0
 71
0
 42
0.2
  3
gdt
  4

  0
ENDTAB
  0
TABLE
  2
VIEW
  5
6
100
AcDbSymbolTable
 70
0
  0
ENDTAB
  0
TABLE
  2
UCS
  5
7
100
AcDbSymbolTable
 70
0
  0
ENDTAB
  0
TABLE
  2
APPID
  5
9
100
AcDbSymbolTable
 70
1
  0
APPID
  5
20F
100
AcDbSymbolTableRecord
100
AcDbRegAppTableRecord
  2
ACAD
 70
0
  0
ENDTAB
  0
TABLE
  2
BLOCK_RECORD
  5
1
100
AcDbSymbolTable
 70
0
  0
BLOCK_RECORD
  5
210
100
AcDbSymbolTableRecord
100
AcDbBlockTableRecord
  2
*Model_Space
  0
BLOCK_RECORD
  5
211
100
AcDbSymbolTableRecord
100
AcDbBlockTableRecord
  2
*Paper_Space
  0
BLOCK_RECORD
  5
212
100
AcDbSymbolTableRecord
100
AcDbBlockTableRecord
  2
_FILLED
  0
ENDTAB
  0
TABLE
  2
DIMSTYLE
  5
A
100
AcDbSymbolTable
 70
1
100
AcDbDimStyleTable
 71
0
  0
DIMSTYLE
105
213
100
AcDbSymbolTableRecord
100
AcDbDimStyleTableRecord
  2
STANDARD
 70
0
  3

  4

 40
1.0
 41
0.4664994216
 42
1.0
 43
0.38
 44
1.0
 45
0.0
 46
0.0
 47
0.01
 48
0.01
140
0.6530991903
141
0.09
142
0.0
143
25.4
144
1.0
145
0.0
146
1.0
147
0.625
 71
1
 72
0
 73
0
 74
0
 75
0
 76
0
 77
1
 78
8
 79
2
170
0
171
1
172
0
173
0
174
0
175
0
176
0
177
0
178
0
270
2
179
2
271
2
272
2
273
2
274
2
275
0
280
0
281
0
282
0
283
1
284
8
285
0
286
0
287
3
288
0
340
11
278
46
341
212
342
212
343
212
344
212
  0
ENDTAB
  0
ENDSEC
  0
SECTION
  2
BLOCKS
  0
BLOCK
  5
20
100
AcDbEntity
  8
0
100
AcDbBlockBegin
  2
*Model_Space
 70
0
 10
0.0
 20
0.0
 30
0.0
  3
*Model_Space
  1

  0
ENDBLK
  5
21
100
AcDbEntity
  8
0
100
AcDbBlockEnd
  0
BLOCK
  5
1C
100
AcDbEntity
  8
0
100
AcDbBlockBegin
  2
*Paper_Space
 70
0
 10
0.0
 20
0.0
 30
0.0
  3
*Paper_Space
  1

  0
ENDBLK
  5
1D
100
AcDbEntity
  8
0
100
AcDbBlockEnd
  0
BLOCK
  5
214
100
AcDbEntity
  8
0
100
AcDbBlockBegin
  2
_FILLED
 70
64
 10
0.0
 20
0.0
  3
_FILLED
  1

  0
SOLID
  5
215
100
AcDbEntity
  8
0
  6
BYBLOCK
 62
0
100
AcDbTrace
 10
0.0
 20
0.0
 11
-1.0
 21
0.25
 12
-1.0
 22
-0.25
 13
-1.0
 23
-0.25
  0
ENDBLK
  5
216
100
AcDbEntity
  8
0
  6
BYBLOCK
 62
0
100
AcDbBlockEnd
  0
ENDSEC
  0
SECTION
  2
ENTITIES
  0
LINE
  5
217
100
AcDbEntity
  8
0
100
AcDbLine
 62
7
  6
BYLAYER
 10
20.660809407
 20
7.0457330416
 11
18.660809407
 21
7.0457330416
  0
LINE
  5
218
100
AcDbEntity
  8
0
100
AcDbLine
 62
7
  6
BYLAYER
 10
23.810809407
 20
7.2857330416
 11
15.510809407
 21
7.2857330416
  0
LINE
  5
219
100
AcDbEntity
  8
0
100
AcDbLine
 62
7
  6
BYLAYER
 10
23.910809407
 20
7.3365030568
 11
15.410809407
 21
7.3365030568
  0
LINE
  5
21A
100
AcDbEntity
  8
0
100
AcDbLine
 62
7
  6
BYLAYER
 10
27.685809407
 20
8.1457330416
 11
11.635809407
 21
8.1457330416
  0
LINE
  5
21B
100
AcDbEntity
  8
0
100
AcDbLine
 62
7
  6
BYLAYER
 10
4.160809407
 20
48.6457330416
 11
4.160809407
 21
23.6457330416
  0
LINE
  5
21C
100
AcDbEntity
  8
0
100
AcDbLine
 62
7
  6
BYLAYER
 10
4.160809407
 20
23.6357330416
 11
4.160809407
 21
18.6357330416
  0
LINE
  5
21D
100
AcDbEntity
  8
0
100
AcDbLine
 62
7
  6
BYLAYER
 10
4.6201851831
 20
23.6457330416
 11
4.6201851831
 21
48.6457330416
  0
LINE
  5
21E
100
AcDbEntity
  8
0
100
AcDbLine
 62
7
  6
BYLAYER
 10
4.779646249
 20
18.6357330416
 11
4.779646249
 21
23.3752725484
  0
LINE
  5
21F
100
AcDbEntity
  8
0
100
AcDbLine
 62
7
  6
BYLAYER
 10
11.635824651
 20
13.6457330416
 11
27.685794163
 21
13.6457330416
  0
LINE
  5
220
100
AcDbEntity
  8
0
100
AcDbLine
 62
7
  6
BYLAYER
 10
13.162471342
 20
13.9304690666
 11
15.0092244301
 21
13.9304690666
  0
LINE
  5
221
100
AcDbEntity
  8
0
100
AcDbLine
 62
7
  6
BYLAYER
 10
24.3123943838
 20
13.9304690666
 11
26.159147472
 21
13.9304690666
  0
LINE
  5
222
100
AcDbEntity
  8
0
100
AcDbLine
 62
7
  6
BYLAYER
 10
12.160809407
 20
13.9457330416
 11
27.160809407
 21
13.9457330416
  0
LINE
  5
223
100
AcDbEntity
  8
0
100
AcDbLine
 62
7
  6
BYLAYER
 10
29.6606777742
 20
15.9304690666
 11
27.160809407
 21
15.9304690666
  0
LINE
  5
224
100
AcDbEntity
  8
0
100
AcDbLine
 62
7
  6
BYLAYER
 10
12.160809407
 20
15.9304690666
 11
9.6609410397
 21
15.9304690666
  0
LINE
  5
225
100
AcDbEntity
  8
0
100
AcDbLine
 62
7
  6
BYLAYER
 10
12.160809407
 20
15.9457330416
 11
27.160809407
 21
15.9457330416
  0
LINE
  5
226
100
AcDbEntity
  8
0
100
AcDbLine
 62
7
  6
BYLAYER
 10
9.6609410397
 20
16.9304690666
 11
17.610809407
 21
16.9304690666
  0
LINE
  5
227
100
AcDbEntity
  8
0
100
AcDbLine
 62
7
  6
BYLAYER
 10
21.710809407
 20
16.9304690666
 11
29.6606777742
 21
16.9304690666
  0
LINE
  5
228
100
AcDbEntity
  8
0
100
AcDbLine
 62
7
  6
BYLAYER
 10
17.6110673356
 20
17.4457330416
 11
21.7105514783
 21
17.4457330416
  0
LINE
  5
229
100
AcDbEntity
  8
0
100
AcDbLine
 62
7
  6
BYLAYER
 10
9.660809407
 20
15.9304690666
 11
9.660809407
 21
16.9304690666
  0
LINE
  5
22A
100
AcDbEntity
  8
0
100
AcDbLine
 62
7
  6
BYLAYER
 10
27.6630062761
 20
18.1457330416
 11
11.6642501968
 21
18.1457330416
  0
LINE
  5
22B
100
AcDbEntity
  8
0
100
AcDbLine
 62
7
  6
BYLAYER
 10
35.160809407
 20
18.6357330416
 11
27.6630062761
 21
18.6357330416
  0
LINE
  5
22C
100
AcDbEntity
  8
0
100
AcDbLine
 62
7
  6
BYLAYER
 10
11.6642501968
 20
18.6357330416
 11
4.160809407
 21
18.6357330416
  0
LINE
  5
22D
100
AcDbEntity
  8
0
100
AcDbLine
 62
7
  6
BYLAYER
 10
11.4801269228
 20
18.6357330416
 11
11.4801269228
 21
22.8678621695
  0
LINE
  5
22E
100
AcDbEntity
  8
0
100
AcDbLine
 62
7
  6
BYLAYER
 10
11.635809407
 20
8.1457330416
 11
11.635809407
 21
13.6457330416
  0
LINE
  5
22F
100
AcDbEntity
  8
0
100
AcDbLine
 62
7
  6
BYLAYER
 10
11.6642501968
 20
18.1457330416
 11
11.6642501968
 21
36.3803407969
  0
LINE
  5
230
100
AcDbEntity
  8
0
100
AcDbLine
 62
7
  6
BYLAYER
 10
12.0553072648
 20
38.626929762
 11
12.0553072648
 21
18.1457330416
  0
LINE
  5
231
100
AcDbEntity
  8
0
100
AcDbLine
 62
7
  6
BYLAYER
 10
12.160809407
 20
15.9457330416
 11
12.160809407
 21
13.9457330416
  0
LINE
  5
232
100
AcDbEntity
  8
0
100
AcDbLine
 62
7
  6
BYLAYER
 10
12.3093841335
 20
13.9457330416
 11
12.3093841335
 21
15.9457330416
  0
LINE
  5
233
100
AcDbEntity
  8
0
100
AcDbLine
 62
7
  6
BYLAYER
 10
13.1623667515
 20
13.6457330416
 11
13.1623667515
 21
13.9304690666
  0
LINE
  5
234
100
AcDbEntity
  8
0
100
AcDbLine
 62
7
  6
BYLAYER
 10
13.660809407
 20
16.9304690666
 11
13.660809407
 21
18.1457330416
  0
LINE
  5
235
100
AcDbEntity
  8
0
100
AcDbLine
 62
7
  6
BYLAYER
 10
14.910809407
 20
13.6457330416
 11
14.910809407
 21
13.9457330416
  0
LINE
  5
236
100
AcDbEntity
  8
0
100
AcDbLine
 62
7
  6
BYLAYER
 10
15.1942387204
 20
15.9457330416
 11
15.1942387204
 21
13.9457330416
  0
LINE
  5
237
100
AcDbEntity
  8
0
100
AcDbLine
 62
7
  6
BYLAYER
 10
15.510809407
 20
7.2857330416
 11
15.510809407
 21
7.3365030568
  0
LINE
  5
238
100
AcDbEntity
  8
0
100
AcDbLine
 62
7
  6
BYLAYER
 10
35.160809407
 20
23.6457330416
 11
27.6630062761
 21
23.6457330416
  0
LINE
  5
239
100
AcDbEntity
  8
0
100
AcDbLine
 62
7
  6
BYLAYER
 10
11.6642501968
 20
23.6457330416
 11
4.160809407
 21
23.6457330416
  0
LINE
  5
23A
100
AcDbEntity
  8
0
100
AcDbLine
 62
7
  6
BYLAYER
 10
17.610809407
 20
15.9457330416
 11
17.610809407
 21
17.4457330416
  0
LINE
  5
23B
100
AcDbEntity
  8
0
100
AcDbLine
 62
7
  6
BYLAYER
 10
21.710809407
 20
15.9457330416
 11
21.710809407
 21
17.4457330416
  0
LINE
  5
23C
100
AcDbEntity
  8
0
100
AcDbLine
 62
7
  6
BYLAYER
 10
23.810809407
 20
7.2857330416
 11
23.810809407
 21
7.3365030568
  0
LINE
  5
23D
100
AcDbEntity
  8
0
100
AcDbLine
 62
7
  6
BYLAYER
 10
24.1273800936
 20
13.9457330416
 11
24.1273800936
 21
15.9457330416
  0
LINE
  5
23E
100
AcDbEntity
  8
0
100
AcDbLine
 62
7
  6
BYLAYER
 10
24.410809407
 20
13.6457330416
 11
24.410809407
 21
13.9457330416
  0
LINE
  5
23F
100
AcDbEntity
  8
0
100
AcDbLine
 62
7
  6
BYLAYER
 10
25.660809407
 20
16.9304690666
 11
25.660809407
 21
18.1457330416
  0
LINE
  5
240
100
AcDbEntity
  8
0
100
AcDbLine
 62
7
  6
BYLAYER
 10
26.1592520624
 20
13.6457330416
 11
26.1592520624
 21
13.9304690666
  0
LINE
  5
241
100
AcDbEntity
  8
0
100
AcDbLine
 62
7
  6
BYLAYER
 10
27.0122346804
 20
15.9457330416
 11
27.0122346804
 21
13.9457330416
  0
LINE
  5
242
100
AcDbEntity
  8
0
100
AcDbLine
 62
7
  6
BYLAYER
 10
27.160809407
 20
13.9457330416
 11
27.160809407
 21
15.9457330416
  0
LINE
  5
243
100
AcDbEntity
  8
0
100
AcDbLine
 62
7
  6
BYLAYER
 10
27.2675260628
 20
18.1457330416
 11
27.2675260628
 21
38.6232038726
  0
LINE
  5
244
100
AcDbEntity
  8
0
100
AcDbLine
 62
7
  6
BYLAYER
 10
27.6630062761
 20
18.1457330416
 11
27.6630062761
 21
36.1457330416
  0
LINE
  5
245
100
AcDbEntity
  8
0
100
AcDbLine
 62
7
  6
BYLAYER
 10
27.685809407
 20
8.1457330416
 11
27.685809407
 21
13.6457330416
  0
LINE
  5
246
100
AcDbEntity
  8
0
100
AcDbLine
 62
7
  6
BYLAYER
 10
27.8418585079
 20
18.6357330416
 11
27.8418585079
 21
22.8679613603
  0
LINE
  5
247
100
AcDbEntity
  8
0
100
AcDbLine
 62
7
  6
BYLAYER
 10
27.660809407
 20
36.1457330416
 11
27.6630062761
 21
36.1457330416
  0
LINE
  5
248
100
AcDbEntity
  8
0
100
AcDbLine
 62
7
  6
BYLAYER
 10
29.660809407
 20
15.9304690666
 11
29.660809407
 21
16.9304690666
  0
LINE
  5
249
100
AcDbEntity
  8
0
100
AcDbLine
 62
7
  6
BYLAYER
 10
34.5414230041
 20
18.6357330416
 11
34.5414230041
 21
23.3752548254
  0
LINE
  5
24A
100
AcDbEntity
  8
0
100
AcDbLine
 62
7
  6
BYLAYER
 10
34.7014336308
 20
23.6457330416
 11
34.7014336308
 21
48.6457330416
  0
LINE
  5
24B
100
AcDbEntity
  8
0
100
AcDbLine
 62
7
  6
BYLAYER
 10
35.160809407
 20
18.6357330416
 11
35.160809407
 21
23.6357330416
  0
LINE
  5
24C
100
AcDbEntity
  8
0
100
AcDbLine
 62
7
  6
BYLAYER
 10
35.160809407
 20
23.6457330416
 11
35.160809407
 21
48.6457330416
  0
LINE
  5
24D
100
AcDbEntity
  8
0
100
AcDbLine
 62
7
  6
BYLAYER
 10
19.660809407
 20
42.1457330416
 11
19.6763499759
 21
42.1457330416
  0
LINE
  5
24E
100
AcDbEntity
  8
0
100
AcDbLine
 62
7
  6
BYLAYER
 10
4.160809407
 20
48.6457330416
 11
35.160809407
 21
48.6457330416
  0
ARC
  5
24F
100
AcDbEntity
  8
0
100
AcDbCircle
 62
7
  6
BYLAYER
 10
19.842671883
 20
177.8081792816
 40
155.1658051033
100
AcDbArc
 50
264.4292440335
 51
266.9105827817
  0
ARC
  5
250
100
AcDbEntity
  8
0
100
AcDbCircle
 62
7
  6
BYLAYER
 10
19.5351738561
 20
177.0634091351
 40
154.4190261013
100
AcDbArc
 50
273.0836312604
 51
275.5766710014
  0
ARC
  5
251
100
AcDbEntity
  8
0
100
AcDbCircle
 62
7
  6
BYLAYER
 10
19.3997938851
 20
37.5367793166
 40
30.5000000165
100
AcDbArc
 50
262.6744052485
 51
268.6116447398
  0
ARC
  5
252
100
AcDbEntity
  8
0
100
AcDbCircle
 62
7
  6
BYLAYER
 10
19.9218249289
 20
37.5367793166
 40
30.5000000165
100
AcDbArc
 50
271.3883552602
 51
277.3255947515
  0
ARC
  5
253
100
AcDbEntity
  8
0
100
AcDbCircle
 62
7
  6
BYLAYER
 10
18.5020538541
 20
30.9666048477
 40
23.8314393774
100
AcDbArc
 50
253.2547388208
 51
262.5469993877
  0
ARC
  5
254
100
AcDbEntity
  8
0
100
AcDbCircle
 62
7
  6
BYLAYER
 10
20.8195649599
 20
30.9666048477
 40
23.8314393774
100
AcDbArc
 50
277.4530006123
 51
286.7452611792
  0
ARC
  5
255
100
AcDbEntity
  8
0
100
AcDbCircle
 62
7
  6
BYLAYER
 10
10.1311578629
 20
12.8255129127
 40
10.1325670526
100
AcDbArc
 50
81.2889430095
 51
82.3494945915
  0
ARC
  5
256
100
AcDbEntity
  8
0
100
AcDbCircle
 62
7
  6
BYLAYER
 10
29.1795174986
 20
12.9209455813
 40
10.0365558247
100
AcDbArc
 50
97.6587424178
 51
98.6993491172
  0
ARC
  5
257
100
AcDbEntity
  8
0
100
AcDbCircle
 62
7
  6
BYLAYER
 10
19.660809407
 20
36.1457330416
 40
8.0
100
AcDbArc
 50
0.0
 51
178.3195047893
  0
SPLINE
  5
258
100
AcDbEntity
  8
0
100
AcDbSpline
 62
7
  6
BYLAYER
 70
0
 71
3
 72
40
 73
36
 74
0
 42
0.0000001
 43
0.0000001
 44
0.0000000001
 40
0.0
 40
0.0
 40
0.0
 40
0.0
 40
0.123881802
 40
0.2482165265
 40
0.3105321978
 40
0.3729353853
 40
0.4354178215
 40
0.4979712859
 40
0.5605876657
 40
0.6232589654
 40
0.68597722
 40
0.7173514894
 40
0.7487345483
 40
0.7801254181
 40
0.8115231226
 40
0.8429266906
 40
0.8586303701
 40
0.8743351511
 40
0.8900409128
 40
0.9057475341
 40
0.9214548943
 40
0.9371628728
 40
0.9450170562
 40
0.9528713487
 40
0.9607257359
 40
0.9685802
 40
0.9764347357
 40
0.9803619828
 40
0.9842893453
 40
0.988216443
 40
0.9921445551
 40
0.9941082263
 40
0.9960690372
 40
0.9980363674
 40
1.0
 40
1.0
 40
1.0
 40
1.0
 10
16.0139840109
 20
43.266100272
 30
0.0
 10
16.1657069168
 20
43.223626907
 30
0.0
 10
16.4692564474
 20
43.1369108808
 30
0.0
 10
16.8481524264
 20
43.0254675269
 30
0.0
 10
17.1515716802
 20
42.9345333496
 30
0.0
 10
17.3794271667
 20
42.8654865166
 30
0.0
 10
17.607382118
 20
42.7957284299
 30
0.0
 10
17.8354248084
 20
42.7253330623
 30
0.0
 10
18.0635433056
 20
42.6543710074
 30
0.0
 10
18.2917300236
 20
42.5829242041
 30
0.0
 10
18.4819019947
 20
42.5230459193
 30
0.0
 10
18.6340692122
 20
42.4749646376
 30
0.0
 10
18.7482238838
 20
42.4388211111
 30
0.0
 10
18.8623880589
 20
42.4026089178
 30
0.0
 10
18.9765598516
 20
42.3663345172
 30
0.0
 10
19.0717050698
 20
42.3360640534
 30
0.0
 10
19.1478251905
 20
42.3118262568
 30
0.0
 10
19.2049186315
 20
42.2936366335
 30
0.0
 10
19.2620128822
 20
42.2754372288
 30
0.0
 10
19.3191077521
 20
42.2572289676
 30
0.0
 10
19.3762030175
 20
42.2390126685
 30
0.0
 10
19.4237821737
 20
42.2238265813
 30
0.0
 10
19.461845453
 20
42.2116740688
 30
0.0
 10
19.490392403
 20
42.2025559065
 30
0.0
 10
19.5189388424
 20
42.1934349693
 30
0.0
 10
19.547485377
 20
42.1843133273
 30
0.0
 10
19.5712705345
 20
42.176700205
 30
0.0
 10
19.59029707
 20
42.170604234
 30
0.0
 10
19.604561033
 20
42.1660140662
 30
0.0
 10
19.6188307802
 20
42.1614395473
 30
0.0
 10
19.6307043464
 20
42.1575676275
 30
0.0
 10
19.6401757424
 20
42.154405555
 30
0.0
 10
19.6473365032
 20
42.1521750138
 30
0.0
 10
19.6543846697
 20
42.1496942311
 30
0.0
 10
19.6589194541
 20
42.1473655414
 30
0.0
 10
19.660809407
 20
42.1457330416
 30
0.0
  0
SPLINE
  5
259
100
AcDbEntity
  8
0
100
AcDbSpline
 62
7
  6
BYLAYER
 70
0
 71
3
 72
40
 73
36
 74
0
 42
0.0000001
 43
0.0000001
 44
0.0000000001
 40
0.0
 40
0.0
 40
0.0
 40
0.0
 40
0.001963574
 40
0.0039308599
 40
0.0058916279
 40
0.0078552341
 40
0.0117832249
 40
0.0157102045
 40
0.0196374483
 40
0.0235645771
 40
0.0314188758
 40
0.0392731035
 40
0.0471272547
 40
0.0549813117
 40
0.0628352601
 40
0.0785427709
 40
0.0942496668
 40
0.1099558279
 40
0.1256611339
 40
0.1413654649
 40
0.1570687003
 40
0.1884714012
 40
0.219868271
 40
0.2512583441
 40
0.2826406496
 40
0.3140142144
 40
0.3767312284
 40
0.43940155
 40
0.5020172591
 40
0.5645704059
 40
0.6270529264
 40
0.6894566463
 40
0.7517733477
 40
0.8761118335
 40
1.0
 40
1.0
 40
1.0
 40
1.0
 10
19.6763499759
 20
42.1457330416
 30
0.0
 10
19.6782345738
 20
42.1473611806
 30
0.0
 10
19.6827550423
 20
42.149686363
 30
0.0
 10
19.6897834556
 20
42.1521618925
 30
0.0
 10
19.6969244629
 20
42.1543860734
 30
0.0
 10
19.7063696555
 20
42.1575395517
 30
0.0
 10
19.7182101681
 20
42.1614014092
 30
0.0
 10
19.7324404732
 20
42.1659632651
 30
0.0
 10
19.7466649526
 20
42.1705409027
 30
0.0
 10
19.7656388548
 20
42.1766201336
 30
0.0
 10
19.7893582133
 20
42.1842123567
 30
0.0
 10
19.817825812
 20
42.1933088529
 30
0.0
 10
19.8462933377
 20
42.2024045831
 30
0.0
 10
19.8747613542
 20
42.2114976101
 30
0.0
 10
19.9127193979
 20
42.2236166037
 30
0.0
 10
19.9601670291
 20
42.2387607677
 30
0.0
 10
20.0171044585
 20
42.2569268282
 30
0.0
 10
20.0740415005
 20
42.2750849014
 30
0.0
 10
20.1309779297
 20
42.2932341872
 30
0.0
 10
20.1879135585
 20
42.3113737639
 30
0.0
 10
20.2638233071
 20
42.335544933
 30
0.0
 10
20.358705616
 20
42.3657322863
 30
0.0
 10
20.4725619145
 20
42.4019074427
 30
0.0
 10
20.5864106681
 20
42.438020877
 30
0.0
 10
20.7002500122
 20
42.4740661664
 30
0.0
 10
20.8519970942
 20
42.5220174499
 30
0.0
 10
21.0416441897
 20
42.5817351451
 30
0.0
 10
21.2692012926
 20
42.6529924268
 30
0.0
 10
21.4966907138
 20
42.7237691358
 30
0.0
 10
21.7241049445
 20
42.7939840208
 30
0.0
 10
21.951432267
 20
42.863566756
 30
0.0
 10
22.1786609213
 20
42.9324444932
 30
0.0
 10
22.4812477778
 20
43.02316265
 30
0.0
 10
22.8591063164
 20
43.1343560926
 30
0.0
 10
23.1618232885
 20
43.2208903507
 30
0.0
 10
23.3131294562
 20
43.2632841982
 30
0.0
  0
SPLINE
  5
25A
100
AcDbEntity
  8
0
100
AcDbSpline
 62
7
  6
BYLAYER
 70
0
 71
3
 72
14
 73
10
 74
0
 42
0.0000001
 43
0.0000001
 44
0.0000000001
 40
0.0
 40
0.0
 40
0.0
 40
0.0
 40
0.3382113976
 40
0.4875307248
 40
0.62130507
 40
0.7390937075
 40
0.8408619936
 40
0.9272596147
 40
1.0
 40
1.0
 40
1.0
 40
1.0
 10
34.5412545676
 20
23.3752405477
 30
0.0
 10
34.6179324263
 20
23.3871670073
 30
0.0
 10
34.7279157218
 20
23.4090189679
 30
0.0
 10
34.8647678244
 20
23.4492244528
 30
0.0
 10
34.9510402042
 20
23.4813946451
 30
0.0
 10
35.0243832158
 20
23.5162195303
 30
0.0
 10
35.0842131222
 20
23.5533250571
 30
0.0
 10
35.130069575
 20
23.5921866982
 30
0.0
 10
35.1527592682
 20
23.6213846408
 30
0.0
 10
35.160809407
 20
23.6360045202
 30
0.0
  0
SPLINE
  5
25B
100
AcDbEntity
  8
0
100
AcDbSpline
 62
7
  6
BYLAYER
 70
0
 71
3
 72
14
 73
10
 74
0
 42
0.0000001
 43
0.0000001
 44
0.0000000001
 40
0.0
 40
0.0
 40
0.0
 40
0.0
 40
0.0726055637
 40
0.1588753313
 40
0.2605587973
 40
0.3783228434
 40
0.5121301529
 40
0.6615314001
 40
1.0
 40
1.0
 40
1.0
 40
1.0
 10
4.160809407
 20
23.636007904
 30
0.0
 10
4.168777423
 20
23.6213844321
 30
0.0
 10
4.1913283603
 20
23.5921631822
 30
0.0
 10
4.2370386707
 20
23.5532777008
 30
0.0
 10
4.2967690626
 20
23.5161540856
 30
0.0
 10
4.3700599571
 20
23.4813189223
 30
0.0
 10
4.4563218375
 20
23.4491445351
 30
0.0
 10
4.5932167726
 20
23.408943432
 30
0.0
 10
4.7032484853
 20
23.3871156672
 30
0.0
 10
4.7799640208
 20
23.3752103106
 30
0.0
  0
ENDSEC
  0
SECTION
  2
OBJECTS
  0
DICTIONARY
  5
C
100
AcDbDictionary
280
0
281
1
  3
ACAD_GROUP
350
D
  3
ACAD_MLINESTYLE
350
17
  3
ACAD_LAYOUT
350
1A
  3
ACAD_PLOTSETTINGS
350
19
  3
ACAD_PLOTSTYLENAME
350
E
  0
DICTIONARY
  5
D
102
{ACAD_REACTORS
330
C
102
}
100
AcDbDictionary
280
0
281
1
  0
ACDBDICTIONARYWDFLT
  5
E
102
{ACAD_REACTORS
330
C
102
}
100
AcDbDictionary
281
1
  3
Normal
350
F
100
AcDbDictionaryWithDefault
340
F
  0
DICTIONARY
  5
17
102
{ACAD_REACTORS
330
C
102
}
100
AcDbDictionary
280
0
281
1
  3
Standard
350
18
  0
DICTIONARY
  5
19
102
{ACAD_REACTORS
330
C
102
}
100
AcDbDictionary
281
1
  0
DICTIONARY
  5
1A
102
{ACAD_REACTORS
330
C
102
}
100
AcDbDictionary
281
1
  3
Model
350
25C
  3
Layout1
350
25D
  0
ACDBPLACEHOLDER
  5
F
102
{ACAD_REACTORS
330
E
102
}
  0
MLINESTYLE
  5
18
102
{ACAD_REACTORS
330
17
102
}
100
AcDbMlineStyle
  2
STANDARD
 70
0
  3

 62
256
 51
90.0
 52
90.0
 71
2
 49
0.5
 62
256
  6
BYLAYER
 49
-0.5
 62
256
  6
BYLAYER
  0
LAYOUT
  5
25C
102
{ACAD_REACTORS
330
1A
102
}
100
AcDbPlotSettings
  1

  2
none_device
  4

  6

 40
0.0
 41
0.0
 42
0.0
 43
0.0
 44
210.0
 45
297.0
 46
0.0
 47
0.0
 48
0.0
 49
0.0
140
0.0
141
0.0
142
1.0
143
1.0
 70
1024
 72
1
 73
0
 74
0
  7

 75
0
147
1.0
148
0.0
149
0.0
100
AcDbLayout
  1
Model
 70
0
 71
0
 10
0.0
 20
0.0
 11
210.0
 21
297.0
 12
0.0
 22
0.0
 32
0.0
 14
0.0
 24
0.0
 34
0.0
 15
0.0
 25
0.0
 35
0.0
146
0.0
 13
0.0
 23
0.0
 33
0.0
 16
1.0
 26
0.0
 36
0.0
 17
0.0
 27
1.0
 37
0.0
 76
0
330
210
345
0
346
0
  0
LAYOUT
  5
25D
102
{ACAD_REACTORS
330
1A
102
}
100
AcDbPlotSettings
  1

  2
none_device
  4

  6

 40
0.0
 41
0.0
 42
0.0
 43
0.0
 44
210.0
 45
297.0
 46
0.0
 47
0.0
 48
0.0
 49
0.0
140
0.0
141
0.0
142
1.0
143
1.0
 70
0
 72
1
 73
0
 74
0
  7

 75
0
147
1.0
148
0.0
149
0.0
100
AcDbLayout
  1
Layout1
 70
0
 71
1
 10
0.0
 20
0.0
 11
210.0
 21
297.0
 12
0.0
 22
0.0
 32
0.0
 14
0.0
 24
0.0
 34
0.0
 15
0.0
 25
0.0
 35
0.0
146
0.0
 13
0.0
 23
0.0
 33
0.0
 16
1.0
 26
0.0
 36
0.0
 17
0.0
 27
1.0
 37
0.0
 76
0
330
211
345
0
346
0
  0
ENDSEC
  0
EOF
