999
DXF file: C:\Users\sesa63760\Dev\_Creo\CAD\MCADID0005847_3D-CAD\mcadid0005847_3d-simplified_6.dxf
999
Pro/ENGINEER 2019471 by Parametric Technology Corporation
  0
SECTION
  2
HEADER
  9
$ACADVER
  1
AC1024
  9
$DWGCODEPAGE
  3
ANSI_1252
  9
$EXTMAX
 10
69.0178370135
 20
97.610940919
 30
0.0
  9
$EXTMIN
 10
0.0
 20
0.0
 30
0.0
  9
$LIMMIN
 10
0.0
 20
0.0
  9
$LIMMAX
 10
69.0178370135
 20
97.610940919
  9
$VIEWCTR
 10
34.5089185067
 20
48.8054704595
  9
$VIEWSIZE
 40
97.610940919
  9
$CLAYER
  8
0
  9
$LTSCALE
 40
6.3627872599
  9
$CELTYPE
  6
BYLAYER
  9
$DIMSCALE
 40
1.0
  9
$DIMASZ
 40
0.8216409168
  9
$DIMEXO
 40
1.0
  9
$DIMDLI
 40
4.3961075614
  9
$DIMEXE
 40
1.0
  9
$DIMCEN
 40
1.0411833698
  9
$DIMLFAC
 40
1.0
  9
$DIMBLK
  1
_FILLED
  9
$DIMALT
 70
0
  9
$DIMALTF
 40
0.0393700787
  9
$DIMTXT
 40
1.1502972836
  9
$DIMTOL
 70
1
  9
$DIMLIM
 70
0
  9
$DIMTFAC
 40
1.0
  9
$DIMTP
 40
0.01
  9
$DIMTM
 40
0.01
  9
$DIMGAP
 40
0.625
  9
$DIMDSEP
 70
46
  9
$AUNITS
 70
0
  9
$PDMODE
 70
3
  9
$PDSIZE
 40
0.3125
  9
$HANDSEED
  5
39E
  9
$TILEMODE
 70
1
  9
$MEASUREMENT
 70
1
  9
$INSUNITS
 70
4
  0
ENDSEC
  0
SECTION
  2
CLASSES
  0
CLASS
  1
ACDBDICTIONARYWDFLT
  2
AcDbDictionaryWithDefault
  3
AutoCAD 2000
 90
0
 91
1
280
0
281
0
  0
CLASS
  1
ACDBPLACEHOLDER
  2
AcDbPlaceHolder
  3
AutoCAD 2000
 90
0
 91
1
280
0
281
0
  0
CLASS
  1
LAYOUT
  2
AcDbLayout
  3
AutoCAD 2000
 90
0
 91
0
280
0
281
0
  0
ENDSEC
  0
SECTION
  2
TABLES
  0
TABLE
  2
VPORT
  5
8
100
AcDbSymbolTable
 70
2
  0
VPORT
  5
1F4
100
AcDbSymbolTableRecord
100
AcDbViewportTableRecord
  2
*ACTIVE
 70
0
 10
0.0
 20
0.0
 11
1.0
 21
1.0
 12
34.5089185067
 22
48.8054704595
 13
0.0
 23
0.0
 14
1.0
 24
1.0
 15
0.0
 25
0.0
 16
0.0
 26
0.0
 36
1.0
 17
0.0
 27
0.0
 37
0.0
 40
97.610940919
 41
0.7070707071
 42
50.0
 43
0.0
 44
0.0
 50
0.0
 51
0.0
 71
0
 72
100
 73
1
 74
1
 75
0
 76
0
 77
0
 78
0
  0
ENDTAB
  0
TABLE
  2
LTYPE
  5
5
100
AcDbSymbolTable
 70
6
  0
LTYPE
  5
14
100
AcDbSymbolTableRecord
100
AcDbLinetypeTableRecord
  2
BYBLOCK
 70
0
  3

 72
65
 73
0
 40
0.0
  0
LTYPE
  5
15
100
AcDbSymbolTableRecord
100
AcDbLinetypeTableRecord
  2
BYLAYER
 70
0
  3

 72
65
 73
0
 40
0.0
  0
LTYPE
  5
16
100
AcDbSymbolTableRecord
100
AcDbLinetypeTableRecord
  2
CONTINUOUS
 70
64
  3
Solid line
 72
65
 73
0
 40
0.0
  0
LTYPE
  5
1F5
100
AcDbSymbolTableRecord
100
AcDbLinetypeTableRecord
  2
CENTER
 70
64
  3
____ _ ____ _ ____ _ ____ _ ____ _ ____ _ ____
 72
65
 73
4
 40
0.6
 49
0.375
 74
0
 49
-0.075
 74
0
 49
0.075
 74
0
 49
-0.075
 74
0
  0
LTYPE
  5
1F6
100
AcDbSymbolTableRecord
100
AcDbLinetypeTableRecord
  2
HIDDEN
 70
64
  3
- - - - - - - - - - - - - - - - - - - -
 72
65
 73
2
 40
0.2
 49
0.1
 74
0
 49
-0.1
 74
0
  0
LTYPE
  5
1F7
100
AcDbSymbolTableRecord
100
AcDbLinetypeTableRecord
  2
PHANTOM
 70
64
  3
_____ _ _ _____ _ _ _____ _ _ _____
 72
65
 73
6
 40
0.8
 49
0.45
 74
0
 49
-0.05
 74
0
 49
0.1
 74
0
 49
-0.05
 74
0
 49
0.1
 74
0
 49
-0.05
 74
0
  0
LTYPE
  5
1F8
100
AcDbSymbolTableRecord
100
AcDbLinetypeTableRecord
  2
DOT
 70
64
  3
. . . . . . . . . . . . . . . . . . . .
 72
65
 73
2
 40
0.2
 49
0.1
 74
0
 49
-0.1
 74
0
  0
LTYPE
  5
1F9
100
AcDbSymbolTableRecord
100
AcDbLinetypeTableRecord
  2
DASHED
 70
64
  3
- - - - - - - - - - - - - - - - - - - -
 72
65
 73
2
 40
0.2
 49
0.1
 74
0
 49
-0.1
 74
0
  0
ENDTAB
  0
TABLE
  2
LAYER
  5
2
100
AcDbSymbolTable
 70
36
  0
LAYER
  5
10
100
AcDbSymbolTableRecord
100
AcDbLayerTableRecord
  2
0
 70
0
 62
7
  6
CONTINUOUS
370
-3
390
F
  0
LAYER
  5
1FA
100
AcDbSymbolTableRecord
100
AcDbLayerTableRecord
  2
DEFAULT_1
 70
0
 62
7
  6
CENTER
370
-3
390
F
  0
LAYER
  5
1FB
100
AcDbSymbolTableRecord
100
AcDbLayerTableRecord
  2
DEFAULT_2
 70
0
 62
7
  6
HIDDEN
370
-3
390
F
  0
LAYER
  5
1FC
100
AcDbSymbolTableRecord
100
AcDbLayerTableRecord
  2
DEFAULT_3
 70
0
 62
7
  6
PHANTOM
370
-3
390
F
  0
LAYER
  5
1FD
100
AcDbSymbolTableRecord
100
AcDbLayerTableRecord
  2
00_COMPONENTS
 70
0
 62
7
  6
CONTINUOUS
370
-3
390
F
  0
LAYER
  5
1FE
100
AcDbSymbolTableRecord
100
AcDbLayerTableRecord
  2
01_1_DEFAULT_DATUMS
 70
0
 62
7
  6
CONTINUOUS
370
-3
390
F
  0
LAYER
  5
1FF
100
AcDbSymbolTableRecord
100
AcDbLayerTableRecord
  2
01_PLANES
 70
0
 62
7
  6
CONTINUOUS
370
-3
390
F
  0
LAYER
  5
200
100
AcDbSymbolTableRecord
100
AcDbLayerTableRecord
  2
02_COORD_SYS
 70
0
 62
7
  6
CONTINUOUS
370
-3
390
F
  0
LAYER
  5
201
100
AcDbSymbolTableRecord
100
AcDbLayerTableRecord
  2
03_AXES
 70
0
 62
7
  6
CONTINUOUS
370
-3
390
F
  0
LAYER
  5
202
100
AcDbSymbolTableRecord
100
AcDbLayerTableRecord
  2
04_POINTS
 70
0
 62
7
  6
CONTINUOUS
370
-3
390
F
  0
LAYER
  5
203
100
AcDbSymbolTableRecord
100
AcDbLayerTableRecord
  2
05_CURVES
 70
0
 62
7
  6
CONTINUOUS
370
-3
390
F
  0
LAYER
  5
204
100
AcDbSymbolTableRecord
100
AcDbLayerTableRecord
  2
06_SURFS
 70
0
 62
7
  6
CONTINUOUS
370
-3
390
F
  0
LAYER
  5
205
100
AcDbSymbolTableRecord
100
AcDbLayerTableRecord
  2
07_COSMETICS
 70
0
 62
7
  6
CONTINUOUS
370
-3
390
F
  0
LAYER
  5
206
100
AcDbSymbolTableRecord
100
AcDbLayerTableRecord
  2
10_NOTES
 70
0
 62
7
  6
CONTINUOUS
370
-3
390
F
  0
LAYER
  5
207
100
AcDbSymbolTableRecord
100
AcDbLayerTableRecord
  2
11_NOTES_PUB
 70
0
 62
7
  6
CONTINUOUS
370
-3
390
F
  0
LAYER
  5
208
100
AcDbSymbolTableRecord
100
AcDbLayerTableRecord
  2
13_REF_GTOL
 70
0
 62
7
  6
CONTINUOUS
370
-3
390
F
  0
LAYER
  5
209
100
AcDbSymbolTableRecord
100
AcDbLayerTableRecord
  2
16_MISC
 70
0
 62
7
  6
CONTINUOUS
370
-3
390
F
  0
LAYER
  5
20A
100
AcDbSymbolTableRecord
100
AcDbLayerTableRecord
  2
17_NO_PRINT
 70
0
 62
7
  6
CONTINUOUS
370
-3
390
F
  0
LAYER
  5
20B
100
AcDbSymbolTableRecord
100
AcDbLayerTableRecord
  2
18_DATUM_CAMS_JOINTS
 70
0
 62
7
  6
CONTINUOUS
370
-3
390
F
  0
LAYER
  5
20C
100
AcDbSymbolTableRecord
100
AcDbLayerTableRecord
  2
19_DATUM_FUNCTIONAL
 70
0
 62
7
  6
CONTINUOUS
370
-3
390
F
  0
LAYER
  5
20D
100
AcDbSymbolTableRecord
100
AcDbLayerTableRecord
  2
20_DATUM_KINEMATIC_SCHEME
 70
0
 62
7
  6
CONTINUOUS
370
-3
390
F
  0
ENDTAB
  0
TABLE
  2
STYLE
  5
3
100
AcDbSymbolTable
 70
1
  0
STYLE
  5
11
100
AcDbSymbolTableRecord
100
AcDbTextStyleTableRecord
  2
STANDARD
 70
0
 40
0.0
 41
1.0
 50
0.0
 71
0
 42
0.2
  3
ARIAL.TTF
  4

  0
STYLE
  5
20E
100
AcDbSymbolTableRecord
100
AcDbTextStyleTableRecord
  2
TEXTSTYLE_1
 70
0
 40
0.0
 41
0.8
 50
0.0
 71
0
 42
0.2
  3
gdt
  4

  0
ENDTAB
  0
TABLE
  2
VIEW
  5
6
100
AcDbSymbolTable
 70
0
  0
ENDTAB
  0
TABLE
  2
UCS
  5
7
100
AcDbSymbolTable
 70
0
  0
ENDTAB
  0
TABLE
  2
APPID
  5
9
100
AcDbSymbolTable
 70
1
  0
APPID
  5
20F
100
AcDbSymbolTableRecord
100
AcDbRegAppTableRecord
  2
ACAD
 70
0
  0
ENDTAB
  0
TABLE
  2
BLOCK_RECORD
  5
1
100
AcDbSymbolTable
 70
0
  0
BLOCK_RECORD
  5
210
100
AcDbSymbolTableRecord
100
AcDbBlockTableRecord
  2
*Model_Space
  0
BLOCK_RECORD
  5
211
100
AcDbSymbolTableRecord
100
AcDbBlockTableRecord
  2
*Paper_Space
  0
BLOCK_RECORD
  5
212
100
AcDbSymbolTableRecord
100
AcDbBlockTableRecord
  2
_FILLED
  0
ENDTAB
  0
TABLE
  2
DIMSTYLE
  5
A
100
AcDbSymbolTable
 70
1
100
AcDbDimStyleTable
 71
0
  0
DIMSTYLE
105
213
100
AcDbSymbolTableRecord
100
AcDbDimStyleTableRecord
  2
STANDARD
 70
0
  3

  4

 40
1.0
 41
0.8216409168
 42
1.0
 43
0.38
 44
1.0
 45
0.0
 46
0.0
 47
0.01
 48
0.01
140
1.1502972836
141
0.09
142
0.0
143
25.4
144
1.0
145
0.0
146
1.0
147
0.625
 71
1
 72
0
 73
0
 74
0
 75
0
 76
0
 77
1
 78
8
 79
2
170
0
171
1
172
0
173
0
174
0
175
0
176
0
177
0
178
0
270
2
179
2
271
2
272
2
273
2
274
2
275
0
280
0
281
0
282
0
283
1
284
8
285
0
286
0
287
3
288
0
340
11
278
46
341
212
342
212
343
212
344
212
  0
ENDTAB
  0
ENDSEC
  0
SECTION
  2
BLOCKS
  0
BLOCK
  5
20
100
AcDbEntity
  8
0
100
AcDbBlockBegin
  2
*Model_Space
 70
0
 10
0.0
 20
0.0
 30
0.0
  3
*Model_Space
  1

  0
ENDBLK
  5
21
100
AcDbEntity
  8
0
100
AcDbBlockEnd
  0
BLOCK
  5
1C
100
AcDbEntity
  8
0
100
AcDbBlockBegin
  2
*Paper_Space
 70
0
 10
0.0
 20
0.0
 30
0.0
  3
*Paper_Space
  1

  0
ENDBLK
  5
1D
100
AcDbEntity
  8
0
100
AcDbBlockEnd
  0
BLOCK
  5
214
100
AcDbEntity
  8
0
100
AcDbBlockBegin
  2
_FILLED
 70
64
 10
0.0
 20
0.0
  3
_FILLED
  1

  0
SOLID
  5
215
100
AcDbEntity
  8
0
  6
BYBLOCK
 62
0
100
AcDbTrace
 10
0.0
 20
0.0
 11
-1.0
 21
0.25
 12
-1.0
 22
-0.25
 13
-1.0
 23
-0.25
  0
ENDBLK
  5
216
100
AcDbEntity
  8
0
  6
BYBLOCK
 62
0
100
AcDbBlockEnd
  0
ENDSEC
  0
SECTION
  2
ENTITIES
  0
LINE
  5
217
100
AcDbEntity
  8
0
100
AcDbLine
 62
7
  6
BYLAYER
 10
7.8062926862
 20
44.1682973477
 11
7.8062926862
 21
46.1680300949
  0
LINE
  5
218
100
AcDbEntity
  8
0
100
AcDbLine
 62
7
  6
BYLAYER
 10
46.7259229285
 20
28.2708607687
 11
44.0866624438
 21
28.2708607687
  0
LINE
  5
219
100
AcDbEntity
  8
0
100
AcDbLine
 62
7
  6
BYLAYER
 10
54.0866624726
 20
28.2708607687
 11
56.7259229238
 21
28.2708607687
  0
LINE
  5
21A
100
AcDbEntity
  8
0
100
AcDbLine
 62
7
  6
BYLAYER
 10
47.6062926862
 20
32.554060298
 11
47.4062926862
 21
32.5004704595
  0
LINE
  5
21B
100
AcDbEntity
  8
0
100
AcDbLine
 62
7
  6
BYLAYER
 10
17.8062926862
 20
43.9637934046
 11
17.8062926862
 21
46.3726754639
  0
LINE
  5
21C
100
AcDbEntity
  8
0
100
AcDbLine
 62
7
  6
BYLAYER
 10
17.995825495
 20
43.7630463286
 11
17.995825495
 21
46.5732811987
  0
LINE
  5
21D
100
AcDbEntity
  8
0
100
AcDbLine
 62
7
  6
BYLAYER
 10
19.6167598774
 20
46.65823077
 11
19.6167598774
 21
43.6780967572
  0
LINE
  5
21E
100
AcDbEntity
  8
0
100
AcDbLine
 62
7
  6
BYLAYER
 10
19.8062926862
 20
42.7877731964
 11
19.8062926862
 21
54.8232528584
  0
LINE
  5
21F
100
AcDbEntity
  8
0
100
AcDbLine
 62
7
  6
BYLAYER
 10
19.9715630507
 20
42.5905751734
 11
19.9715630507
 21
55.0203657456
  0
LINE
  5
220
100
AcDbEntity
  8
0
100
AcDbLine
 62
7
  6
BYLAYER
 10
29.8062926862
 20
63.0554704595
 11
30.5562926862
 21
63.8054704595
  0
LINE
  5
221
100
AcDbEntity
  8
0
100
AcDbLine
 62
7
  6
BYLAYER
 10
61.5062926861
 20
33.8054704595
 11
57.4062926862
 21
33.8054704595
  0
LINE
  5
222
100
AcDbEntity
  8
0
100
AcDbLine
 62
7
  6
BYLAYER
 10
52.7594555435
 20
33.8054704595
 11
48.0531281874
 21
33.8054704595
  0
LINE
  5
223
100
AcDbEntity
  8
0
100
AcDbLine
 62
7
  6
BYLAYER
 10
43.4062926862
 20
33.8054704595
 11
30.5562926862
 21
33.8054704595
  0
LINE
  5
224
100
AcDbEntity
  8
0
100
AcDbLine
 62
7
  6
BYLAYER
 10
29.8062926862
 20
34.5554704595
 11
26.1062926862
 21
34.5554704595
  0
LINE
  5
225
100
AcDbEntity
  8
0
100
AcDbLine
 62
7
  6
BYLAYER
 10
26.0062926862
 20
34.5554704595
 11
23.2062926862
 21
34.5554704595
  0
LINE
  5
226
100
AcDbEntity
  8
0
100
AcDbLine
 62
7
  6
BYLAYER
 10
26.1062926862
 20
34.6054704595
 11
26.0062926862
 21
34.6054704595
  0
LINE
  5
227
100
AcDbEntity
  8
0
100
AcDbLine
 62
7
  6
BYLAYER
 10
62.0062926862
 20
34.6054704595
 11
62.3386090645
 21
34.6054704595
  0
LINE
  5
228
100
AcDbEntity
  8
0
100
AcDbLine
 62
7
  6
BYLAYER
 10
29.8062926862
 20
34.5554704595
 11
30.5562926862
 21
33.8054704595
  0
LINE
  5
229
100
AcDbEntity
  8
0
100
AcDbLine
 62
7
  6
BYLAYER
 10
22.8410223217
 20
55.5263288351
 11
22.8410223217
 21
42.0846120839
  0
LINE
  5
22A
100
AcDbEntity
  8
0
100
AcDbLine
 62
7
  6
BYLAYER
 10
23.0062926862
 20
34.7553306793
 11
23.0062926862
 21
62.8556102397
  0
LINE
  5
22B
100
AcDbEntity
  8
0
100
AcDbLine
 62
7
  6
BYLAYER
 10
23.2062926862
 20
34.5554704595
 11
23.2062926862
 21
63.0554704595
  0
LINE
  5
22C
100
AcDbEntity
  8
0
100
AcDbLine
 62
7
  6
BYLAYER
 10
26.0062926862
 20
63.0553893595
 11
26.0062926862
 21
34.5554436068
  0
LINE
  5
22D
100
AcDbEntity
  8
0
100
AcDbLine
 62
7
  6
BYLAYER
 10
26.1062926862
 20
34.5552601121
 11
26.1062926862
 21
63.0556808069
  0
LINE
  5
22E
100
AcDbEntity
  8
0
100
AcDbLine
 62
7
  6
BYLAYER
 10
46.7259228926
 20
38.1631656141
 11
44.0866624753
 21
38.1631656141
  0
LINE
  5
22F
100
AcDbEntity
  8
0
100
AcDbLine
 62
7
  6
BYLAYER
 10
54.0866624744
 20
38.1631656141
 11
56.7259228979
 21
38.1631656141
  0
LINE
  5
230
100
AcDbEntity
  8
0
100
AcDbLine
 62
7
  6
BYLAYER
 10
46.7515321251
 20
39.1131656141
 11
44.0610532472
 21
39.1131656141
  0
LINE
  5
231
100
AcDbEntity
  8
0
100
AcDbLine
 62
7
  6
BYLAYER
 10
54.061053269
 20
39.1131656141
 11
56.7515321033
 21
39.1131656141
  0
LINE
  5
232
100
AcDbEntity
  8
0
100
AcDbLine
 62
7
  6
BYLAYER
 10
53.2062926862
 20
32.554060298
 11
53.4062926862
 21
32.5004704595
  0
LINE
  5
233
100
AcDbEntity
  8
0
100
AcDbLine
 62
7
  6
BYLAYER
 10
19.9715630507
 20
42.5905751734
 11
22.8410223217
 21
42.0846120839
  0
LINE
  5
234
100
AcDbEntity
  8
0
100
AcDbLine
 62
7
  6
BYLAYER
 10
29.8062926862
 20
63.0554704595
 11
29.8062926862
 21
34.5554704595
  0
LINE
  5
235
100
AcDbEntity
  8
0
100
AcDbLine
 62
7
  6
BYLAYER
 10
30.5562926862
 20
33.8054704595
 11
30.5562926862
 21
63.8054704595
  0
LINE
  5
236
100
AcDbEntity
  8
0
100
AcDbLine
 62
7
  6
BYLAYER
 10
7.8062926862
 20
44.1681637213
 11
17.8062926862
 21
44.1681637213
  0
LINE
  5
237
100
AcDbEntity
  8
0
100
AcDbLine
 62
7
  6
BYLAYER
 10
17.995825495
 20
43.7630463286
 11
19.6167598774
 21
43.6780967572
  0
LINE
  5
238
100
AcDbEntity
  8
0
100
AcDbLine
 62
7
  6
BYLAYER
 10
7.8062926862
 20
46.1681637213
 11
17.8062926862
 21
46.1681637213
  0
LINE
  5
239
100
AcDbEntity
  8
0
100
AcDbLine
 62
7
  6
BYLAYER
 10
17.995825495
 20
46.5732811987
 11
19.6167598774
 21
46.65823077
  0
LINE
  5
23A
100
AcDbEntity
  8
0
100
AcDbLine
 62
7
  6
BYLAYER
 10
43.4062926862
 20
66.8054704595
 11
44.0742747562
 21
69.2984134836
  0
LINE
  5
23B
100
AcDbEntity
  8
0
100
AcDbLine
 62
7
  6
BYLAYER
 10
43.4062926862
 20
30.8054704595
 11
44.0742747562
 21
28.3125274354
  0
LINE
  5
23C
100
AcDbEntity
  8
0
100
AcDbLine
 62
7
  6
BYLAYER
 10
43.4062926862
 20
30.805476532
 11
43.4062926862
 21
66.805464387
  0
LINE
  5
23D
100
AcDbEntity
  8
0
100
AcDbLine
 62
7
  6
BYLAYER
 10
48.1062926862
 20
49.3054704595
 11
47.6062926862
 21
48.8054704595
  0
LINE
  5
23E
100
AcDbEntity
  8
0
100
AcDbLine
 62
7
  6
BYLAYER
 10
19.9715630507
 20
55.0203657456
 11
22.8410223217
 21
55.5263288351
  0
LINE
  5
23F
100
AcDbEntity
  8
0
100
AcDbLine
 62
7
  6
BYLAYER
 10
48.1062926862
 20
48.3054704595
 11
47.6062926862
 21
48.8054704595
  0
LINE
  5
240
100
AcDbEntity
  8
0
100
AcDbLine
 62
7
  6
BYLAYER
 10
53.2062926862
 20
65.056880621
 11
53.4062926862
 21
65.1104704595
  0
LINE
  5
241
100
AcDbEntity
  8
0
100
AcDbLine
 62
7
  6
BYLAYER
 10
46.7515321033
 20
58.4977753049
 11
44.061053269
 21
58.4977753049
  0
LINE
  5
242
100
AcDbEntity
  8
0
100
AcDbLine
 62
7
  6
BYLAYER
 10
54.0610532472
 20
58.4977753049
 11
56.7515321251
 21
58.4977753049
  0
LINE
  5
243
100
AcDbEntity
  8
0
100
AcDbLine
 62
7
  6
BYLAYER
 10
46.7259229285
 20
59.4477753049
 11
44.0866624438
 21
59.4477753049
  0
LINE
  5
244
100
AcDbEntity
  8
0
100
AcDbLine
 62
7
  6
BYLAYER
 10
54.0866624726
 20
59.4477753049
 11
56.7259229238
 21
59.4477753049
  0
LINE
  5
245
100
AcDbEntity
  8
0
100
AcDbLine
 62
7
  6
BYLAYER
 10
47.4062926862
 20
66.805464387
 11
47.4062926862
 21
30.805476532
  0
LINE
  5
246
100
AcDbEntity
  8
0
100
AcDbLine
 62
7
  6
BYLAYER
 10
48.1062926862
 20
64.9151485817
 11
48.1062926862
 21
64.5920407948
  0
LINE
  5
247
100
AcDbEntity
  8
0
100
AcDbLine
 62
7
  6
BYLAYER
 10
48.1062926862
 20
64.583582284
 11
48.1062926862
 21
64.333611683
  0
LINE
  5
248
100
AcDbEntity
  8
0
100
AcDbLine
 62
7
  6
BYLAYER
 10
48.1062926862
 20
64.2368150884
 11
48.1062926862
 21
63.9570040404
  0
LINE
  5
249
100
AcDbEntity
  8
0
100
AcDbLine
 62
7
  6
BYLAYER
 10
48.1062926862
 20
63.7726060425
 11
48.1062926862
 21
63.4650840784
  0
LINE
  5
24A
100
AcDbEntity
  8
0
100
AcDbLine
 62
7
  6
BYLAYER
 10
48.1062926862
 20
63.1944880575
 11
48.1062926862
 21
62.8615956051
  0
LINE
  5
24B
100
AcDbEntity
  8
0
100
AcDbLine
 62
7
  6
BYLAYER
 10
48.1062926862
 20
62.5068609601
 11
48.1062926862
 21
62.1511315321
  0
LINE
  5
24C
100
AcDbEntity
  8
0
100
AcDbLine
 62
7
  6
BYLAYER
 10
48.1062926862
 20
61.714958008
 11
48.1062926862
 21
61.33909892
  0
LINE
  5
24D
100
AcDbEntity
  8
0
100
AcDbLine
 62
7
  6
BYLAYER
 10
48.1062926862
 20
60.8248060606
 11
48.1062926862
 21
60.4316778273
  0
LINE
  5
24E
100
AcDbEntity
  8
0
100
AcDbLine
 62
7
  6
BYLAYER
 10
48.1062926862
 20
59.8431797119
 11
48.1062926862
 21
59.4357742765
  0
LINE
  5
24F
100
AcDbEntity
  8
0
100
AcDbLine
 62
7
  6
BYLAYER
 10
48.1062926862
 20
58.777549731
 11
48.1062926862
 21
58.3589676949
  0
LINE
  5
250
100
AcDbEntity
  8
0
100
AcDbLine
 62
7
  6
BYLAYER
 10
48.1062926862
 20
57.6360262055
 11
48.1062926862
 21
57.2094532307
  0
LINE
  5
251
100
AcDbEntity
  8
0
100
AcDbLine
 62
7
  6
BYLAYER
 10
48.1062926862
 20
56.4272968187
 11
48.1062926862
 21
55.9959793832
  0
LINE
  5
252
100
AcDbEntity
  8
0
100
AcDbLine
 62
7
  6
BYLAYER
 10
48.1062926862
 20
55.1605607312
 11
48.1062926862
 21
54.727781421
  0
LINE
  5
253
100
AcDbEntity
  8
0
100
AcDbLine
 62
7
  6
BYLAYER
 10
48.1062926862
 20
53.8454585694
 11
48.1062926862
 21
53.4145110964
  0
LINE
  5
254
100
AcDbEntity
  8
0
100
AcDbLine
 62
7
  6
BYLAYER
 10
48.1062926862
 20
52.4919990549
 11
48.1062926862
 21
52.0661631896
  0
LINE
  5
255
100
AcDbEntity
  8
0
100
AcDbLine
 62
7
  6
BYLAYER
 10
48.1062926862
 20
51.1104828317
 11
48.1062926862
 21
50.6929994422
  0
LINE
  5
256
100
AcDbEntity
  8
0
100
AcDbLine
 62
7
  6
BYLAYER
 10
48.1062926862
 20
49.7114240726
 11
48.1062926862
 21
49.3054704595
  0
LINE
  5
257
100
AcDbEntity
  8
0
100
AcDbLine
 62
7
  6
BYLAYER
 10
48.1062926862
 20
48.3054704595
 11
48.1062926862
 21
47.8995168464
  0
LINE
  5
258
100
AcDbEntity
  8
0
100
AcDbLine
 62
7
  6
BYLAYER
 10
48.1062926862
 20
46.9179414768
 11
48.1062926862
 21
46.5004580873
  0
LINE
  5
259
100
AcDbEntity
  8
0
100
AcDbLine
 62
7
  6
BYLAYER
 10
48.1062926862
 20
45.5447777295
 11
48.1062926862
 21
45.1189418642
  0
LINE
  5
25A
100
AcDbEntity
  8
0
100
AcDbLine
 62
7
  6
BYLAYER
 10
48.1062926862
 20
44.1964298226
 11
48.1062926862
 21
43.7654823496
  0
LINE
  5
25B
100
AcDbEntity
  8
0
100
AcDbLine
 62
7
  6
BYLAYER
 10
48.1062926862
 20
42.8831594981
 11
48.1062926862
 21
42.4503801878
  0
LINE
  5
25C
100
AcDbEntity
  8
0
100
AcDbLine
 62
7
  6
BYLAYER
 10
48.1062926862
 20
41.6149615359
 11
48.1062926862
 21
41.1836441003
  0
LINE
  5
25D
100
AcDbEntity
  8
0
100
AcDbLine
 62
7
  6
BYLAYER
 10
48.1062926862
 20
40.4014876884
 11
48.1062926862
 21
39.9749147136
  0
LINE
  5
25E
100
AcDbEntity
  8
0
100
AcDbLine
 62
7
  6
BYLAYER
 10
48.1062926862
 20
39.2519732242
 11
48.1062926862
 21
38.833391188
  0
LINE
  5
25F
100
AcDbEntity
  8
0
100
AcDbLine
 62
7
  6
BYLAYER
 10
48.1062926862
 20
38.1751666425
 11
48.1062926862
 21
37.7677612072
  0
LINE
  5
260
100
AcDbEntity
  8
0
100
AcDbLine
 62
7
  6
BYLAYER
 10
48.1062926862
 20
37.1792630917
 11
48.1062926862
 21
36.7861348584
  0
LINE
  5
261
100
AcDbEntity
  8
0
100
AcDbLine
 62
7
  6
BYLAYER
 10
48.1062926862
 20
36.271841999
 11
48.1062926862
 21
35.895982911
  0
LINE
  5
262
100
AcDbEntity
  8
0
100
AcDbLine
 62
7
  6
BYLAYER
 10
48.1062926862
 20
35.4598093869
 11
48.1062926862
 21
35.1040799589
  0
LINE
  5
263
100
AcDbEntity
  8
0
100
AcDbLine
 62
7
  6
BYLAYER
 10
48.1062926862
 20
34.7493453139
 11
48.1062926862
 21
34.4164528616
  0
LINE
  5
264
100
AcDbEntity
  8
0
100
AcDbLine
 62
7
  6
BYLAYER
 10
48.1062926862
 20
34.1458568406
 11
48.1062926862
 21
33.8383348765
  0
LINE
  5
265
100
AcDbEntity
  8
0
100
AcDbLine
 62
7
  6
BYLAYER
 10
48.1062926862
 20
33.6539368787
 11
48.1062926862
 21
33.3741258306
  0
LINE
  5
266
100
AcDbEntity
  8
0
100
AcDbLine
 62
7
  6
BYLAYER
 10
48.1062926862
 20
33.277329236
 11
48.1062926862
 21
33.0273586351
  0
LINE
  5
267
100
AcDbEntity
  8
0
100
AcDbLine
 62
7
  6
BYLAYER
 10
48.1062926862
 20
33.0189001242
 11
48.1062926862
 21
32.6957923373
  0
LINE
  5
268
100
AcDbEntity
  8
0
100
AcDbLine
 62
7
  6
BYLAYER
 10
53.4062926862
 20
66.8054704595
 11
54.0742747562
 21
69.2984134836
  0
LINE
  5
269
100
AcDbEntity
  8
0
100
AcDbLine
 62
7
  6
BYLAYER
 10
52.7062926862
 20
48.3054704595
 11
53.2062926862
 21
48.8054704595
  0
LINE
  5
26A
100
AcDbEntity
  8
0
100
AcDbLine
 62
7
  6
BYLAYER
 10
52.7062926862
 20
49.3054704595
 11
53.2062926862
 21
48.8054704595
  0
LINE
  5
26B
100
AcDbEntity
  8
0
100
AcDbLine
 62
7
  6
BYLAYER
 10
53.4062926862
 20
30.8054704595
 11
54.0742747562
 21
28.3125274354
  0
LINE
  5
26C
100
AcDbEntity
  8
0
100
AcDbLine
 62
7
  6
BYLAYER
 10
26.1062926862
 20
63.0054704595
 11
26.0062926862
 21
63.0054704595
  0
LINE
  5
26D
100
AcDbEntity
  8
0
100
AcDbLine
 62
7
  6
BYLAYER
 10
62.0062926862
 20
63.0054704595
 11
62.3386090645
 21
63.0054704595
  0
LINE
  5
26E
100
AcDbEntity
  8
0
100
AcDbLine
 62
7
  6
BYLAYER
 10
29.8062926862
 20
63.0554704595
 11
26.1062926862
 21
63.0554704595
  0
LINE
  5
26F
100
AcDbEntity
  8
0
100
AcDbLine
 62
7
  6
BYLAYER
 10
26.0062926862
 20
63.0554704595
 11
23.2062926862
 21
63.0554704595
  0
LINE
  5
270
100
AcDbEntity
  8
0
100
AcDbLine
 62
7
  6
BYLAYER
 10
61.5062926861
 20
63.8054704595
 11
57.4062926862
 21
63.8054704595
  0
LINE
  5
271
100
AcDbEntity
  8
0
100
AcDbLine
 62
7
  6
BYLAYER
 10
52.7594571849
 20
63.8054704595
 11
48.0531298289
 21
63.8054704595
  0
LINE
  5
272
100
AcDbEntity
  8
0
100
AcDbLine
 62
7
  6
BYLAYER
 10
43.4062926862
 20
63.8054704595
 11
30.5562926862
 21
63.8054704595
  0
LINE
  5
273
100
AcDbEntity
  8
0
100
AcDbLine
 62
7
  6
BYLAYER
 10
52.7062926862
 20
32.6957923373
 11
52.7062926862
 21
33.0189001242
  0
LINE
  5
274
100
AcDbEntity
  8
0
100
AcDbLine
 62
7
  6
BYLAYER
 10
52.7062926862
 20
33.0273586351
 11
52.7062926862
 21
33.277329236
  0
LINE
  5
275
100
AcDbEntity
  8
0
100
AcDbLine
 62
7
  6
BYLAYER
 10
52.7062926862
 20
33.3741258306
 11
52.7062926862
 21
33.6539368787
  0
LINE
  5
276
100
AcDbEntity
  8
0
100
AcDbLine
 62
7
  6
BYLAYER
 10
52.7062926862
 20
33.8383348765
 11
52.7062926862
 21
34.1458568406
  0
LINE
  5
277
100
AcDbEntity
  8
0
100
AcDbLine
 62
7
  6
BYLAYER
 10
52.7062926862
 20
34.4164528616
 11
52.7062926862
 21
34.7493453139
  0
LINE
  5
278
100
AcDbEntity
  8
0
100
AcDbLine
 62
7
  6
BYLAYER
 10
52.7062926862
 20
35.1040799589
 11
52.7062926862
 21
35.4598093869
  0
LINE
  5
279
100
AcDbEntity
  8
0
100
AcDbLine
 62
7
  6
BYLAYER
 10
52.7062926862
 20
35.895982911
 11
52.7062926862
 21
36.271841999
  0
LINE
  5
27A
100
AcDbEntity
  8
0
100
AcDbLine
 62
7
  6
BYLAYER
 10
52.7062926862
 20
36.7861348584
 11
52.7062926862
 21
37.1792630917
  0
LINE
  5
27B
100
AcDbEntity
  8
0
100
AcDbLine
 62
7
  6
BYLAYER
 10
52.7062926862
 20
37.7677612072
 11
52.7062926862
 21
38.1751666425
  0
LINE
  5
27C
100
AcDbEntity
  8
0
100
AcDbLine
 62
7
  6
BYLAYER
 10
52.7062926862
 20
38.833391188
 11
52.7062926862
 21
39.2519732242
  0
LINE
  5
27D
100
AcDbEntity
  8
0
100
AcDbLine
 62
7
  6
BYLAYER
 10
52.7062926862
 20
39.9749147136
 11
52.7062926862
 21
40.4014876884
  0
LINE
  5
27E
100
AcDbEntity
  8
0
100
AcDbLine
 62
7
  6
BYLAYER
 10
52.7062926862
 20
41.1836441003
 11
52.7062926862
 21
41.6149615359
  0
LINE
  5
27F
100
AcDbEntity
  8
0
100
AcDbLine
 62
7
  6
BYLAYER
 10
52.7062926862
 20
42.4503801878
 11
52.7062926862
 21
42.8831594981
  0
LINE
  5
280
100
AcDbEntity
  8
0
100
AcDbLine
 62
7
  6
BYLAYER
 10
52.7062926862
 20
43.7654823496
 11
52.7062926862
 21
44.1964298226
  0
LINE
  5
281
100
AcDbEntity
  8
0
100
AcDbLine
 62
7
  6
BYLAYER
 10
52.7062926862
 20
45.1189418642
 11
52.7062926862
 21
45.5447777295
  0
LINE
  5
282
100
AcDbEntity
  8
0
100
AcDbLine
 62
7
  6
BYLAYER
 10
52.7062926862
 20
46.5004580873
 11
52.7062926862
 21
46.9179414768
  0
LINE
  5
283
100
AcDbEntity
  8
0
100
AcDbLine
 62
7
  6
BYLAYER
 10
52.7062926862
 20
47.8995168464
 11
52.7062926862
 21
48.3054704595
  0
LINE
  5
284
100
AcDbEntity
  8
0
100
AcDbLine
 62
7
  6
BYLAYER
 10
52.7062926862
 20
49.3054704595
 11
52.7062926862
 21
49.7114240726
  0
LINE
  5
285
100
AcDbEntity
  8
0
100
AcDbLine
 62
7
  6
BYLAYER
 10
52.7062926862
 20
50.6929994422
 11
52.7062926862
 21
51.1104828317
  0
LINE
  5
286
100
AcDbEntity
  8
0
100
AcDbLine
 62
7
  6
BYLAYER
 10
52.7062926862
 20
52.0661631896
 11
52.7062926862
 21
52.4919990549
  0
LINE
  5
287
100
AcDbEntity
  8
0
100
AcDbLine
 62
7
  6
BYLAYER
 10
52.7062926862
 20
53.4145110964
 11
52.7062926862
 21
53.8454585694
  0
LINE
  5
288
100
AcDbEntity
  8
0
100
AcDbLine
 62
7
  6
BYLAYER
 10
52.7062926862
 20
54.727781421
 11
52.7062926862
 21
55.1605607312
  0
LINE
  5
289
100
AcDbEntity
  8
0
100
AcDbLine
 62
7
  6
BYLAYER
 10
52.7062926862
 20
55.9959793832
 11
52.7062926862
 21
56.4272968187
  0
LINE
  5
28A
100
AcDbEntity
  8
0
100
AcDbLine
 62
7
  6
BYLAYER
 10
52.7062926862
 20
57.2094532307
 11
52.7062926862
 21
57.6360262055
  0
LINE
  5
28B
100
AcDbEntity
  8
0
100
AcDbLine
 62
7
  6
BYLAYER
 10
52.7062926862
 20
58.3589676949
 11
52.7062926862
 21
58.777549731
  0
LINE
  5
28C
100
AcDbEntity
  8
0
100
AcDbLine
 62
7
  6
BYLAYER
 10
52.7062926862
 20
59.4357742765
 11
52.7062926862
 21
59.8431797119
  0
LINE
  5
28D
100
AcDbEntity
  8
0
100
AcDbLine
 62
7
  6
BYLAYER
 10
52.7062926862
 20
60.4316778273
 11
52.7062926862
 21
60.8248060606
  0
LINE
  5
28E
100
AcDbEntity
  8
0
100
AcDbLine
 62
7
  6
BYLAYER
 10
52.7062926862
 20
61.33909892
 11
52.7062926862
 21
61.714958008
  0
LINE
  5
28F
100
AcDbEntity
  8
0
100
AcDbLine
 62
7
  6
BYLAYER
 10
52.7062926862
 20
62.1511315321
 11
52.7062926862
 21
62.5068609601
  0
LINE
  5
290
100
AcDbEntity
  8
0
100
AcDbLine
 62
7
  6
BYLAYER
 10
52.7062926862
 20
62.8615956051
 11
52.7062926862
 21
63.1944880575
  0
LINE
  5
291
100
AcDbEntity
  8
0
100
AcDbLine
 62
7
  6
BYLAYER
 10
52.7062926862
 20
63.4650840784
 11
52.7062926862
 21
63.7726060425
  0
LINE
  5
292
100
AcDbEntity
  8
0
100
AcDbLine
 62
7
  6
BYLAYER
 10
52.7062926862
 20
63.9570040404
 11
52.7062926862
 21
64.2368150884
  0
LINE
  5
293
100
AcDbEntity
  8
0
100
AcDbLine
 62
7
  6
BYLAYER
 10
52.7062926862
 20
64.333611683
 11
52.7062926862
 21
64.583582284
  0
LINE
  5
294
100
AcDbEntity
  8
0
100
AcDbLine
 62
7
  6
BYLAYER
 10
52.7062926862
 20
64.5920407948
 11
52.7062926862
 21
64.9151485817
  0
LINE
  5
295
100
AcDbEntity
  8
0
100
AcDbLine
 62
7
  6
BYLAYER
 10
53.4062926862
 20
30.805476532
 11
53.4062926862
 21
66.805464387
  0
LINE
  5
296
100
AcDbEntity
  8
0
100
AcDbLine
 62
7
  6
BYLAYER
 10
47.4062926862
 20
30.8054704595
 11
46.7383106161
 21
28.3125274354
  0
LINE
  5
297
100
AcDbEntity
  8
0
100
AcDbLine
 62
7
  6
BYLAYER
 10
47.4062926862
 20
66.8054704595
 11
46.7383106161
 21
69.2984134836
  0
LINE
  5
298
100
AcDbEntity
  8
0
100
AcDbLine
 62
7
  6
BYLAYER
 10
46.7259228926
 20
69.3400801503
 11
44.0866624753
 21
69.3400801503
  0
LINE
  5
299
100
AcDbEntity
  8
0
100
AcDbLine
 62
7
  6
BYLAYER
 10
54.0866624744
 20
69.3400801503
 11
56.7259228979
 21
69.3400801503
  0
LINE
  5
29A
100
AcDbEntity
  8
0
100
AcDbLine
 62
7
  6
BYLAYER
 10
47.6062926862
 20
65.056880621
 11
47.4062926862
 21
65.1104704595
  0
LINE
  5
29B
100
AcDbEntity
  8
0
100
AcDbLine
 62
7
  6
BYLAYER
 10
57.4062926862
 20
66.805464387
 11
57.4062926862
 21
30.805476532
  0
LINE
  5
29C
100
AcDbEntity
  8
0
100
AcDbLine
 62
7
  6
BYLAYER
 10
61.5062926862
 20
63.8054704595
 11
61.5062926862
 21
33.8054704595
  0
LINE
  5
29D
100
AcDbEntity
  8
0
100
AcDbLine
 62
7
  6
BYLAYER
 10
62.0062926862
 20
63.3053242534
 11
62.0062926862
 21
34.3054449681
  0
LINE
  5
29E
100
AcDbEntity
  8
0
100
AcDbLine
 62
7
  6
BYLAYER
 10
62.2062926862
 20
63.0054704595
 11
62.2062926862
 21
34.6054704595
  0
LINE
  5
29F
100
AcDbEntity
  8
0
100
AcDbLine
 62
7
  6
BYLAYER
 10
62.4062926862
 20
62.8555255506
 11
62.4062926862
 21
34.7554770329
  0
LINE
  5
2A0
100
AcDbEntity
  8
0
100
AcDbLine
 62
7
  6
BYLAYER
 10
57.4062926862
 20
30.8054704595
 11
56.7383106161
 21
28.3125274354
  0
LINE
  5
2A1
100
AcDbEntity
  8
0
100
AcDbLine
 62
7
  6
BYLAYER
 10
57.4062926862
 20
66.8054704595
 11
56.7383106161
 21
69.2984134836
  0
LINE
  5
2A2
100
AcDbEntity
  8
0
100
AcDbLine
 62
7
  6
BYLAYER
 10
62.0062926862
 20
34.3054704595
 11
61.5062926862
 21
33.8054704595
  0
LINE
  5
2A3
100
AcDbEntity
  8
0
100
AcDbLine
 62
7
  6
BYLAYER
 10
62.0062926862
 20
63.3054704595
 11
61.5062926862
 21
63.8054704595
  0
LINE
  5
2A4
100
AcDbEntity
  8
0
100
AcDbLine
 62
7
  6
BYLAYER
 10
62.3385802517
 20
34.6054704595
 11
62.4062926862
 21
34.7554704595
  0
LINE
  5
2A5
100
AcDbEntity
  8
0
100
AcDbLine
 62
7
  6
BYLAYER
 10
62.3385802517
 20
63.0054704595
 11
62.4062926862
 21
62.8554704595
  0
ARC
  5
2A6
100
AcDbEntity
  8
0
100
AcDbCircle
 62
7
  6
BYLAYER
 10
-17.1630723078
 20
40.3607716278
 40
63.9267798389
100
AcDbArc
 50
358.0299592231
 51
358.8817347321
  0
ARC
  5
2A7
100
AcDbEntity
  8
0
100
AcDbCircle
 62
7
  6
BYLAYER
 10
117.97565768
 20
40.3607716264
 40
63.9267798389
100
AcDbArc
 50
181.1182652667
 51
181.9700407757
  0
ARC
  5
2A8
100
AcDbEntity
  8
0
100
AcDbCircle
 62
7
  6
BYLAYER
 10
107.9756566101
 20
40.3607715989
 40
63.9267787686
100
AcDbArc
 50
181.1182652607
 51
181.970040784
  0
ARC
  5
2A9
100
AcDbEntity
  8
0
100
AcDbCircle
 62
7
  6
BYLAYER
 10
-7.1630712375
 20
40.3607715976
 40
63.9267787683
100
AcDbArc
 50
358.0299592172
 51
358.8817347405
  0
ARC
  5
2AA
100
AcDbEntity
  8
0
100
AcDbCircle
 62
7
  6
BYLAYER
 10
-17.1630636642
 20
57.2501715863
 40
63.9267711523
100
AcDbArc
 50
1.1182633625
 51
1.9700389865
  0
ARC
  5
2AB
100
AcDbEntity
  8
0
100
AcDbCircle
 62
7
  6
BYLAYER
 10
117.9756490362
 20
57.2501715903
 40
63.9267711518
100
AcDbArc
 50
178.0299610172
 51
178.8817366412
  0
ARC
  5
2AC
100
AcDbEntity
  8
0
100
AcDbCircle
 62
7
  6
BYLAYER
 10
107.9756449688
 20
57.250171696
 40
63.9267670831
100
AcDbArc
 50
178.0299609864
 51
178.8817366646
  0
ARC
  5
2AD
100
AcDbEntity
  8
0
100
AcDbCircle
 62
7
  6
BYLAYER
 10
-7.1630595966
 20
57.2501717
 40
63.9267670832
100
AcDbArc
 50
1.1182633317
 51
1.97003901
  0
ARC
  5
2AE
100
AcDbEntity
  8
0
100
AcDbCircle
 62
7
  6
BYLAYER
 10
18.0062926862
 20
43.9627722355
 40
0.2
100
AcDbArc
 50
180.0000000016
 51
267.0
  0
ARC
  5
2AF
100
AcDbEntity
  8
0
100
AcDbCircle
 62
7
  6
BYLAYER
 10
18.0062926862
 20
46.3735552917
 40
0.2
100
AcDbArc
 50
93.0
 51
180.0
  0
ARC
  5
2B0
100
AcDbEntity
  8
0
100
AcDbCircle
 62
7
  6
BYLAYER
 10
19.6062926862
 20
46.857956677
 40
0.2
100
AcDbArc
 50
273.0
 51
360.0
  0
ARC
  5
2B1
100
AcDbEntity
  8
0
100
AcDbCircle
 62
7
  6
BYLAYER
 10
19.6062926862
 20
43.4783708503
 40
0.2
100
AcDbArc
 50
0.0
 51
87.0
  0
ARC
  5
2B2
100
AcDbEntity
  8
0
100
AcDbCircle
 62
7
  6
BYLAYER
 10
20.0062926862
 20
42.787536724
 40
0.2
100
AcDbArc
 50
180.0
 51
260.0
  0
ARC
  5
2B3
100
AcDbEntity
  8
0
100
AcDbCircle
 62
7
  6
BYLAYER
 10
20.0062926862
 20
54.823404195
 40
0.2
100
AcDbArc
 50
100.0
 51
180.0
  0
ARC
  5
2B4
100
AcDbEntity
  8
0
100
AcDbCircle
 62
7
  6
BYLAYER
 10
22.8062926862
 20
41.8876505333
 40
0.2
100
AcDbArc
 50
0.0
 51
80.0
  0
ARC
  5
2B5
100
AcDbEntity
  8
0
100
AcDbCircle
 62
7
  6
BYLAYER
 10
22.8062926862
 20
55.7232903858
 40
0.2
100
AcDbArc
 50
280.0
 51
360.0
  0
ARC
  5
2B6
100
AcDbEntity
  8
0
100
AcDbCircle
 62
7
  6
BYLAYER
 10
23.2062926862
 20
34.7554704595
 40
0.2
100
AcDbArc
 50
180.0
 51
270.0
  0
ARC
  5
2B7
100
AcDbEntity
  8
0
100
AcDbCircle
 62
7
  6
BYLAYER
 10
23.2062926862
 20
62.8554704595
 40
0.2
100
AcDbArc
 50
90.0
 51
180.0
  0
SPLINE
  5
2B8
100
AcDbEntity
  8
0
100
AcDbSpline
 62
7
  6
BYLAYER
 70
0
 71
3
 72
11
 73
7
 74
0
 42
0.0000001
 43
0.0000001
 44
0.0000000001
 40
0.0
 40
0.0
 40
0.0
 40
0.0
 40
0.2479076193
 40
0.4967721396
 40
0.7473314337
 40
1.0
 40
1.0
 40
1.0
 40
1.0
 10
43.4062927147
 20
64.3939301546
 30
0.0
 10
43.4062927732
 20
64.8075638107
 30
0.0
 10
43.4371358498
 20
65.6367388744
 30
0.0
 10
43.5728545621
 20
66.8771966072
 30
0.0
 10
43.790104906
 20
68.1138802329
 30
0.0
 10
43.981303962
 20
68.9318804481
 30
0.0
 10
44.0866624753
 20
69.3400801503
 30
0.0
  0
SPLINE
  5
2B9
100
AcDbEntity
  8
0
100
AcDbSpline
 62
7
  6
BYLAYER
 70
0
 71
3
 72
11
 73
7
 74
0
 42
0.0000001
 43
0.0000001
 44
0.0000000001
 40
0.0
 40
0.0
 40
0.0
 40
0.0
 40
0.2479076741
 40
0.4967722948
 40
0.7473315149
 40
1.0
 40
1.0
 40
1.0
 40
1.0
 10
47.4062926602
 20
33.2170156881
 30
0.0
 10
47.4062927391
 20
32.8033815821
 30
0.0
 10
47.375450137
 20
31.9742053644
 30
0.0
 10
47.2397231208
 20
30.7337474035
 30
0.0
 10
47.0224788303
 20
29.497061909
 30
0.0
 10
46.8312814693
 20
28.6790606939
 30
0.0
 10
46.7259228997
 20
28.2708607687
 30
0.0
  0
SPLINE
  5
2BA
100
AcDbEntity
  8
0
100
AcDbSpline
 62
7
  6
BYLAYER
 70
0
 71
3
 72
11
 73
7
 74
0
 42
0.0000001
 43
0.0000001
 44
0.0000000001
 40
0.0
 40
0.0
 40
0.0
 40
0.0
 40
0.2526685678
 40
0.503227765
 40
0.7520922987
 40
1.0
 40
1.0
 40
1.0
 40
1.0
 10
44.0866624486
 20
28.2708607687
 30
0.0
 10
43.9813038485
 20
28.6790608142
 30
0.0
 10
43.7901036668
 20
29.4970613697
 30
0.0
 10
43.5728591055
 20
30.7337470665
 30
0.0
 10
43.4371432359
 20
31.974205805
 30
0.0
 10
43.4062926536
 20
32.8033814807
 30
0.0
 10
43.4062927147
 20
33.2170156184
 30
0.0
  0
SPLINE
  5
2BB
100
AcDbEntity
  8
0
100
AcDbSpline
 62
7
  6
BYLAYER
 70
0
 71
3
 72
11
 73
7
 74
0
 42
0.0000001
 43
0.0000001
 44
0.0000000001
 40
0.0
 40
0.0
 40
0.0
 40
0.0
 40
0.2526684615
 40
0.5032277008
 40
0.7520923335
 40
1.0
 40
1.0
 40
1.0
 40
1.0
 10
46.7259228926
 20
69.3400801503
 30
0.0
 10
46.8312813496
 20
68.9318806666
 30
0.0
 10
47.0224774818
 20
68.1138800261
 30
0.0
 10
47.239722831
 20
66.8771960322
 30
0.0
 10
47.375451514
 20
65.6367393753
 30
0.0
 10
47.4062926162
 20
64.8075639092
 30
0.0
 10
47.4062926602
 20
64.3939302244
 30
0.0
  0
SPLINE
  5
2BC
100
AcDbEntity
  8
0
100
AcDbSpline
 62
7
  6
BYLAYER
 70
0
 71
3
 72
11
 73
7
 74
0
 42
0.0000001
 43
0.0000001
 44
0.0000000001
 40
0.0
 40
0.0
 40
0.0
 40
0.0
 40
0.2479076741
 40
0.4967722948
 40
0.7473315149
 40
1.0
 40
1.0
 40
1.0
 40
1.0
 10
47.4062926602
 20
64.3939302244
 30
0.0
 10
47.4062927391
 20
63.9802961183
 30
0.0
 10
47.375450137
 20
63.1511199007
 30
0.0
 10
47.2397231208
 20
61.9106619397
 30
0.0
 10
47.0224788303
 20
60.6739764452
 30
0.0
 10
46.8312814693
 20
59.8559752301
 30
0.0
 10
46.7259228997
 20
59.4477753049
 30
0.0
  0
SPLINE
  5
2BD
100
AcDbEntity
  8
0
100
AcDbSpline
 62
7
  6
BYLAYER
 70
0
 71
3
 72
10
 73
6
 74
0
 42
0.0000001
 43
0.0000001
 44
0.0000000001
 40
0.0
 40
0.0
 40
0.0
 40
0.0
 40
0.4999749991
 40
0.7499876268
 40
1.0
 40
1.0
 40
1.0
 40
1.0
 10
46.7515321033
 20
58.4977753049
 30
0.0
 10
46.955679402
 20
56.8907545053
 30
0.0
 10
47.2036593562
 20
54.4716784353
 30
0.0
 10
47.3768275612
 20
51.235781127
 30
0.0
 10
47.4062926862
 20
49.6155189467
 30
0.0
 10
47.4062926862
 20
48.8054704595
 30
0.0
  0
SPLINE
  5
2BE
100
AcDbEntity
  8
0
100
AcDbSpline
 62
7
  6
BYLAYER
 70
0
 71
3
 72
11
 73
7
 74
0
 42
0.0000001
 43
0.0000001
 44
0.0000000001
 40
0.0
 40
0.0
 40
0.0
 40
0.0
 40
0.2526685678
 40
0.503227765
 40
0.7520922987
 40
1.0
 40
1.0
 40
1.0
 40
1.0
 10
44.0866624486
 20
59.4477753049
 30
0.0
 10
43.9813038485
 20
59.8559753504
 30
0.0
 10
43.7901036668
 20
60.6739759059
 30
0.0
 10
43.5728591055
 20
61.9106616027
 30
0.0
 10
43.4371432359
 20
63.1511203412
 30
0.0
 10
43.4062926536
 20
63.9802960169
 30
0.0
 10
43.4062927147
 20
64.3939301546
 30
0.0
  0
SPLINE
  5
2BF
100
AcDbEntity
  8
0
100
AcDbSpline
 62
7
  6
BYLAYER
 70
0
 71
3
 72
10
 73
6
 74
0
 42
0.0000001
 43
0.0000001
 44
0.0000000001
 40
0.0
 40
0.0
 40
0.0
 40
0.0
 40
0.2500123748
 40
0.5000250032
 40
1.0
 40
1.0
 40
1.0
 40
1.0
 10
43.4062926862
 20
48.8054704595
 30
0.0
 10
43.4062926862
 20
49.6155189519
 30
0.0
 10
43.4357578074
 20
51.2357811399
 30
0.0
 10
43.6089260185
 20
54.4716784479
 30
0.0
 10
43.8569059712
 20
56.8907545127
 30
0.0
 10
44.061053269
 20
58.4977753049
 30
0.0
  0
SPLINE
  5
2C0
100
AcDbEntity
  8
0
100
AcDbSpline
 62
7
  6
BYLAYER
 70
0
 71
3
 72
10
 73
6
 74
0
 42
0.0000001
 43
0.0000001
 44
0.0000000001
 40
0.0
 40
0.0
 40
0.0
 40
0.0
 40
0.4999749991
 40
0.7499876268
 40
1.0
 40
1.0
 40
1.0
 40
1.0
 10
44.061053269
 20
39.1131656141
 30
0.0
 10
43.8569059703
 20
40.7201864138
 30
0.0
 10
43.6089260161
 20
43.1392624837
 30
0.0
 10
43.4357578111
 20
46.375159792
 30
0.0
 10
43.4062926862
 20
47.9954219723
 30
0.0
 10
43.4062926862
 20
48.8054704595
 30
0.0
  0
SPLINE
  5
2C1
100
AcDbEntity
  8
0
100
AcDbSpline
 62
7
  6
BYLAYER
 70
0
 71
3
 72
11
 73
7
 74
0
 42
0.0000001
 43
0.0000001
 44
0.0000000001
 40
0.0
 40
0.0
 40
0.0
 40
0.0
 40
0.2479076193
 40
0.4967721396
 40
0.7473314337
 40
1.0
 40
1.0
 40
1.0
 40
1.0
 10
43.4062927147
 20
33.2170156184
 30
0.0
 10
43.4062927732
 20
33.6306492745
 30
0.0
 10
43.4371358498
 20
34.4598243382
 30
0.0
 10
43.5728545621
 20
35.700282071
 30
0.0
 10
43.7901049061
 20
36.9369656967
 30
0.0
 10
43.981303962
 20
37.7549659119
 30
0.0
 10
44.0866624753
 20
38.1631656141
 30
0.0
  0
SPLINE
  5
2C2
100
AcDbEntity
  8
0
100
AcDbSpline
 62
7
  6
BYLAYER
 70
0
 71
3
 72
10
 73
6
 74
0
 42
0.0000001
 43
0.0000001
 44
0.0000000001
 40
0.0
 40
0.0
 40
0.0
 40
0.0
 40
0.2500123748
 40
0.5000250032
 40
1.0
 40
1.0
 40
1.0
 40
1.0
 10
47.4062926862
 20
48.8054704595
 30
0.0
 10
47.4062926862
 20
47.9954219671
 30
0.0
 10
47.3768275649
 20
46.3751597791
 30
0.0
 10
47.2036593539
 20
43.1392624711
 30
0.0
 10
46.9556794011
 20
40.7201864063
 30
0.0
 10
46.7515321033
 20
39.1131656141
 30
0.0
  0
SPLINE
  5
2C3
100
AcDbEntity
  8
0
100
AcDbSpline
 62
7
  6
BYLAYER
 70
0
 71
3
 72
11
 73
7
 74
0
 42
0.0000001
 43
0.0000001
 44
0.0000000001
 40
0.0
 40
0.0
 40
0.0
 40
0.0
 40
0.2526684615
 40
0.5032277008
 40
0.7520923335
 40
1.0
 40
1.0
 40
1.0
 40
1.0
 10
46.7259228926
 20
38.1631656141
 30
0.0
 10
46.8312813496
 20
37.7549661304
 30
0.0
 10
47.0224774818
 20
36.9369654899
 30
0.0
 10
47.239722831
 20
35.700281496
 30
0.0
 10
47.375451514
 20
34.4598248391
 30
0.0
 10
47.4062926161
 20
33.630649373
 30
0.0
 10
47.4062926602
 20
33.2170156881
 30
0.0
  0
SPLINE
  5
2C4
100
AcDbEntity
  8
0
100
AcDbSpline
 62
7
  6
BYLAYER
 70
0
 71
3
 72
11
 73
7
 74
0
 42
0.0000001
 43
0.0000001
 44
0.0000000001
 40
0.0
 40
0.0
 40
0.0
 40
0.0
 40
0.2526685681
 40
0.5032278636
 40
0.7520923829
 40
1.0
 40
1.0
 40
1.0
 40
1.0
 10
56.7259228971
 20
69.3400801503
 30
0.0
 10
56.831281411
 20
68.9318804452
 30
0.0
 10
57.0224804668
 20
68.1138802245
 30
0.0
 10
57.2397308122
 20
66.8771965953
 30
0.0
 10
57.3754495244
 20
65.6367388653
 30
0.0
 10
57.4062925992
 20
64.8075638069
 30
0.0
 10
57.4062926577
 20
64.3939301546
 30
0.0
  0
SPLINE
  5
2C5
100
AcDbEntity
  8
0
100
AcDbSpline
 62
7
  6
BYLAYER
 70
0
 71
3
 72
11
 73
7
 74
0
 42
0.0000001
 43
0.0000001
 44
0.0000000001
 40
0.0
 40
0.0
 40
0.0
 40
0.0
 40
0.2526684868
 40
0.5032277079
 40
0.7520923277
 40
1.0
 40
1.0
 40
1.0
 40
1.0
 10
54.0866624726
 20
59.4477753049
 30
0.0
 10
53.9813039023
 20
59.8559752328
 30
0.0
 10
53.7901065283
 20
60.6739764497
 30
0.0
 10
53.5728622527
 20
61.9106619503
 30
0.0
 10
53.4371352392
 20
63.1511199082
 30
0.0
 10
53.4062926332
 20
63.9802961214
 30
0.0
 10
53.4062927121
 20
64.3939302244
 30
0.0
  0
SPLINE
  5
2C6
100
AcDbEntity
  8
0
100
AcDbSpline
 62
7
  6
BYLAYER
 70
0
 71
3
 72
10
 73
6
 74
0
 42
0.0000001
 43
0.0000001
 44
0.0000000001
 40
0.0
 40
0.0
 40
0.0
 40
0.0
 40
0.2500123748
 40
0.5000250032
 40
1.0
 40
1.0
 40
1.0
 40
1.0
 10
53.4062926862
 20
48.8054704595
 30
0.0
 10
53.4062926862
 20
49.6155189519
 30
0.0
 10
53.4357578074
 20
51.2357811399
 30
0.0
 10
53.6089260185
 20
54.4716784479
 30
0.0
 10
53.8569059712
 20
56.8907545127
 30
0.0
 10
54.061053269
 20
58.4977753049
 30
0.0
  0
SPLINE
  5
2C7
100
AcDbEntity
  8
0
100
AcDbSpline
 62
7
  6
BYLAYER
 70
0
 71
3
 72
11
 73
7
 74
0
 42
0.0000001
 43
0.0000001
 44
0.0000000001
 40
0.0
 40
0.0
 40
0.0
 40
0.0
 40
0.2526684868
 40
0.5032277079
 40
0.7520923277
 40
1.0
 40
1.0
 40
1.0
 40
1.0
 10
54.0866624726
 20
28.2708607687
 30
0.0
 10
53.9813039023
 20
28.6790606966
 30
0.0
 10
53.7901065283
 20
29.4970619135
 30
0.0
 10
53.5728622527
 20
30.7337474141
 30
0.0
 10
53.4371352392
 20
31.974205372
 30
0.0
 10
53.4062926332
 20
32.8033815852
 30
0.0
 10
53.4062927121
 20
33.2170156882
 30
0.0
  0
SPLINE
  5
2C8
100
AcDbEntity
  8
0
100
AcDbSpline
 62
7
  6
BYLAYER
 70
0
 71
3
 72
11
 73
7
 74
0
 42
0.0000001
 43
0.0000001
 44
0.0000000001
 40
0.0
 40
0.0
 40
0.0
 40
0.0
 40
0.2479077031
 40
0.4967722377
 40
0.7473314339
 40
1.0
 40
1.0
 40
1.0
 40
1.0
 10
57.4062926577
 20
33.2170156184
 30
0.0
 10
57.4062927187
 20
32.8033814777
 30
0.0
 10
57.3754421398
 20
31.9742057975
 30
0.0
 10
57.2397262691
 20
30.7337470558
 30
0.0
 10
57.0224816909
 20
29.4970613653
 30
0.0
 10
56.8312815231
 20
28.6790608114
 30
0.0
 10
56.7259229238
 20
28.2708607687
 30
0.0
  0
SPLINE
  5
2C9
100
AcDbEntity
  8
0
100
AcDbSpline
 62
7
  6
BYLAYER
 70
0
 71
3
 72
10
 73
6
 74
0
 42
0.0000001
 43
0.0000001
 44
0.0000000001
 40
0.0
 40
0.0
 40
0.0
 40
0.0
 40
0.4999749991
 40
0.7499876268
 40
1.0
 40
1.0
 40
1.0
 40
1.0
 10
54.061053269
 20
39.1131656141
 30
0.0
 10
53.8569059703
 20
40.7201864138
 30
0.0
 10
53.6089260161
 20
43.1392624837
 30
0.0
 10
53.4357578111
 20
46.375159792
 30
0.0
 10
53.4062926862
 20
47.9954219723
 30
0.0
 10
53.4062926862
 20
48.8054704595
 30
0.0
  0
SPLINE
  5
2CA
100
AcDbEntity
  8
0
100
AcDbSpline
 62
7
  6
BYLAYER
 70
0
 71
3
 72
11
 73
7
 74
0
 42
0.0000001
 43
0.0000001
 44
0.0000000001
 40
0.0
 40
0.0
 40
0.0
 40
0.0
 40
0.2479076683
 40
0.4967723019
 40
0.7473315402
 40
1.0
 40
1.0
 40
1.0
 40
1.0
 10
53.4062927121
 20
33.2170156882
 30
0.0
 10
53.4062927562
 20
33.630649376
 30
0.0
 10
53.4371338549
 20
34.4598248466
 30
0.0
 10
53.5728625396
 20
35.7002815065
 30
0.0
 10
53.7901079045
 20
36.9369654943
 30
0.0
 10
53.9813040234
 20
37.7549661332
 30
0.0
 10
54.0866624797
 20
38.1631656141
 30
0.0
  0
SPLINE
  5
2CB
100
AcDbEntity
  8
0
100
AcDbSpline
 62
7
  6
BYLAYER
 70
0
 71
3
 72
10
 73
6
 74
0
 42
0.0000001
 43
0.0000001
 44
0.0000000001
 40
0.0
 40
0.0
 40
0.0
 40
0.0
 40
0.2500123748
 40
0.5000250032
 40
1.0
 40
1.0
 40
1.0
 40
1.0
 10
57.4062926862
 20
48.8054704595
 30
0.0
 10
57.4062926862
 20
47.9954219671
 30
0.0
 10
57.3768275649
 20
46.3751597791
 30
0.0
 10
57.2036593539
 20
43.1392624711
 30
0.0
 10
56.9556794011
 20
40.7201864063
 30
0.0
 10
56.7515321033
 20
39.1131656141
 30
0.0
  0
SPLINE
  5
2CC
100
AcDbEntity
  8
0
100
AcDbSpline
 62
7
  6
BYLAYER
 70
0
 71
3
 72
11
 73
7
 74
0
 42
0.0000001
 43
0.0000001
 44
0.0000000001
 40
0.0
 40
0.0
 40
0.0
 40
0.0
 40
0.2526685681
 40
0.5032278636
 40
0.7520923829
 40
1.0
 40
1.0
 40
1.0
 40
1.0
 10
56.7259228971
 20
38.1631656141
 30
0.0
 10
56.831281411
 20
37.754965909
 30
0.0
 10
57.0224804668
 20
36.9369656883
 30
0.0
 10
57.2397308122
 20
35.7002820591
 30
0.0
 10
57.3754495244
 20
34.4598243292
 30
0.0
 10
57.4062925992
 20
33.6306492707
 30
0.0
 10
57.4062926577
 20
33.2170156184
 30
0.0
  0
SPLINE
  5
2CD
100
AcDbEntity
  8
0
100
AcDbSpline
 62
7
  6
BYLAYER
 70
0
 71
3
 72
11
 73
7
 74
0
 42
0.0000001
 43
0.0000001
 44
0.0000000001
 40
0.0
 40
0.0
 40
0.0
 40
0.0
 40
0.2479076683
 40
0.4967723019
 40
0.7473315402
 40
1.0
 40
1.0
 40
1.0
 40
1.0
 10
53.4062927121
 20
64.3939302244
 30
0.0
 10
53.4062927562
 20
64.8075639122
 30
0.0
 10
53.4371338549
 20
65.6367393828
 30
0.0
 10
53.5728625396
 20
66.8771960427
 30
0.0
 10
53.7901079045
 20
68.1138800305
 30
0.0
 10
53.9813040234
 20
68.9318806694
 30
0.0
 10
54.0866624797
 20
69.3400801503
 30
0.0
  0
SPLINE
  5
2CE
100
AcDbEntity
  8
0
100
AcDbSpline
 62
7
  6
BYLAYER
 70
0
 71
3
 72
11
 73
7
 74
0
 42
0.0000001
 43
0.0000001
 44
0.0000000001
 40
0.0
 40
0.0
 40
0.0
 40
0.0
 40
0.2479077031
 40
0.4967722377
 40
0.7473314339
 40
1.0
 40
1.0
 40
1.0
 40
1.0
 10
57.4062926577
 20
64.3939301546
 30
0.0
 10
57.4062927187
 20
63.9802960139
 30
0.0
 10
57.3754421398
 20
63.1511203337
 30
0.0
 10
57.2397262691
 20
61.910661592
 30
0.0
 10
57.0224816909
 20
60.6739759015
 30
0.0
 10
56.8312815231
 20
59.8559753476
 30
0.0
 10
56.7259229238
 20
59.4477753049
 30
0.0
  0
SPLINE
  5
2CF
100
AcDbEntity
  8
0
100
AcDbSpline
 62
7
  6
BYLAYER
 70
0
 71
3
 72
10
 73
6
 74
0
 42
0.0000001
 43
0.0000001
 44
0.0000000001
 40
0.0
 40
0.0
 40
0.0
 40
0.0
 40
0.4999749991
 40
0.7499876268
 40
1.0
 40
1.0
 40
1.0
 40
1.0
 10
56.7515321033
 20
58.4977753049
 30
0.0
 10
56.955679402
 20
56.8907545053
 30
0.0
 10
57.2036593562
 20
54.4716784353
 30
0.0
 10
57.3768275612
 20
51.235781127
 30
0.0
 10
57.4062926862
 20
49.6155189467
 30
0.0
 10
57.4062926862
 20
48.8054704595
 30
0.0
  0
ELLIPSE
  5
2D0
100
AcDbEntity
  8
0
100
AcDbEllipse
 62
7
  6
BYLAYER
 10
54.2216677708
 20
47.6567226315
 30
0.0
 11
15.791979517
 21
-10.9958379272
 31
0.0
 40
0.818317629
 41
-1.3965536952
 42
-1.3960435217
  0
ELLIPSE
  5
2D1
100
AcDbEntity
  8
0
100
AcDbEllipse
 62
7
  6
BYLAYER
 10
54.2216677707
 20
47.0932853971
 30
0.0
 11
15.6563003942
 21
-12.3580633753
 31
0.0
 40
0.7470541823
 41
4.8970060586
 42
4.9020265797
  0
ELLIPSE
  5
2D2
100
AcDbEntity
  8
0
100
AcDbEllipse
 62
7
  6
BYLAYER
 10
54.2216677708
 20
46.5428789249
 30
0.0
 11
15.7703479229
 21
-13.3023954138
 31
0.0
 40
0.6792721423
 41
4.881095312
 42
4.8895407588
  0
ELLIPSE
  5
2D3
100
AcDbEntity
  8
0
100
AcDbEllipse
 62
7
  6
BYLAYER
 10
54.2216677708
 20
46.0096921405
 30
0.0
 11
15.9844133441
 21
-14.0585338956
 31
0.0
 40
0.6154007239
 41
-1.4290229293
 42
-1.4178485365
  0
ELLIPSE
  5
2D4
100
AcDbEntity
  8
0
100
AcDbEllipse
 62
7
  6
BYLAYER
 10
54.2216677708
 20
45.4977829172
 30
0.0
 11
16.2385436118
 21
-14.7051040421
 31
0.0
 40
0.5552272381
 41
-1.4615012695
 42
-1.4480705033
  0
ELLIPSE
  5
2D5
100
AcDbEntity
  8
0
100
AcDbEllipse
 62
7
  6
BYLAYER
 10
54.2216677708
 20
45.0110471934
 30
0.0
 11
16.5043969512
 21
-15.274965845
 31
0.0
 40
0.4983942514
 41
-1.4971206964
 42
-1.4817673503
  0
ELLIPSE
  5
2D6
100
AcDbEntity
  8
0
100
AcDbEllipse
 62
7
  6
BYLAYER
 10
54.2216677708
 20
44.5531893217
 30
0.0
 11
16.766803626
 21
-15.7835371161
 31
0.0
 40
0.4445239339
 41
-1.5346729672
 42
-1.5176380826
  0
ELLIPSE
  5
2D7
100
AcDbEntity
  8
0
100
AcDbEllipse
 62
7
  6
BYLAYER
 10
54.2216677708
 20
44.1276938771
 30
0.0
 11
17.0168501026
 21
-16.2384907108
 31
0.0
 40
0.3932536107
 41
-1.5734880867
 42
-1.5549485398
  0
ELLIPSE
  5
2D8
100
AcDbEntity
  8
0
100
AcDbEllipse
 62
7
  6
BYLAYER
 10
54.2216677708
 20
43.7377991368
 30
0.0
 11
17.2489119491
 21
-16.6436838349
 31
0.0
 40
0.3442450777
 41
-1.6131670271
 42
-1.5932525833
  0
ELLIPSE
  5
2D9
100
AcDbEntity
  8
0
100
AcDbEllipse
 62
7
  6
BYLAYER
 10
54.2216677708
 20
43.3864724352
 30
0.0
 11
17.4592414022
 21
-17.0009614673
 31
0.0
 40
0.2971852239
 41
-1.6534575031
 42
-1.6322627734
  0
ELLIPSE
  5
2DA
100
AcDbEntity
  8
0
100
AcDbEllipse
 62
7
  6
BYLAYER
 10
54.2216677708
 20
43.0763875807
 30
0.0
 11
17.6452378715
 21
-17.311068251
 31
0.0
 40
0.2517837063
 41
-1.6940323896
 42
-1.6717847557
  0
ELLIPSE
  5
2DB
100
AcDbEntity
  8
0
100
AcDbEllipse
 62
7
  6
BYLAYER
 10
54.2216677708
 20
42.8099045062
 30
0.0
 11
17.8050458869
 21
-17.5741469284
 31
0.0
 40
0.2077697388
 41
-1.735034466
 42
-1.7116814851
  0
ELLIPSE
  5
2DC
100
AcDbEntity
  8
0
100
AcDbEllipse
 62
7
  6
BYLAYER
 10
54.2216677708
 20
42.5890513088
 30
0.0
 11
17.9373217495
 21
-17.7900285404
 31
0.0
 40
0.1648887629
 41
-1.7763537932
 42
-1.7518524984
  0
ELLIPSE
  5
2DD
100
AcDbEntity
  8
0
100
AcDbEllipse
 62
7
  6
BYLAYER
 10
54.2216677707
 20
42.4155088147
 30
0.0
 11
18.0410926156
 21
-17.9584099181
 31
0.0
 40
0.1228992729
 41
-1.8179059513
 42
-1.7922212391
  0
ELLIPSE
  5
2DE
100
AcDbEntity
  8
0
100
AcDbEllipse
 62
7
  6
BYLAYER
 10
54.2216677708
 20
42.2905977871
 30
0.0
 11
18.1156691418
 21
-18.0789658936
 31
0.0
 40
0.0815698667
 41
-1.8596229162
 42
-1.8327268879
  0
ELLIPSE
  5
2DF
100
AcDbEntity
  8
0
100
AcDbEllipse
 62
7
  6
BYLAYER
 10
54.2216677708
 20
42.2152688743
 30
0.0
 11
18.1605909673
 21
-18.1514209571
 31
0.0
 40
0.0406765142
 41
-1.9014465147
 42
-1.8733187897
  0
ELLIPSE
  5
2E0
100
AcDbEntity
  8
0
100
AcDbEllipse
 62
7
  6
BYLAYER
 10
54.2216677708
 20
55.3956720447
 30
0.0
 11
18.1605909673
 21
18.1514209571
 31
0.0
 40
0.0406765142
 41
1.8733187897
 42
1.9014465202
  0
ELLIPSE
  5
2E1
100
AcDbEntity
  8
0
100
AcDbEllipse
 62
7
  6
BYLAYER
 10
54.2216677708
 20
55.3203431319
 30
0.0
 11
18.1156691418
 21
18.0789658936
 31
0.0
 40
0.0815698667
 41
1.8327268879
 42
1.8596229267
  0
ELLIPSE
  5
2E2
100
AcDbEntity
  8
0
100
AcDbEllipse
 62
7
  6
BYLAYER
 10
54.2216677707
 20
55.1954321043
 30
0.0
 11
18.0410926156
 21
17.9584099181
 31
0.0
 40
0.1228992729
 41
1.7922212391
 42
1.8179059663
  0
ELLIPSE
  5
2E3
100
AcDbEntity
  8
0
100
AcDbEllipse
 62
7
  6
BYLAYER
 10
54.2216677708
 20
55.0218896102
 30
0.0
 11
17.9373217495
 21
17.7900285404
 31
0.0
 40
0.1648887629
 41
1.7518524984
 42
1.7763538123
  0
ELLIPSE
  5
2E4
100
AcDbEntity
  8
0
100
AcDbEllipse
 62
7
  6
BYLAYER
 10
54.2216677708
 20
54.8010364129
 30
0.0
 11
17.8050458869
 21
17.5741469284
 31
0.0
 40
0.2077697388
 41
1.7116814851
 42
1.735034489
  0
ELLIPSE
  5
2E5
100
AcDbEntity
  8
0
100
AcDbEllipse
 62
7
  6
BYLAYER
 10
54.2216677708
 20
54.5345533383
 30
0.0
 11
17.6452378715
 21
17.311068251
 31
0.0
 40
0.2517837063
 41
1.6717847557
 42
1.694032417
  0
ELLIPSE
  5
2E6
100
AcDbEntity
  8
0
100
AcDbEllipse
 62
7
  6
BYLAYER
 10
54.2216677708
 20
54.2244684838
 30
0.0
 11
17.4592414022
 21
17.0009614673
 31
0.0
 40
0.2971852239
 41
1.6322627734
 42
1.653457536
  0
ELLIPSE
  5
2E7
100
AcDbEntity
  8
0
100
AcDbEllipse
 62
7
  6
BYLAYER
 10
54.2216677708
 20
53.8731417822
 30
0.0
 11
17.2489119491
 21
16.6436838349
 31
0.0
 40
0.3442450777
 41
1.5932525833
 42
1.6131670491
  0
ELLIPSE
  5
2E8
100
AcDbEntity
  8
0
100
AcDbEllipse
 62
7
  6
BYLAYER
 10
54.2216677708
 20
53.4832470419
 30
0.0
 11
17.0168501026
 21
16.2384907108
 31
0.0
 40
0.3932536107
 41
1.5549485398
 42
1.5734880833
  0
ELLIPSE
  5
2E9
100
AcDbEntity
  8
0
100
AcDbEllipse
 62
7
  6
BYLAYER
 10
54.2216677708
 20
53.0577515973
 30
0.0
 11
16.766803626
 21
15.7835371161
 31
0.0
 40
0.4445239339
 41
1.5176380826
 42
1.5346729655
  0
ELLIPSE
  5
2EA
100
AcDbEntity
  8
0
100
AcDbEllipse
 62
7
  6
BYLAYER
 10
54.2216677708
 20
52.5998937257
 30
0.0
 11
16.5043969512
 21
15.274965845
 31
0.0
 40
0.4983942514
 41
1.4817673503
 42
1.4971206958
  0
ELLIPSE
  5
2EB
100
AcDbEntity
  8
0
100
AcDbEllipse
 62
7
  6
BYLAYER
 10
54.2216677708
 20
52.1131580018
 30
0.0
 11
16.2385436118
 21
14.7051040421
 31
0.0
 40
0.5552272381
 41
1.4480705033
 42
1.4615012691
  0
ELLIPSE
  5
2EC
100
AcDbEntity
  8
0
100
AcDbEllipse
 62
7
  6
BYLAYER
 10
54.2216677708
 20
51.6012487785
 30
0.0
 11
15.9844133441
 21
14.0585338956
 31
0.0
 40
0.6154007239
 41
1.4178485365
 42
1.4290229277
  0
ELLIPSE
  5
2ED
100
AcDbEntity
  8
0
100
AcDbEllipse
 62
7
  6
BYLAYER
 10
54.2216677708
 20
51.0680619941
 30
0.0
 11
15.7703479229
 21
13.3023954138
 31
0.0
 40
0.6792721423
 41
1.3936445484
 42
1.4020899947
  0
ELLIPSE
  5
2EE
100
AcDbEntity
  8
0
100
AcDbEllipse
 62
7
  6
BYLAYER
 10
54.2216677707
 20
50.5176555219
 30
0.0
 11
15.6563003942
 21
12.3580633753
 31
0.0
 40
0.7470541823
 41
1.3811587275
 42
1.3861792519
  0
ELLIPSE
  5
2EF
100
AcDbEntity
  8
0
100
AcDbEllipse
 62
7
  6
BYLAYER
 10
54.2216677708
 20
49.9542182875
 30
0.0
 11
15.791979517
 21
10.9958379272
 31
0.0
 40
0.818317629
 41
1.3960435217
 42
1.3965536961
  0
ELLIPSE
  5
2F0
100
AcDbEntity
  8
0
100
AcDbEllipse
 62
7
  6
BYLAYER
 10
42.9149146704
 20
48.8054704595
 30
0.0
 11
17.5084611122
 21
0.0
 31
0.0
 40
0.963433044
 41
7.5529487364
 42
7.5827178802
  0
ELLIPSE
  5
2F1
100
AcDbEntity
  8
0
100
AcDbEllipse
 62
7
  6
BYLAYER
 10
42.9149146704
 20
49.214350995
 30
0.0
 11
14.9543464083
 21
-10.0427045149
 31
0.0
 40
0.9066977799
 41
1.8167011824
 42
1.8464703263
  0
ELLIPSE
  5
2F2
100
AcDbEntity
  8
0
100
AcDbEllipse
 62
7
  6
BYLAYER
 10
42.9149146704
 20
49.6201197027
 30
0.0
 11
14.4741311195
 21
-11.8601695234
 31
0.0
 40
0.8306103506
 41
1.8673543145
 42
1.8971234584
  0
ELLIPSE
  5
2F3
100
AcDbEntity
  8
0
100
AcDbEllipse
 62
7
  6
BYLAYER
 10
42.9149146704
 20
50.0196884378
 30
0.0
 11
14.5700382847
 21
-12.8060309747
 31
0.0
 40
0.7581403628
 41
1.8575479087
 42
1.8873170525
  0
ELLIPSE
  5
2F4
100
AcDbEntity
  8
0
100
AcDbEllipse
 62
7
  6
BYLAYER
 10
42.9149146704
 20
50.4100162408
 30
0.0
 11
14.8194770471
 21
-13.5094930283
 31
0.0
 40
0.6901509118
 41
1.8313373379
 42
1.8611064818
  0
ELLIPSE
  5
2F5
100
AcDbEntity
  8
0
100
AcDbEllipse
 62
7
  6
BYLAYER
 10
42.9149146704
 20
50.7881324817
 30
0.0
 11
15.1182070608
 21
-14.1001405585
 31
0.0
 40
0.6263036642
 41
1.7984306655
 42
1.8281998094
  0
ELLIPSE
  5
2F6
100
AcDbEntity
  8
0
100
AcDbEllipse
 62
7
  6
BYLAYER
 10
42.9149146704
 20
51.1511594674
 30
0.0
 11
15.4285527016
 21
-14.6201143459
 31
0.0
 40
0.5661264515
 41
1.7621534647
 42
1.7919226086
  0
ELLIPSE
  5
2F7
100
AcDbEntity
  8
0
100
AcDbEllipse
 62
7
  6
BYLAYER
 10
42.9149146704
 20
51.4963343433
 30
0.0
 11
15.7334287619
 21
-15.0865489373
 31
0.0
 40
0.5091621171
 41
1.7239491005
 42
1.7537182443
  0
ELLIPSE
  5
2F8
100
AcDbEntity
  8
0
100
AcDbEllipse
 62
7
  6
BYLAYER
 10
42.9149146704
 20
51.8210301204
 30
0.0
 11
16.023819938
 21
-15.507275323
 31
0.0
 40
0.4549951859
 41
1.6845450189
 42
1.7143141628
  0
ELLIPSE
  5
2F9
100
AcDbEntity
  8
0
100
AcDbEllipse
 62
7
  6
BYLAYER
 10
42.9149146704
 20
52.1227756675
 30
0.0
 11
16.2944188981
 21
-15.8860502942
 31
0.0
 40
0.4032531911
 41
1.6443480471
 42
1.674117191
  0
ELLIPSE
  5
2FA
100
AcDbEntity
  8
0
100
AcDbEllipse
 62
7
  6
BYLAYER
 10
42.9149146704
 20
52.399274519
 30
0.0
 11
16.5418339295
 21
-16.2246471729
 31
0.0
 40
0.3536019736
 41
1.6036040158
 42
1.6333731597
  0
ELLIPSE
  5
2FB
100
AcDbEntity
  8
0
100
AcDbEllipse
 62
7
  6
BYLAYER
 10
42.9149146704
 20
52.6484223516
 30
0.0
 11
16.7637596114
 21
-16.523808647
 31
0.0
 40
0.3057398728
 41
1.5624707743
 42
1.5922399181
  0
ELLIPSE
  5
2FC
100
AcDbEntity
  8
0
100
AcDbEllipse
 62
7
  6
BYLAYER
 10
42.9149146704
 20
52.8683229999
 30
0.0
 11
16.9585571531
 21
-16.7837266909
 31
0.0
 40
0.2593921815
 41
1.5210548867
 42
1.5508240306
  0
ELLIPSE
  5
2FD
100
AcDbEntity
  8
0
100
AcDbEllipse
 62
7
  6
BYLAYER
 10
42.9149146704
 20
53.0573028871
 30
0.0
 11
17.1250267564
 21
-17.0043043001
 31
0.0
 40
0.2143062114
 41
1.4794315045
 42
1.5092006484
  0
ELLIPSE
  5
2FE
100
AcDbEntity
  8
0
100
AcDbEllipse
 62
7
  6
BYLAYER
 10
42.9149146704
 20
53.2139237622
 30
0.0
 11
17.2622772411
 21
-17.185307668
 31
0.0
 40
0.1702469903
 41
1.4376558164
 42
1.4674249603
  0
ELLIPSE
  5
2FF
100
AcDbEntity
  8
0
100
AcDbEllipse
 62
7
  6
BYLAYER
 10
42.9149146704
 20
53.3369936458
 30
0.0
 11
17.3696482286
 21
-17.326459176
 31
0.0
 40
0.1269935126
 41
1.3957700171
 42
1.425539161
  0
ELLIPSE
  5
300
100
AcDbEntity
  8
0
100
AcDbEllipse
 62
7
  6
BYLAYER
 10
42.9149146704
 20
53.4255759017
 30
0.0
 11
17.4466624083
 21
-17.4274961419
 31
0.0
 40
0.0843354388
 41
1.3538077783
 42
1.3835769222
  0
ELLIPSE
  5
301
100
AcDbEntity
  8
0
100
AcDbEllipse
 62
7
  6
BYLAYER
 10
42.9149146704
 20
53.4789963655
 30
0.0
 11
17.4929960222
 21
-17.4882083164
 31
0.0
 40
0.0420701413
 41
1.3117972829
 42
1.3415664268
  0
ELLIPSE
  5
302
100
AcDbEntity
  8
0
100
AcDbEllipse
 62
7
  6
BYLAYER
 10
42.9149146704
 20
47.9908212163
 30
0.0
 11
14.4741311195
 21
11.8601695234
 31
0.0
 40
0.8306103506
 41
-1.8971234584
 42
-1.8673543145
  0
ELLIPSE
  5
303
100
AcDbEntity
  8
0
100
AcDbEllipse
 62
7
  6
BYLAYER
 10
42.9149146704
 20
47.5912524813
 30
0.0
 11
14.5700382847
 21
12.8060309747
 31
0.0
 40
0.7581403628
 41
-1.8873170525
 42
-1.8575479087
  0
ELLIPSE
  5
304
100
AcDbEntity
  8
0
100
AcDbEllipse
 62
7
  6
BYLAYER
 10
42.9149146704
 20
47.2009246782
 30
0.0
 11
14.8194770471
 21
13.5094930283
 31
0.0
 40
0.6901509118
 41
-1.8611064818
 42
-1.8313373379
  0
ELLIPSE
  5
305
100
AcDbEntity
  8
0
100
AcDbEllipse
 62
7
  6
BYLAYER
 10
42.9149146704
 20
46.8228084373
 30
0.0
 11
15.1182070608
 21
14.1001405585
 31
0.0
 40
0.6263036642
 41
-1.8281998094
 42
-1.7984306655
  0
ELLIPSE
  5
306
100
AcDbEntity
  8
0
100
AcDbEllipse
 62
7
  6
BYLAYER
 10
42.9149146704
 20
46.4597814517
 30
0.0
 11
15.4285527016
 21
14.6201143459
 31
0.0
 40
0.5661264515
 41
-1.7919226086
 42
-1.7621534647
  0
ELLIPSE
  5
307
100
AcDbEntity
  8
0
100
AcDbEllipse
 62
7
  6
BYLAYER
 10
42.9149146704
 20
46.1146065757
 30
0.0
 11
15.7334287619
 21
15.0865489373
 31
0.0
 40
0.5091621171
 41
-1.7537182443
 42
-1.7239491005
  0
ELLIPSE
  5
308
100
AcDbEntity
  8
0
100
AcDbEllipse
 62
7
  6
BYLAYER
 10
42.9149146704
 20
45.7899107986
 30
0.0
 11
16.023819938
 21
15.507275323
 31
0.0
 40
0.4549951859
 41
-1.7143141628
 42
-1.6845450189
  0
ELLIPSE
  5
309
100
AcDbEntity
  8
0
100
AcDbEllipse
 62
7
  6
BYLAYER
 10
42.9149146704
 20
45.4881652515
 30
0.0
 11
16.2944188981
 21
15.8860502942
 31
0.0
 40
0.4032531911
 41
-1.674117191
 42
-1.6443480471
  0
ELLIPSE
  5
30A
100
AcDbEntity
  8
0
100
AcDbEllipse
 62
7
  6
BYLAYER
 10
42.9149146704
 20
45.2116664
 30
0.0
 11
16.5418339295
 21
16.2246471729
 31
0.0
 40
0.3536019736
 41
-1.6333731597
 42
-1.6036040158
  0
ELLIPSE
  5
30B
100
AcDbEntity
  8
0
100
AcDbEllipse
 62
7
  6
BYLAYER
 10
42.9149146704
 20
44.9625185674
 30
0.0
 11
16.7637596114
 21
16.523808647
 31
0.0
 40
0.3057398728
 41
-1.5922399181
 42
-1.5624707743
  0
ELLIPSE
  5
30C
100
AcDbEntity
  8
0
100
AcDbEllipse
 62
7
  6
BYLAYER
 10
42.9149146704
 20
44.7426179191
 30
0.0
 11
16.9585571531
 21
16.7837266909
 31
0.0
 40
0.2593921815
 41
-1.5508240306
 42
-1.5210548867
  0
ELLIPSE
  5
30D
100
AcDbEntity
  8
0
100
AcDbEllipse
 62
7
  6
BYLAYER
 10
42.9149146704
 20
44.5536380319
 30
0.0
 11
17.1250267564
 21
17.0043043001
 31
0.0
 40
0.2143062114
 41
-1.5092006484
 42
-1.4794315045
  0
ELLIPSE
  5
30E
100
AcDbEntity
  8
0
100
AcDbEllipse
 62
7
  6
BYLAYER
 10
42.9149146704
 20
44.3970171568
 30
0.0
 11
17.2622772411
 21
17.185307668
 31
0.0
 40
0.1702469903
 41
-1.4674249603
 42
-1.4376558164
  0
ELLIPSE
  5
30F
100
AcDbEntity
  8
0
100
AcDbEllipse
 62
7
  6
BYLAYER
 10
42.9149146704
 20
44.2739472732
 30
0.0
 11
17.3696482286
 21
17.326459176
 31
0.0
 40
0.1269935126
 41
-1.425539161
 42
-1.3957700171
  0
ELLIPSE
  5
310
100
AcDbEntity
  8
0
100
AcDbEllipse
 62
7
  6
BYLAYER
 10
42.9149146704
 20
44.1853650173
 30
0.0
 11
17.4466624083
 21
17.4274961419
 31
0.0
 40
0.0843354388
 41
-1.3835769222
 42
-1.3538077783
  0
ELLIPSE
  5
311
100
AcDbEntity
  8
0
100
AcDbEllipse
 62
7
  6
BYLAYER
 10
42.9149146704
 20
44.1319445535
 30
0.0
 11
17.4929960222
 21
17.4882083164
 31
0.0
 40
0.0420701413
 41
-1.3415664268
 42
-1.3117972829
  0
ELLIPSE
  5
312
100
AcDbEntity
  8
0
100
AcDbEllipse
 62
7
  6
BYLAYER
 10
42.9149146704
 20
48.396589924
 30
0.0
 11
14.9543464083
 21
10.0427045149
 31
0.0
 40
0.9066977799
 41
-1.8464703263
 42
-1.8167011824
  0
ELLIPSE
  5
313
100
AcDbEntity
  8
0
100
AcDbEllipse
 62
7
  6
BYLAYER
 10
42.9149146704
 20
48.8054704595
 30
0.0
 11
17.5084611122
 21
0.0
 31
0.0
 40
0.963433044
 41
-1.2995325731
 42
-1.2697634292
  0
ELLIPSE
  5
314
100
AcDbEntity
  8
0
100
AcDbEllipse
 62
7
  6
BYLAYER
 10
42.9149146704
 20
46.1146065757
 30
0.0
 11
15.7334287619
 21
15.0865489373
 31
0.0
 40
0.5091621171
 41
0.8155777579
 42
0.8453469018
  0
ELLIPSE
  5
315
100
AcDbEntity
  8
0
100
AcDbEllipse
 62
7
  6
BYLAYER
 10
42.9149146704
 20
44.7426179191
 30
0.0
 11
16.9585571531
 21
16.7837266909
 31
0.0
 40
0.2593921815
 41
1.0184719717
 42
1.0482411156
  0
ELLIPSE
  5
316
100
AcDbEntity
  8
0
100
AcDbEllipse
 62
7
  6
BYLAYER
 10
42.9149146704
 20
44.1319445535
 30
0.0
 11
17.4929960222
 21
17.4882083164
 31
0.0
 40
0.0420701413
 41
1.2277295755
 42
1.2574987193
  0
ELLIPSE
  5
317
100
AcDbEntity
  8
0
100
AcDbEllipse
 62
7
  6
BYLAYER
 10
42.9149146704
 20
46.4597814517
 30
0.0
 11
15.4285527016
 21
14.6201143459
 31
0.0
 40
0.5661264515
 41
0.7773733936
 42
0.8071425375
  0
ELLIPSE
  5
318
100
AcDbEntity
  8
0
100
AcDbEllipse
 62
7
  6
BYLAYER
 10
42.9149146704
 20
44.9625185674
 30
0.0
 11
16.7637596114
 21
16.523808647
 31
0.0
 40
0.3057398728
 41
0.9770560841
 42
1.006825228
  0
ELLIPSE
  5
319
100
AcDbEntity
  8
0
100
AcDbEllipse
 62
7
  6
BYLAYER
 10
42.9149146704
 20
49.214350995
 30
0.0
 11
14.9543464083
 21
-10.0427045149
 31
0.0
 40
0.9066977799
 41
-0.7525948199
 42
-0.722825676
  0
ELLIPSE
  5
31A
100
AcDbEntity
  8
0
100
AcDbEllipse
 62
7
  6
BYLAYER
 10
42.9149146704
 20
44.1853650173
 30
0.0
 11
17.4466624083
 21
17.4274961419
 31
0.0
 40
0.0843354388
 41
1.18571908
 42
1.2154882239
  0
ELLIPSE
  5
31B
100
AcDbEntity
  8
0
100
AcDbEllipse
 62
7
  6
BYLAYER
 10
42.9149146704
 20
46.8228084373
 30
0.0
 11
15.1182070608
 21
14.1001405585
 31
0.0
 40
0.6263036642
 41
0.7410961929
 42
0.7708653368
  0
ELLIPSE
  5
31C
100
AcDbEntity
  8
0
100
AcDbEllipse
 62
7
  6
BYLAYER
 10
42.9149146704
 20
45.2116664
 30
0.0
 11
16.5418339295
 21
16.2246471729
 31
0.0
 40
0.3536019736
 41
0.9359228426
 42
0.9656919865
  0
ELLIPSE
  5
31D
100
AcDbEntity
  8
0
100
AcDbEllipse
 62
7
  6
BYLAYER
 10
42.9149146704
 20
44.2739472732
 30
0.0
 11
17.3696482286
 21
17.326459176
 31
0.0
 40
0.1269935126
 41
1.1437568412
 42
1.1735259851
  0
ELLIPSE
  5
31E
100
AcDbEntity
  8
0
100
AcDbEllipse
 62
7
  6
BYLAYER
 10
42.9149146704
 20
47.2009246782
 30
0.0
 11
14.8194770471
 21
13.5094930283
 31
0.0
 40
0.6901509118
 41
0.7081895205
 42
0.7379586644
  0
ELLIPSE
  5
31F
100
AcDbEntity
  8
0
100
AcDbEllipse
 62
7
  6
BYLAYER
 10
42.9149146704
 20
45.4881652515
 30
0.0
 11
16.2944188981
 21
15.8860502942
 31
0.0
 40
0.4032531911
 41
0.8951788113
 42
0.9249479552
  0
ELLIPSE
  5
320
100
AcDbEntity
  8
0
100
AcDbEllipse
 62
7
  6
BYLAYER
 10
42.9149146704
 20
47.5912524813
 30
0.0
 11
14.5700382847
 21
12.8060309747
 31
0.0
 40
0.7581403628
 41
0.6819789497
 42
0.7117480936
  0
ELLIPSE
  5
321
100
AcDbEntity
  8
0
100
AcDbEllipse
 62
7
  6
BYLAYER
 10
42.9149146704
 20
53.4789963655
 30
0.0
 11
17.4929960222
 21
-17.4882083164
 31
0.0
 40
0.0420701413
 41
-1.2574987193
 42
-1.2277295755
  0
ELLIPSE
  5
322
100
AcDbEntity
  8
0
100
AcDbEllipse
 62
7
  6
BYLAYER
 10
42.9149146704
 20
53.4255759017
 30
0.0
 11
17.4466624083
 21
-17.4274961419
 31
0.0
 40
0.0843354388
 41
-1.2154882239
 42
-1.18571908
  0
ELLIPSE
  5
323
100
AcDbEntity
  8
0
100
AcDbEllipse
 62
7
  6
BYLAYER
 10
42.9149146704
 20
53.3369936458
 30
0.0
 11
17.3696482286
 21
-17.326459176
 31
0.0
 40
0.1269935126
 41
-1.1735259851
 42
-1.1437568412
  0
ELLIPSE
  5
324
100
AcDbEntity
  8
0
100
AcDbEllipse
 62
7
  6
BYLAYER
 10
42.9149146704
 20
53.2139237622
 30
0.0
 11
17.2622772411
 21
-17.185307668
 31
0.0
 40
0.1702469903
 41
-1.1316401859
 42
-1.101871042
  0
ELLIPSE
  5
325
100
AcDbEntity
  8
0
100
AcDbEllipse
 62
7
  6
BYLAYER
 10
42.9149146704
 20
53.0573028871
 30
0.0
 11
17.1250267564
 21
-17.0043043001
 31
0.0
 40
0.2143062114
 41
-1.0898644977
 42
-1.0600953539
  0
ELLIPSE
  5
326
100
AcDbEntity
  8
0
100
AcDbEllipse
 62
7
  6
BYLAYER
 10
42.9149146704
 20
52.8683229999
 30
0.0
 11
16.9585571531
 21
-16.7837266909
 31
0.0
 40
0.2593921815
 41
-1.0482411156
 42
-1.0184719717
  0
ELLIPSE
  5
327
100
AcDbEntity
  8
0
100
AcDbEllipse
 62
7
  6
BYLAYER
 10
42.9149146704
 20
52.6484223516
 30
0.0
 11
16.7637596114
 21
-16.523808647
 31
0.0
 40
0.3057398728
 41
-1.006825228
 42
-0.9770560841
  0
ELLIPSE
  5
328
100
AcDbEntity
  8
0
100
AcDbEllipse
 62
7
  6
BYLAYER
 10
42.9149146704
 20
52.399274519
 30
0.0
 11
16.5418339295
 21
-16.2246471729
 31
0.0
 40
0.3536019736
 41
-0.9656919865
 42
-0.9359228426
  0
ELLIPSE
  5
329
100
AcDbEntity
  8
0
100
AcDbEllipse
 62
7
  6
BYLAYER
 10
42.9149146704
 20
52.1227756675
 30
0.0
 11
16.2944188981
 21
-15.8860502942
 31
0.0
 40
0.4032531911
 41
-0.9249479552
 42
-0.8951788113
  0
ELLIPSE
  5
32A
100
AcDbEntity
  8
0
100
AcDbEllipse
 62
7
  6
BYLAYER
 10
42.9149146704
 20
51.8210301204
 30
0.0
 11
16.023819938
 21
-15.507275323
 31
0.0
 40
0.4549951859
 41
-0.8847509834
 42
-0.8549818395
  0
ELLIPSE
  5
32B
100
AcDbEntity
  8
0
100
AcDbEllipse
 62
7
  6
BYLAYER
 10
42.9149146704
 20
51.4963343433
 30
0.0
 11
15.7334287619
 21
-15.0865489373
 31
0.0
 40
0.5091621171
 41
-0.8453469018
 42
-0.8155777579
  0
ELLIPSE
  5
32C
100
AcDbEntity
  8
0
100
AcDbEllipse
 62
7
  6
BYLAYER
 10
42.9149146704
 20
51.1511594674
 30
0.0
 11
15.4285527016
 21
-14.6201143459
 31
0.0
 40
0.5661264515
 41
-0.8071425375
 42
-0.7773733936
  0
ELLIPSE
  5
32D
100
AcDbEntity
  8
0
100
AcDbEllipse
 62
7
  6
BYLAYER
 10
42.9149146704
 20
50.7881324817
 30
0.0
 11
15.1182070608
 21
-14.1001405585
 31
0.0
 40
0.6263036642
 41
-0.7708653368
 42
-0.7410961929
  0
ELLIPSE
  5
32E
100
AcDbEntity
  8
0
100
AcDbEllipse
 62
7
  6
BYLAYER
 10
42.9149146704
 20
50.4100162408
 30
0.0
 11
14.8194770471
 21
-13.5094930283
 31
0.0
 40
0.6901509118
 41
-0.7379586644
 42
-0.7081895205
  0
ELLIPSE
  5
32F
100
AcDbEntity
  8
0
100
AcDbEllipse
 62
7
  6
BYLAYER
 10
42.9149146704
 20
50.0196884378
 30
0.0
 11
14.5700382847
 21
-12.8060309747
 31
0.0
 40
0.7581403628
 41
-0.7117480936
 42
-0.6819789497
  0
ELLIPSE
  5
330
100
AcDbEntity
  8
0
100
AcDbEllipse
 62
7
  6
BYLAYER
 10
42.9149146704
 20
49.6201197027
 30
0.0
 11
14.4741311195
 21
-11.8601695234
 31
0.0
 40
0.8306103506
 41
-0.7019416878
 42
-0.6721725439
  0
ELLIPSE
  5
331
100
AcDbEntity
  8
0
100
AcDbEllipse
 62
7
  6
BYLAYER
 10
42.9149146704
 20
44.3970171568
 30
0.0
 11
17.2622772411
 21
17.185307668
 31
0.0
 40
0.1702469903
 41
1.101871042
 42
1.1316401859
  0
ELLIPSE
  5
332
100
AcDbEntity
  8
0
100
AcDbEllipse
 62
7
  6
BYLAYER
 10
42.9149146704
 20
47.9908212163
 30
0.0
 11
14.4741311195
 21
11.8601695234
 31
0.0
 40
0.8306103506
 41
0.6721725439
 42
0.7019416878
  0
ELLIPSE
  5
333
100
AcDbEntity
  8
0
100
AcDbEllipse
 62
7
  6
BYLAYER
 10
42.9149146704
 20
45.7899107986
 30
0.0
 11
16.023819938
 21
15.507275323
 31
0.0
 40
0.4549951859
 41
0.8549818395
 42
0.8847509834
  0
ELLIPSE
  5
334
100
AcDbEntity
  8
0
100
AcDbEllipse
 62
7
  6
BYLAYER
 10
42.9149146704
 20
48.396589924
 30
0.0
 11
14.9543464083
 21
10.0427045149
 31
0.0
 40
0.9066977799
 41
0.722825676
 42
0.7525948199
  0
ELLIPSE
  5
335
100
AcDbEntity
  8
0
100
AcDbEllipse
 62
7
  6
BYLAYER
 10
42.9149146704
 20
44.5536380319
 30
0.0
 11
17.1250267564
 21
17.0043043001
 31
0.0
 40
0.2143062114
 41
1.0600953539
 42
1.0898644977
  0
ELLIPSE
  5
336
100
AcDbEntity
  8
0
100
AcDbEllipse
 62
7
  6
BYLAYER
 10
46.5909176016
 20
49.9542182875
 30
0.0
 11
15.791979517
 21
-10.9958379272
 31
0.0
 40
0.818317629
 41
1.7450389583
 42
1.7455491319
  0
ELLIPSE
  5
337
100
AcDbEntity
  8
0
100
AcDbEllipse
 62
7
  6
BYLAYER
 10
46.5909176016
 20
50.5176555219
 30
0.0
 11
15.6563003942
 21
-12.3580633753
 31
0.0
 40
0.7470541823
 41
8.0385987122
 42
8.0436192332
  0
ELLIPSE
  5
338
100
AcDbEntity
  8
0
100
AcDbEllipse
 62
7
  6
BYLAYER
 10
46.5909176016
 20
51.0680619941
 30
0.0
 11
15.7703479229
 21
-13.3023954138
 31
0.0
 40
0.6792721423
 41
8.0226879656
 42
8.0311334124
  0
ELLIPSE
  5
339
100
AcDbEntity
  8
0
100
AcDbEllipse
 62
7
  6
BYLAYER
 10
46.5909176016
 20
51.6012487785
 30
0.0
 11
15.9844133441
 21
-14.0585338956
 31
0.0
 40
0.6154007239
 41
1.7125697243
 42
1.7237441171
  0
ELLIPSE
  5
33A
100
AcDbEntity
  8
0
100
AcDbEllipse
 62
7
  6
BYLAYER
 10
46.5909176016
 20
52.1131580018
 30
0.0
 11
16.2385436118
 21
-14.7051040421
 31
0.0
 40
0.5552272381
 41
1.6800913841
 42
1.6935221503
  0
ELLIPSE
  5
33B
100
AcDbEntity
  8
0
100
AcDbEllipse
 62
7
  6
BYLAYER
 10
46.5909176016
 20
52.5998937257
 30
0.0
 11
16.5043969512
 21
-15.274965845
 31
0.0
 40
0.4983942514
 41
1.6444719572
 42
1.6598253033
  0
ELLIPSE
  5
33C
100
AcDbEntity
  8
0
100
AcDbEllipse
 62
7
  6
BYLAYER
 10
46.5909176016
 20
53.0577515973
 30
0.0
 11
16.766803626
 21
-15.7835371161
 31
0.0
 40
0.4445239339
 41
1.6069196864
 42
1.623954571
  0
ELLIPSE
  5
33D
100
AcDbEntity
  8
0
100
AcDbEllipse
 62
7
  6
BYLAYER
 10
46.5909176016
 20
53.4832470419
 30
0.0
 11
17.0168501026
 21
-16.2384907108
 31
0.0
 40
0.3932536107
 41
1.5681045669
 42
1.5866441138
  0
ELLIPSE
  5
33E
100
AcDbEntity
  8
0
100
AcDbEllipse
 62
7
  6
BYLAYER
 10
46.5909176016
 20
53.8731417822
 30
0.0
 11
17.2489119491
 21
-16.6436838349
 31
0.0
 40
0.3442450777
 41
1.5284256265
 42
1.5483400703
  0
ELLIPSE
  5
33F
100
AcDbEntity
  8
0
100
AcDbEllipse
 62
7
  6
BYLAYER
 10
46.5909176016
 20
54.2244684838
 30
0.0
 11
17.4592414022
 21
-17.0009614673
 31
0.0
 40
0.2971852239
 41
1.4881351505
 42
1.5093298802
  0
ELLIPSE
  5
340
100
AcDbEntity
  8
0
100
AcDbEllipse
 62
7
  6
BYLAYER
 10
46.5909176016
 20
54.5345533383
 30
0.0
 11
17.6452378715
 21
-17.311068251
 31
0.0
 40
0.2517837063
 41
1.447560264
 42
1.4698078979
  0
ELLIPSE
  5
341
100
AcDbEntity
  8
0
100
AcDbEllipse
 62
7
  6
BYLAYER
 10
46.5909176016
 20
54.8010364129
 30
0.0
 11
17.8050458869
 21
-17.5741469284
 31
0.0
 40
0.2077697388
 41
1.4065581876
 42
1.4299111685
  0
ELLIPSE
  5
342
100
AcDbEntity
  8
0
100
AcDbEllipse
 62
7
  6
BYLAYER
 10
46.5909176016
 20
55.0218896102
 30
0.0
 11
17.9373217495
 21
-17.7900285404
 31
0.0
 40
0.1648887629
 41
1.3652388603
 42
1.3897401552
  0
ELLIPSE
  5
343
100
AcDbEntity
  8
0
100
AcDbEllipse
 62
7
  6
BYLAYER
 10
46.5909176016
 20
55.1954321043
 30
0.0
 11
18.0410926156
 21
-17.9584099181
 31
0.0
 40
0.1228992729
 41
1.3236867023
 42
1.3493714145
  0
ELLIPSE
  5
344
100
AcDbEntity
  8
0
100
AcDbEllipse
 62
7
  6
BYLAYER
 10
46.5909176016
 20
55.3203431319
 30
0.0
 11
18.1156691418
 21
-18.0789658936
 31
0.0
 40
0.0815698667
 41
1.2819697374
 42
1.3088657657
  0
ELLIPSE
  5
345
100
AcDbEntity
  8
0
100
AcDbEllipse
 62
7
  6
BYLAYER
 10
46.5909176016
 20
55.3956720447
 30
0.0
 11
18.1605909673
 21
-18.1514209571
 31
0.0
 40
0.0406765142
 41
1.2401461389
 42
1.2682738639
  0
ELLIPSE
  5
346
100
AcDbEntity
  8
0
100
AcDbEllipse
 62
7
  6
BYLAYER
 10
57.8976707019
 20
48.396589924
 30
0.0
 11
14.9543464083
 21
-10.0427045149
 31
0.0
 40
0.9066977799
 41
-1.3248914712
 42
-1.2951223273
  0
ELLIPSE
  5
347
100
AcDbEntity
  8
0
100
AcDbEllipse
 62
7
  6
BYLAYER
 10
57.8976707019
 20
47.9908212163
 30
0.0
 11
14.4741311195
 21
-11.8601695234
 31
0.0
 40
0.8306103506
 41
-1.2742383391
 42
-1.2444691952
  0
ELLIPSE
  5
348
100
AcDbEntity
  8
0
100
AcDbEllipse
 62
7
  6
BYLAYER
 10
57.8976707019
 20
47.5912524813
 30
0.0
 11
14.5700382847
 21
-12.8060309747
 31
0.0
 40
0.7581403628
 41
-1.2840447449
 42
-1.2542756011
  0
ELLIPSE
  5
349
100
AcDbEntity
  8
0
100
AcDbEllipse
 62
7
  6
BYLAYER
 10
57.8976707019
 20
47.2009246782
 30
0.0
 11
14.8194770471
 21
-13.5094930283
 31
0.0
 40
0.6901509118
 41
-1.3102553157
 42
-1.2804861718
  0
ELLIPSE
  5
34A
100
AcDbEntity
  8
0
100
AcDbEllipse
 62
7
  6
BYLAYER
 10
57.8976707019
 20
46.8228084373
 30
0.0
 11
15.1182070608
 21
-14.1001405585
 31
0.0
 40
0.6263036642
 41
-1.3431619881
 42
-1.3133928442
  0
ELLIPSE
  5
34B
100
AcDbEntity
  8
0
100
AcDbEllipse
 62
7
  6
BYLAYER
 10
57.8976707019
 20
46.4597814517
 30
0.0
 11
15.4285527016
 21
-14.6201143459
 31
0.0
 40
0.5661264515
 41
-1.3794391888
 42
-1.349670045
  0
ELLIPSE
  5
34C
100
AcDbEntity
  8
0
100
AcDbEllipse
 62
7
  6
BYLAYER
 10
57.8976707019
 20
46.1146065757
 30
0.0
 11
15.7334287619
 21
-15.0865489373
 31
0.0
 40
0.5091621171
 41
-1.4176435531
 42
-1.3878744092
  0
ELLIPSE
  5
34D
100
AcDbEntity
  8
0
100
AcDbEllipse
 62
7
  6
BYLAYER
 10
57.8976707019
 20
45.7899107986
 30
0.0
 11
16.023819938
 21
-15.507275323
 31
0.0
 40
0.4549951859
 41
-1.4570476347
 42
-1.4272784908
  0
ELLIPSE
  5
34E
100
AcDbEntity
  8
0
100
AcDbEllipse
 62
7
  6
BYLAYER
 10
57.8976707019
 20
45.4881652515
 30
0.0
 11
16.2944188981
 21
-15.8860502942
 31
0.0
 40
0.4032531911
 41
-1.4972446065
 42
-1.4674754626
  0
ELLIPSE
  5
34F
100
AcDbEntity
  8
0
100
AcDbEllipse
 62
7
  6
BYLAYER
 10
57.8976707019
 20
45.2116664
 30
0.0
 11
16.5418339295
 21
-16.2246471729
 31
0.0
 40
0.3536019736
 41
-1.5379886378
 42
-1.5082194939
  0
ELLIPSE
  5
350
100
AcDbEntity
  8
0
100
AcDbEllipse
 62
7
  6
BYLAYER
 10
57.8976707019
 20
44.9625185674
 30
0.0
 11
16.7637596114
 21
-16.523808647
 31
0.0
 40
0.3057398728
 41
-1.5791218793
 42
-1.5493527354
  0
ELLIPSE
  5
351
100
AcDbEntity
  8
0
100
AcDbEllipse
 62
7
  6
BYLAYER
 10
57.8976707019
 20
44.7426179191
 30
0.0
 11
16.9585571531
 21
-16.7837266909
 31
0.0
 40
0.2593921815
 41
-1.6205377669
 42
-1.590768623
  0
ELLIPSE
  5
352
100
AcDbEntity
  8
0
100
AcDbEllipse
 62
7
  6
BYLAYER
 10
57.8976707019
 20
44.5536380319
 30
0.0
 11
17.1250267564
 21
-17.0043043001
 31
0.0
 40
0.2143062114
 41
-1.6621611491
 42
-1.6323920052
  0
ELLIPSE
  5
353
100
AcDbEntity
  8
0
100
AcDbEllipse
 62
7
  6
BYLAYER
 10
57.8976707019
 20
44.3970171568
 30
0.0
 11
17.2622772411
 21
-17.185307668
 31
0.0
 40
0.1702469903
 41
-1.7039368372
 42
-1.6741676933
  0
ELLIPSE
  5
354
100
AcDbEntity
  8
0
100
AcDbEllipse
 62
7
  6
BYLAYER
 10
57.8976707019
 20
44.2739472732
 30
0.0
 11
17.3696482286
 21
-17.326459176
 31
0.0
 40
0.1269935126
 41
-1.7458226364
 42
-1.7160534926
  0
ELLIPSE
  5
355
100
AcDbEntity
  8
0
100
AcDbEllipse
 62
7
  6
BYLAYER
 10
57.8976707019
 20
44.1853650173
 30
0.0
 11
17.4466624083
 21
-17.4274961419
 31
0.0
 40
0.0843354388
 41
-1.7877848753
 42
-1.7580157314
  0
ELLIPSE
  5
356
100
AcDbEntity
  8
0
100
AcDbEllipse
 62
7
  6
BYLAYER
 10
57.8976707019
 20
44.1319445535
 30
0.0
 11
17.4929960222
 21
-17.4882083164
 31
0.0
 40
0.0420701413
 41
-1.8297953707
 42
-1.8000262268
  0
ELLIPSE
  5
357
100
AcDbEntity
  8
0
100
AcDbEllipse
 62
7
  6
BYLAYER
 10
57.8976707019
 20
48.8054704595
 30
0.0
 11
17.5084611122
 21
-0.0
 31
0.0
 40
0.963433044
 41
4.4113560828
 42
4.4411252267
  0
ELLIPSE
  5
358
100
AcDbEntity
  8
0
100
AcDbEllipse
 62
7
  6
BYLAYER
 10
46.5909176016
 20
47.6567226315
 30
0.0
 11
15.791979517
 21
10.9958379272
 31
0.0
 40
0.818317629
 41
-1.7455491319
 42
-1.7450389575
  0
ELLIPSE
  5
359
100
AcDbEntity
  8
0
100
AcDbEllipse
 62
7
  6
BYLAYER
 10
46.5909176016
 20
47.0932853971
 30
0.0
 11
15.6563003942
 21
12.3580633753
 31
0.0
 40
0.7470541823
 41
-1.7604339261
 42
-1.7554134017
  0
ELLIPSE
  5
35A
100
AcDbEntity
  8
0
100
AcDbEllipse
 62
7
  6
BYLAYER
 10
46.5909176016
 20
46.5428789249
 30
0.0
 11
15.7703479229
 21
13.3023954138
 31
0.0
 40
0.6792721423
 41
-1.7479481052
 42
-1.7395026589
  0
ELLIPSE
  5
35B
100
AcDbEntity
  8
0
100
AcDbEllipse
 62
7
  6
BYLAYER
 10
46.5909176016
 20
46.0096921405
 30
0.0
 11
15.9844133441
 21
14.0585338956
 31
0.0
 40
0.6154007239
 41
-1.7237441171
 42
-1.7125697259
  0
ELLIPSE
  5
35C
100
AcDbEntity
  8
0
100
AcDbEllipse
 62
7
  6
BYLAYER
 10
46.5909176016
 20
45.4977829172
 30
0.0
 11
16.2385436118
 21
14.7051040421
 31
0.0
 40
0.5552272381
 41
-1.6935221503
 42
-1.6800913845
  0
ELLIPSE
  5
35D
100
AcDbEntity
  8
0
100
AcDbEllipse
 62
7
  6
BYLAYER
 10
46.5909176016
 20
45.0110471934
 30
0.0
 11
16.5043969512
 21
15.274965845
 31
0.0
 40
0.4983942514
 41
-1.6598253033
 42
-1.6444719578
  0
ELLIPSE
  5
35E
100
AcDbEntity
  8
0
100
AcDbEllipse
 62
7
  6
BYLAYER
 10
46.5909176016
 20
44.5531893217
 30
0.0
 11
16.766803626
 21
15.7835371161
 31
0.0
 40
0.4445239339
 41
-1.623954571
 42
-1.6069196881
  0
ELLIPSE
  5
35F
100
AcDbEntity
  8
0
100
AcDbEllipse
 62
7
  6
BYLAYER
 10
46.5909176016
 20
44.1276938771
 30
0.0
 11
17.0168501026
 21
16.2384907108
 31
0.0
 40
0.3932536107
 41
-1.5866441138
 42
-1.5681045703
  0
ELLIPSE
  5
360
100
AcDbEntity
  8
0
100
AcDbEllipse
 62
7
  6
BYLAYER
 10
46.5909176016
 20
43.7377991368
 30
0.0
 11
17.2489119491
 21
16.6436838349
 31
0.0
 40
0.3442450777
 41
-1.5483400703
 42
-1.5284256044
  0
ELLIPSE
  5
361
100
AcDbEntity
  8
0
100
AcDbEllipse
 62
7
  6
BYLAYER
 10
46.5909176016
 20
43.3864724352
 30
0.0
 11
17.4592414022
 21
17.0009614673
 31
0.0
 40
0.2971852239
 41
-1.5093298802
 42
-1.4881351175
  0
ELLIPSE
  5
362
100
AcDbEntity
  8
0
100
AcDbEllipse
 62
7
  6
BYLAYER
 10
46.5909176016
 20
43.0763875807
 30
0.0
 11
17.6452378715
 21
17.311068251
 31
0.0
 40
0.2517837063
 41
-1.4698078979
 42
-1.4475602366
  0
ELLIPSE
  5
363
100
AcDbEntity
  8
0
100
AcDbEllipse
 62
7
  6
BYLAYER
 10
46.5909176016
 20
42.8099045062
 30
0.0
 11
17.8050458869
 21
17.5741469284
 31
0.0
 40
0.2077697388
 41
-1.4299111685
 42
-1.4065581646
  0
ELLIPSE
  5
364
100
AcDbEntity
  8
0
100
AcDbEllipse
 62
7
  6
BYLAYER
 10
46.5909176016
 20
42.5890513088
 30
0.0
 11
17.9373217495
 21
17.7900285404
 31
0.0
 40
0.1648887629
 41
-1.3897401552
 42
-1.3652388413
  0
ELLIPSE
  5
365
100
AcDbEntity
  8
0
100
AcDbEllipse
 62
7
  6
BYLAYER
 10
46.5909176016
 20
42.4155088147
 30
0.0
 11
18.0410926156
 21
17.9584099181
 31
0.0
 40
0.1228992729
 41
-1.3493714145
 42
-1.3236866873
  0
ELLIPSE
  5
366
100
AcDbEntity
  8
0
100
AcDbEllipse
 62
7
  6
BYLAYER
 10
46.5909176016
 20
42.2905977871
 30
0.0
 11
18.1156691418
 21
18.0789658936
 31
0.0
 40
0.0815698667
 41
-1.3088657657
 42
-1.2819697269
  0
ELLIPSE
  5
367
100
AcDbEntity
  8
0
100
AcDbEllipse
 62
7
  6
BYLAYER
 10
46.5909176016
 20
42.2152688743
 30
0.0
 11
18.1605909673
 21
18.1514209571
 31
0.0
 40
0.0406765142
 41
-1.2682738639
 42
-1.2401461334
  0
ELLIPSE
  5
368
100
AcDbEntity
  8
0
100
AcDbEllipse
 62
7
  6
BYLAYER
 10
57.8976707019
 20
53.4789963655
 30
0.0
 11
17.4929960222
 21
17.4882083164
 31
0.0
 40
0.0420701413
 41
1.8000262268
 42
1.8297953707
  0
ELLIPSE
  5
369
100
AcDbEntity
  8
0
100
AcDbEllipse
 62
7
  6
BYLAYER
 10
57.8976707019
 20
53.4255759017
 30
0.0
 11
17.4466624083
 21
17.4274961419
 31
0.0
 40
0.0843354388
 41
1.7580157314
 42
1.7877848753
  0
ELLIPSE
  5
36A
100
AcDbEntity
  8
0
100
AcDbEllipse
 62
7
  6
BYLAYER
 10
57.8976707019
 20
53.3369936458
 30
0.0
 11
17.3696482286
 21
17.326459176
 31
0.0
 40
0.1269935126
 41
1.7160534926
 42
1.7458226364
  0
ELLIPSE
  5
36B
100
AcDbEntity
  8
0
100
AcDbEllipse
 62
7
  6
BYLAYER
 10
57.8976707019
 20
53.2139237622
 30
0.0
 11
17.2622772411
 21
17.185307668
 31
0.0
 40
0.1702469903
 41
1.6741676933
 42
1.7039368372
  0
ELLIPSE
  5
36C
100
AcDbEntity
  8
0
100
AcDbEllipse
 62
7
  6
BYLAYER
 10
57.8976707019
 20
53.0573028871
 30
0.0
 11
17.1250267564
 21
17.0043043001
 31
0.0
 40
0.2143062114
 41
1.6323920052
 42
1.6621611491
  0
ELLIPSE
  5
36D
100
AcDbEntity
  8
0
100
AcDbEllipse
 62
7
  6
BYLAYER
 10
57.8976707019
 20
52.8683229999
 30
0.0
 11
16.9585571531
 21
16.7837266909
 31
0.0
 40
0.2593921815
 41
1.590768623
 42
1.6205377669
  0
ELLIPSE
  5
36E
100
AcDbEntity
  8
0
100
AcDbEllipse
 62
7
  6
BYLAYER
 10
57.8976707019
 20
52.6484223516
 30
0.0
 11
16.7637596114
 21
16.523808647
 31
0.0
 40
0.3057398728
 41
1.5493527354
 42
1.5791218793
  0
ELLIPSE
  5
36F
100
AcDbEntity
  8
0
100
AcDbEllipse
 62
7
  6
BYLAYER
 10
57.8976707019
 20
52.399274519
 30
0.0
 11
16.5418339295
 21
16.2246471729
 31
0.0
 40
0.3536019736
 41
1.5082194939
 42
1.5379886378
  0
ELLIPSE
  5
370
100
AcDbEntity
  8
0
100
AcDbEllipse
 62
7
  6
BYLAYER
 10
57.8976707019
 20
52.1227756675
 30
0.0
 11
16.2944188981
 21
15.8860502942
 31
0.0
 40
0.4032531911
 41
1.4674754626
 42
1.4972446065
  0
ELLIPSE
  5
371
100
AcDbEntity
  8
0
100
AcDbEllipse
 62
7
  6
BYLAYER
 10
57.8976707019
 20
51.8210301204
 30
0.0
 11
16.023819938
 21
15.507275323
 31
0.0
 40
0.4549951859
 41
1.4272784908
 42
1.4570476347
  0
ELLIPSE
  5
372
100
AcDbEntity
  8
0
100
AcDbEllipse
 62
7
  6
BYLAYER
 10
57.8976707019
 20
51.4963343433
 30
0.0
 11
15.7334287619
 21
15.0865489373
 31
0.0
 40
0.5091621171
 41
1.3878744092
 42
1.4176435531
  0
ELLIPSE
  5
373
100
AcDbEntity
  8
0
100
AcDbEllipse
 62
7
  6
BYLAYER
 10
57.8976707019
 20
51.1511594674
 30
0.0
 11
15.4285527016
 21
14.6201143459
 31
0.0
 40
0.5661264515
 41
1.349670045
 42
1.3794391888
  0
ELLIPSE
  5
374
100
AcDbEntity
  8
0
100
AcDbEllipse
 62
7
  6
BYLAYER
 10
57.8976707019
 20
50.7881324817
 30
0.0
 11
15.1182070608
 21
14.1001405585
 31
0.0
 40
0.6263036642
 41
1.3133928442
 42
1.3431619881
  0
ELLIPSE
  5
375
100
AcDbEntity
  8
0
100
AcDbEllipse
 62
7
  6
BYLAYER
 10
57.8976707019
 20
50.4100162408
 30
0.0
 11
14.8194770471
 21
13.5094930283
 31
0.0
 40
0.6901509118
 41
1.2804861718
 42
1.3102553157
  0
ELLIPSE
  5
376
100
AcDbEntity
  8
0
100
AcDbEllipse
 62
7
  6
BYLAYER
 10
57.8976707019
 20
50.0196884378
 30
0.0
 11
14.5700382847
 21
12.8060309747
 31
0.0
 40
0.7581403628
 41
1.2542756011
 42
1.2840447449
  0
ELLIPSE
  5
377
100
AcDbEntity
  8
0
100
AcDbEllipse
 62
7
  6
BYLAYER
 10
57.8976707019
 20
49.6201197027
 30
0.0
 11
14.4741311195
 21
11.8601695234
 31
0.0
 40
0.8306103506
 41
1.2444691952
 42
1.2742383391
  0
ELLIPSE
  5
378
100
AcDbEntity
  8
0
100
AcDbEllipse
 62
7
  6
BYLAYER
 10
57.8976707019
 20
49.214350995
 30
0.0
 11
14.9543464083
 21
10.0427045149
 31
0.0
 40
0.9066977799
 41
1.2951223273
 42
1.3248914712
  0
ELLIPSE
  5
379
100
AcDbEntity
  8
0
100
AcDbEllipse
 62
7
  6
BYLAYER
 10
57.8976707019
 20
48.8054704595
 30
0.0
 11
17.5084611122
 21
0.0
 31
0.0
 40
0.963433044
 41
1.8420600805
 42
1.8718292244
  0
ELLIPSE
  5
37A
100
AcDbEntity
  8
0
100
AcDbEllipse
 62
7
  6
BYLAYER
 10
57.8976707019
 20
46.1146065757
 30
0.0
 11
15.7334287619
 21
-15.0865489373
 31
0.0
 40
0.5091621171
 41
2.2962457518
 42
2.3260148957
  0
ELLIPSE
  5
37B
100
AcDbEntity
  8
0
100
AcDbEllipse
 62
7
  6
BYLAYER
 10
57.8976707019
 20
45.7899107986
 30
0.0
 11
16.023819938
 21
-15.507275323
 31
0.0
 40
0.4549951859
 41
2.2568416702
 42
2.2866108141
  0
ELLIPSE
  5
37C
100
AcDbEntity
  8
0
100
AcDbEllipse
 62
7
  6
BYLAYER
 10
57.8976707019
 20
53.0573028871
 30
0.0
 11
17.1250267564
 21
17.0043043001
 31
0.0
 40
0.2143062114
 41
-2.0814972997
 42
-2.0517281558
  0
ELLIPSE
  5
37D
100
AcDbEntity
  8
0
100
AcDbEllipse
 62
7
  6
BYLAYER
 10
57.8976707019
 20
45.4881652515
 30
0.0
 11
16.2944188981
 21
-15.8860502942
 31
0.0
 40
0.4032531911
 41
2.2166446984
 42
2.2464138423
  0
ELLIPSE
  5
37E
100
AcDbEntity
  8
0
100
AcDbEllipse
 62
7
  6
BYLAYER
 10
57.8976707019
 20
45.2116664
 30
0.0
 11
16.5418339295
 21
-16.2246471729
 31
0.0
 40
0.3536019736
 41
2.1759006671
 42
2.205669811
  0
ELLIPSE
  5
37F
100
AcDbEntity
  8
0
100
AcDbEllipse
 62
7
  6
BYLAYER
 10
57.8976707019
 20
44.9625185674
 30
0.0
 11
16.7637596114
 21
-16.523808647
 31
0.0
 40
0.3057398728
 41
2.1347674256
 42
2.1645365695
  0
ELLIPSE
  5
380
100
AcDbEntity
  8
0
100
AcDbEllipse
 62
7
  6
BYLAYER
 10
57.8976707019
 20
53.2139237622
 30
0.0
 11
17.2622772411
 21
17.185307668
 31
0.0
 40
0.1702469903
 41
-2.0397216116
 42
-2.0099524677
  0
ELLIPSE
  5
381
100
AcDbEntity
  8
0
100
AcDbEllipse
 62
7
  6
BYLAYER
 10
57.8976707019
 20
44.7426179191
 30
0.0
 11
16.9585571531
 21
-16.7837266909
 31
0.0
 40
0.2593921815
 41
2.093351538
 42
2.1231206819
  0
ELLIPSE
  5
382
100
AcDbEntity
  8
0
100
AcDbEllipse
 62
7
  6
BYLAYER
 10
57.8976707019
 20
44.5536380319
 30
0.0
 11
17.1250267564
 21
-17.0043043001
 31
0.0
 40
0.2143062114
 41
2.0517281558
 42
2.0814972997
  0
ELLIPSE
  5
383
100
AcDbEntity
  8
0
100
AcDbEllipse
 62
7
  6
BYLAYER
 10
57.8976707019
 20
50.0196884378
 30
0.0
 11
14.5700382847
 21
12.8060309747
 31
0.0
 40
0.7581403628
 41
-2.4596137039
 42
-2.42984456
  0
ELLIPSE
  5
384
100
AcDbEntity
  8
0
100
AcDbEllipse
 62
7
  6
BYLAYER
 10
57.8976707019
 20
44.3970171568
 30
0.0
 11
17.2622772411
 21
-17.185307668
 31
0.0
 40
0.1702469903
 41
2.0099524677
 42
2.0397216116
  0
ELLIPSE
  5
385
100
AcDbEntity
  8
0
100
AcDbEllipse
 62
7
  6
BYLAYER
 10
57.8976707019
 20
53.3369936458
 30
0.0
 11
17.3696482286
 21
17.326459176
 31
0.0
 40
0.1269935126
 41
-1.9978358124
 42
-1.9680666685
  0
ELLIPSE
  5
386
100
AcDbEntity
  8
0
100
AcDbEllipse
 62
7
  6
BYLAYER
 10
57.8976707019
 20
44.2739472732
 30
0.0
 11
17.3696482286
 21
-17.326459176
 31
0.0
 40
0.1269935126
 41
1.9680666685
 42
1.9978358124
  0
ELLIPSE
  5
387
100
AcDbEntity
  8
0
100
AcDbEllipse
 62
7
  6
BYLAYER
 10
57.8976707019
 20
44.1853650173
 30
0.0
 11
17.4466624083
 21
-17.4274961419
 31
0.0
 40
0.0843354388
 41
1.9261044297
 42
1.9558735735
  0
ELLIPSE
  5
388
100
AcDbEntity
  8
0
100
AcDbEllipse
 62
7
  6
BYLAYER
 10
57.8976707019
 20
44.1319445535
 30
0.0
 11
17.4929960222
 21
-17.4882083164
 31
0.0
 40
0.0420701413
 41
1.8840939343
 42
1.9138630781
  0
ELLIPSE
  5
389
100
AcDbEntity
  8
0
100
AcDbEllipse
 62
7
  6
BYLAYER
 10
57.8976707019
 20
53.4255759017
 30
0.0
 11
17.4466624083
 21
17.4274961419
 31
0.0
 40
0.0843354388
 41
-1.9558735735
 42
-1.9261044297
  0
ELLIPSE
  5
38A
100
AcDbEntity
  8
0
100
AcDbEllipse
 62
7
  6
BYLAYER
 10
57.8976707019
 20
50.4100162408
 30
0.0
 11
14.8194770471
 21
13.5094930283
 31
0.0
 40
0.6901509118
 41
-2.4334031331
 42
-2.4036339892
  0
ELLIPSE
  5
38B
100
AcDbEntity
  8
0
100
AcDbEllipse
 62
7
  6
BYLAYER
 10
57.8976707019
 20
53.4789963655
 30
0.0
 11
17.4929960222
 21
17.4882083164
 31
0.0
 40
0.0420701413
 41
-1.9138630781
 42
-1.8840939343
  0
ELLIPSE
  5
38C
100
AcDbEntity
  8
0
100
AcDbEllipse
 62
7
  6
BYLAYER
 10
57.8976707019
 20
50.7881324817
 30
0.0
 11
15.1182070608
 21
14.1001405585
 31
0.0
 40
0.6263036642
 41
-2.4004964607
 42
-2.3707273168
  0
ELLIPSE
  5
38D
100
AcDbEntity
  8
0
100
AcDbEllipse
 62
7
  6
BYLAYER
 10
57.8976707019
 20
51.1511594674
 30
0.0
 11
15.4285527016
 21
14.6201143459
 31
0.0
 40
0.5661264515
 41
-2.36421926
 42
-2.3344501161
  0
ELLIPSE
  5
38E
100
AcDbEntity
  8
0
100
AcDbEllipse
 62
7
  6
BYLAYER
 10
57.8976707019
 20
51.4963343433
 30
0.0
 11
15.7334287619
 21
15.0865489373
 31
0.0
 40
0.5091621171
 41
-2.3260148957
 42
-2.2962457518
  0
ELLIPSE
  5
38F
100
AcDbEntity
  8
0
100
AcDbEllipse
 62
7
  6
BYLAYER
 10
57.8976707019
 20
51.8210301204
 30
0.0
 11
16.023819938
 21
15.507275323
 31
0.0
 40
0.4549951859
 41
-2.2866108141
 42
-2.2568416702
  0
ELLIPSE
  5
390
100
AcDbEntity
  8
0
100
AcDbEllipse
 62
7
  6
BYLAYER
 10
57.8976707019
 20
52.1227756675
 30
0.0
 11
16.2944188981
 21
15.8860502942
 31
0.0
 40
0.4032531911
 41
-2.2464138423
 42
-2.2166446984
  0
ELLIPSE
  5
391
100
AcDbEntity
  8
0
100
AcDbEllipse
 62
7
  6
BYLAYER
 10
57.8976707019
 20
49.214350995
 30
0.0
 11
14.9543464083
 21
10.0427045149
 31
0.0
 40
0.9066977799
 41
-2.4187669776
 42
-2.3889978337
  0
ELLIPSE
  5
392
100
AcDbEntity
  8
0
100
AcDbEllipse
 62
7
  6
BYLAYER
 10
57.8976707019
 20
52.399274519
 30
0.0
 11
16.5418339295
 21
16.2246471729
 31
0.0
 40
0.3536019736
 41
-2.205669811
 42
-2.1759006671
  0
ELLIPSE
  5
393
100
AcDbEntity
  8
0
100
AcDbEllipse
 62
7
  6
BYLAYER
 10
57.8976707019
 20
48.396589924
 30
0.0
 11
14.9543464083
 21
-10.0427045149
 31
0.0
 40
0.9066977799
 41
2.3889978337
 42
2.4187669776
  0
ELLIPSE
  5
394
100
AcDbEntity
  8
0
100
AcDbEllipse
 62
7
  6
BYLAYER
 10
57.8976707019
 20
47.9908212163
 30
0.0
 11
14.4741311195
 21
-11.8601695234
 31
0.0
 40
0.8306103506
 41
2.4396509658
 42
2.4694201097
  0
ELLIPSE
  5
395
100
AcDbEntity
  8
0
100
AcDbEllipse
 62
7
  6
BYLAYER
 10
57.8976707019
 20
52.6484223516
 30
0.0
 11
16.7637596114
 21
16.523808647
 31
0.0
 40
0.3057398728
 41
-2.1645365695
 42
-2.1347674256
  0
ELLIPSE
  5
396
100
AcDbEntity
  8
0
100
AcDbEllipse
 62
7
  6
BYLAYER
 10
57.8976707019
 20
47.5912524813
 30
0.0
 11
14.5700382847
 21
-12.8060309747
 31
0.0
 40
0.7581403628
 41
2.42984456
 42
2.4596137039
  0
ELLIPSE
  5
397
100
AcDbEntity
  8
0
100
AcDbEllipse
 62
7
  6
BYLAYER
 10
57.8976707019
 20
47.2009246782
 30
0.0
 11
14.8194770471
 21
-13.5094930283
 31
0.0
 40
0.6901509118
 41
2.4036339892
 42
2.4334031331
  0
ELLIPSE
  5
398
100
AcDbEntity
  8
0
100
AcDbEllipse
 62
7
  6
BYLAYER
 10
57.8976707019
 20
46.8228084373
 30
0.0
 11
15.1182070608
 21
-14.1001405585
 31
0.0
 40
0.6263036642
 41
2.3707273168
 42
2.4004964607
  0
ELLIPSE
  5
399
100
AcDbEntity
  8
0
100
AcDbEllipse
 62
7
  6
BYLAYER
 10
57.8976707019
 20
52.8683229999
 30
0.0
 11
16.9585571531
 21
16.7837266909
 31
0.0
 40
0.2593921815
 41
-2.1231206819
 42
-2.093351538
  0
ELLIPSE
  5
39A
100
AcDbEntity
  8
0
100
AcDbEllipse
 62
7
  6
BYLAYER
 10
57.8976707019
 20
46.4597814517
 30
0.0
 11
15.4285527016
 21
-14.6201143459
 31
0.0
 40
0.5661264515
 41
2.3344501161
 42
2.36421926
  0
ELLIPSE
  5
39B
100
AcDbEntity
  8
0
100
AcDbEllipse
 62
7
  6
BYLAYER
 10
57.8976707019
 20
49.6201197027
 30
0.0
 11
14.4741311195
 21
11.8601695234
 31
0.0
 40
0.8306103506
 41
-2.4694201097
 42
-2.4396509658
  0
ENDSEC
  0
SECTION
  2
OBJECTS
  0
DICTIONARY
  5
C
100
AcDbDictionary
280
0
281
1
  3
ACAD_GROUP
350
D
  3
ACAD_MLINESTYLE
350
17
  3
ACAD_LAYOUT
350
1A
  3
ACAD_PLOTSETTINGS
350
19
  3
ACAD_PLOTSTYLENAME
350
E
  0
DICTIONARY
  5
D
102
{ACAD_REACTORS
330
C
102
}
100
AcDbDictionary
280
0
281
1
  0
ACDBDICTIONARYWDFLT
  5
E
102
{ACAD_REACTORS
330
C
102
}
100
AcDbDictionary
281
1
  3
Normal
350
F
100
AcDbDictionaryWithDefault
340
F
  0
DICTIONARY
  5
17
102
{ACAD_REACTORS
330
C
102
}
100
AcDbDictionary
280
0
281
1
  3
Standard
350
18
  0
DICTIONARY
  5
19
102
{ACAD_REACTORS
330
C
102
}
100
AcDbDictionary
281
1
  0
DICTIONARY
  5
1A
102
{ACAD_REACTORS
330
C
102
}
100
AcDbDictionary
281
1
  3
Model
350
39C
  3
Layout1
350
39D
  0
ACDBPLACEHOLDER
  5
F
102
{ACAD_REACTORS
330
E
102
}
  0
MLINESTYLE
  5
18
102
{ACAD_REACTORS
330
17
102
}
100
AcDbMlineStyle
  2
STANDARD
 70
0
  3

 62
256
 51
90.0
 52
90.0
 71
2
 49
0.5
 62
256
  6
BYLAYER
 49
-0.5
 62
256
  6
BYLAYER
  0
LAYOUT
  5
39C
102
{ACAD_REACTORS
330
1A
102
}
100
AcDbPlotSettings
  1

  2
none_device
  4

  6

 40
0.0
 41
0.0
 42
0.0
 43
0.0
 44
210.0
 45
297.0
 46
0.0
 47
0.0
 48
0.0
 49
0.0
140
0.0
141
0.0
142
1.0
143
1.0
 70
1024
 72
1
 73
0
 74
0
  7

 75
0
147
1.0
148
0.0
149
0.0
100
AcDbLayout
  1
Model
 70
0
 71
0
 10
0.0
 20
0.0
 11
210.0
 21
297.0
 12
0.0
 22
0.0
 32
0.0
 14
0.0
 24
0.0
 34
0.0
 15
0.0
 25
0.0
 35
0.0
146
0.0
 13
0.0
 23
0.0
 33
0.0
 16
1.0
 26
0.0
 36
0.0
 17
0.0
 27
1.0
 37
0.0
 76
0
330
210
345
0
346
0
  0
LAYOUT
  5
39D
102
{ACAD_REACTORS
330
1A
102
}
100
AcDbPlotSettings
  1

  2
none_device
  4

  6

 40
0.0
 41
0.0
 42
0.0
 43
0.0
 44
210.0
 45
297.0
 46
0.0
 47
0.0
 48
0.0
 49
0.0
140
0.0
141
0.0
142
1.0
143
1.0
 70
0
 72
1
 73
0
 74
0
  7

 75
0
147
1.0
148
0.0
149
0.0
100
AcDbLayout
  1
Layout1
 70
0
 71
1
 10
0.0
 20
0.0
 11
210.0
 21
297.0
 12
0.0
 22
0.0
 32
0.0
 14
0.0
 24
0.0
 34
0.0
 15
0.0
 25
0.0
 35
0.0
146
0.0
 13
0.0
 23
0.0
 33
0.0
 16
1.0
 26
0.0
 36
0.0
 17
0.0
 27
1.0
 37
0.0
 76
0
330
211
345
0
346
0
  0
ENDSEC
  0
EOF
