  0
SECTION
  2
HEADER
  9
$ACADVER
  1
AC1014
  9
$ACADMAINTVER
 70
     0
  9
$DWGCODEPAGE
  3
ANSI_1252
  9
$INSBASE
 10
0.0
 20
0.0
 30
0.0
  9
$EXTMIN
 10
-0.512621
 20
-0.448819
 30
0.0
  9
$EXTMAX
 10
2.327402
 20
0.448819
 30
0.0
  9
$LIMMIN
 10
0.0
 20
0.0
  9
$LIMMAX
 10
0.0
 20
0.0
  9
$ORTHOMODE
 70
     0
  9
$REGENMODE
 70
     1
  9
$FILLMODE
 70
     1
  9
$QTEXTMODE
 70
     0
  9
$MIRRTEXT
 70
     1
  9
$DRAGMODE
 70
     2
  9
$LTSCALE
 40
1.0
  9
$OSMODE
 70
     0
  9
$ATTMODE
 70
     1
  9
$TEXTSIZE
 40
0.2
  9
$TRACEWID
 40
0.05
  9
$TEXTSTYLE
  7
STANDARD
  9
$CLAYER
  8
0
  9
$CELTYPE
  6
CONTINUOUS
  9
$CECOLOR
 62
   256
  9
$CELTSCALE
 40
1.0
  9
$DELOBJ
 70
     1
  9
$DISPSILH
 70
     0
  9
$DIMSCALE
 40
1.0
  9
$DIMASZ
 40
0.18
  9
$DIMEXO
 40
0.0625
  9
$DIMDLI
 40
0.38
  9
$DIMRND
 40
0.0
  9
$DIMDLE
 40
0.0
  9
$DIMEXE
 40
0.18
  9
$DIMTP
 40
0.0
  9
$DIMTM
 40
0.0
  9
$DIMTXT
 40
0.18
  9
$DIMCEN
 40
0.09
  9
$DIMTSZ
 40
0.0
  9
$DIMTOL
 70
     0
  9
$DIMLIM
 70
     0
  9
$DIMTIH
 70
     1
  9
$DIMTOH
 70
     1
  9
$DIMSE1
 70
     0
  9
$DIMSE2
 70
     0
  9
$DIMTAD
 70
     0
  9
$DIMZIN
 70
     0
  9
$DIMBLK
  1

  9
$DIMASO
 70
     1
  9
$DIMSHO
 70
     1
  9
$DIMPOST
  1

  9
$DIMAPOST
  1

  9
$DIMALT
 70
     0
  9
$DIMALTD
 70
     2
  9
$DIMALTF
 40
25.4
  9
$DIMLFAC
 40
1.0
  9
$DIMTOFL
 70
     0
  9
$DIMTVP
 40
0.0
  9
$DIMTIX
 70
     0
  9
$DIMSOXD
 70
     0
  9
$DIMSAH
 70
     0
  9
$DIMBLK1
  1

  9
$DIMBLK2
  1

  9
$DIMSTYLE
  2
STANDARD
  9
$DIMCLRD
 70
     0
  9
$DIMCLRE
 70
     0
  9
$DIMCLRT
 70
     0
  9
$DIMTFAC
 40
1.0
  9
$DIMGAP
 40
0.09
  9
$DIMJUST
 70
     0
  9
$DIMSD1
 70
     0
  9
$DIMSD2
 70
     0
  9
$DIMTOLJ
 70
     1
  9
$DIMTZIN
 70
     0
  9
$DIMALTZ
 70
     0
  9
$DIMALTTZ
 70
     0
  9
$DIMFIT
 70
     3
  9
$DIMUPT
 70
     0
  9
$DIMUNIT
 70
     2
  9
$DIMDEC
 70
     4
  9
$DIMTDEC
 70
     4
  9
$DIMALTU
 70
     2
  9
$DIMALTTD
 70
     2
  9
$DIMTXSTY
  7
STANDARD
  9
$DIMAUNIT
 70
     0
  9
$LUNITS
 70
     2
  9
$LUPREC
 70
     4
  9
$SKETCHINC
 40
0.1
  9
$FILLETRAD
 40
0.0
  9
$AUNITS
 70
     0
  9
$AUPREC
 70
     0
  9
$MENU
  1
acad
  9
$ELEVATION
 40
0.0
  9
$PELEVATION
 40
0.0
  9
$THICKNESS
 40
0.0
  9
$LIMCHECK
 70
     0
  9
$BLIPMODE
 70
     1
  9
$CHAMFERA
 40
0.0
  9
$CHAMFERB
 40
0.0
  9
$CHAMFERC
 40
0.0
  9
$CHAMFERD
 40
0.0
  9
$SKPOLY
 70
     0
  9
$TDCREATE
 40
0.000000000
  9
$TDUPDATE
 40
0.000000000
  9
$TDINDWG
 40
0.0000000000
  9
$TDUSRTIMER
 40
0.0000000000
  9
$USRTIMER
 70
     1
  9
$ANGBASE
 50
0.0
  9
$ANGDIR
 70
     0
  9
$PDMODE
 70
     0
  9
$PDSIZE
 40
0.0
  9
$PLINEWID
 40
0.0
  9
$COORDS
 70
     0
  9
$SPLFRAME
 70
     0
  9
$SPLINETYPE
 70
     6
  9
$SPLINESEGS
 70
     8
  9
$ATTDIA
 70
     0
  9
$ATTREQ
 70
     1
  9
$HANDLING
 70
     1
  9
$HANDSEED
  5
2B0
  9
$SURFTAB1
 70
     6
  9
$SURFTAB2
 70
     6
  9
$SURFTYPE
 70
     6
  9
$SURFU
 70
     6
  9
$SURFV
 70
     6
  9
$UCSNAME
  2

  9
$UCSORG
 10
0.0
 20
0.0
 30
0.0
  9
$UCSXDIR
 10
1.0
 20
0.0
 30
0.0
  9
$UCSYDIR
 10
0.0
 20
1.0
 30
0.0
  9
$PUCSNAME
  2

  9
$PUCSORG
 10
0.0
 20
0.0
 30
0.0
  9
$PUCSXDIR
 10
1.0
 20
0.0
 30
0.0
  9
$PUCSYDIR
 10
0.0
 20
1.0
 30
0.0
  9
$USERI1
 70
     0
  9
$USERI2
 70
     0
  9
$USERI3
 70
     0
  9
$USERI4
 70
     0
  9
$USERI5
 70
     0
  9
$USERR1
 40
0.0
  9
$USERR2
 40
0.0
  9
$USERR3
 40
0.0
  9
$USERR4
 40
0.0
  9
$USERR5
 40
0.0
  9
$WORLDVIEW
 70
     1
  9
$SHADEDGE
 70
     3
  9
$SHADEDIF
 70
    70
  9
$TILEMODE
 70
     1
  9
$MAXACTVP
 70
    16
  9
$PINSBASE
 10
0.0
 20
0.0
 30
0.0
  9
$PLIMCHECK
 70
     0
  9
$PEXTMIN
 10
1.000000E+20
 20
1.000000E+20
 30
1.000000E+20
  9
$PEXTMAX
 10
-1.000000E+20
 20
-1.000000E+20
 30
-1.000000E+20
  9
$PLIMMIN
 10
0.0
 20
0.0
  9
$PLIMMAX
 10
12.0
 20
9.0
  9
$UNITMODE
 70
     0
  9
$VISRETAIN
 70
     0
  9
$PLINEGEN
 70
     1
  9
$PSLTSCALE
 70
     0
  9
$TREEDEPTH
 70
  3020
  9
$PICKSTYLE
 70
     1
  9
$CMLSTYLE
  2
STANDARD
  9
$CMLJUST
 70
     0
  9
$CMLSCALE
 40
1.0
  9
$PROXYGRAPHICS
 70
     0
  9
$MEASUREMENT
 70
     0
  0
ENDSEC
  0
SECTION
  2
CLASSES
  0
CLASS
  1
LWPOLYLINE
  2
AcDbPolyline
  3
"AutoCAD"
 90
        0
280
     0
281
     1
  0
CLASS
  1
IMAGE
  2
AcDbRasterImage
  3
ISM
 90
      127
280
     0
281
     1
  0
CLASS
  1
OLE2FRAME
  2
AcDbOle2Frame
  3
""
 90
        0
280
     0
281
     1
  0
CLASS
  1
HATCH
  2
AcDbHatch
  3
"ACAD_SEDONA"
 90
        0
280
     0
281
     1
  0
CLASS
  1
DICTIONARYVAR
  2
AcDbDictionaryVar
  3
"AutoCAD"
 90
        0
280
     0
281
     0
  0
CLASS
  1
RASTERVARIABLES
  2
AcDbRasterVariables
  3
ISM
 90
        0
280
     0
281
     0
  0
CLASS
  1
IMAGEDEF
  2
AcDbRasterImageDef
  3
ISM
 90
        0
280
     0
281
     0
  0
CLASS
  1
IMAGEDEF_REACTOR
  2
AcDbRasterImageDefReactor
  3
ISM
 90
        1
280
     0
281
     0
  0
CLASS
  1
IDBUFFER
  2
AcDbIdBuffer
  3
"Acad"
 90
        0
280
     0
281
     0
  0
CLASS
  1
SPATIAL_FILTER
  2
AcDbSpatialFilter
  3
"Acad"
 90
        0
280
     0
281
     0
  0
CLASS
  1
XRECORD
  2
AcDbXrecord
  3
"<Built In>"
 90
        0
280
     0
281
     0
  0
CLASS
  1
SORTENTSTABLE
  2
AcDbSortentsTable
  3
"AutoCAD"
 90
        0
280
     0
281
     0
  0
CLASS
  1
LAYER_INDEX
  2
AcDbLayerIndex
  3
"Acad"
 90
        0
280
     0
281
     0
  0
CLASS
  1
SPATIAL_INDEX
  2
AcDbSpatialIndex
  3
"Acad"
 90
        0
280
     0
281
     0
  0
CLASS
  1
OBJECT_PTR
  2
CAseDLPNTableRecord
  3
"ASE-LPNTableRecord"
 90
        1
280
     0
281
     0
  0
CLASS
  1
LAYOUT
  2
AcDbLayout
  3
"AutoCAD 2000"
 90
        0
280
     0
281
     0
  0
CLASS
  1
PLOTSETTINGS
  2
AcDbPlotSettings
  3
"AutoCAD 2000"
 90
        0
280
     0
281
     0
  0
CLASS
  1
ACDBDICTIONARYWDFLT
  2
AcDbDictionaryWithDefault
  3
"AutoCAD 2000"
 90
        0
280
     0
281
     0
  0
CLASS
  1
ACDBPLACEHOLDER
  2
AcDbPlaceHolder
  3
"AutoCAD 2000"
 90
        0
280
     0
281
     0
  0
CLASS
  1
VBA_PROJECT
  2
AcDbVbaProject
  3
"acadvba"
 90
        0
280
     0
281
     0
  0
CLASS
  1
WIPEOUT
  2
AcDbWipeout
  3
WipeOut|AutoCAD Express Tool|expresstools@autodesk.com
 90
      127
280
     0
281
     1
  0
CLASS
  1
WIPEOUTVARIABLES
  2
AcDbWipeoutVariables
  3
WipeOut|AutoCAD Express Tool|expresstools@autodesk.com
 90
        0
280
     0
281
     0
  0
CLASS
  1
RTEXT
  2
RText
  3
RText|AutoCAD Express Tool|expresstools@autodesk.com
 90
        0
280
     0
281
     1
  0
CLASS
  1
ARCALIGNEDTEXT
  2
AcDbArcAlignedText
  3
ATEXT|AutoCAD Express Tool|expresstools@autodesk.com
 90
        0
280
     0
281
     1
  0
ENDSEC
  0
SECTION
  2
TABLES
  0
TABLE
  2
VPORT
  5
7
100
AcDbSymbolTable
 70
     1
  0
VPORT
  5
15
100
AcDbSymbolTableRecord
100
AcDbViewportTableRecord
  2
*ACTIVE
 70
     0
 10
0.0
 20
0.0
 11
1.0
 21
1.0
 12
6.591288
 22
4.579184
 13
0.0
 23
0.0
 14
1.0
 24
1.0
 15
0.0
 25
0.0
 16
0.0
 26
0.0
 36
1.0
 17
0.0
 27
0.0
 37
0.0
 40
9.158369
 41
0.688564
 42
50.0
 43
0.0
 44
0.0
 50
0.0
 51
0.0
 71
     0
 72
   100
 73
     1
 74
     1
 75
     0
 76
     0
 77
     0
 78
     0
  0
ENDTAB
  0
TABLE
  2
LTYPE
  5
4
100
AcDbSymbolTable
 70
     7
  0
LTYPE
  5
11
100
AcDbSymbolTableRecord
100
AcDbLinetypeTableRecord
  2
BYBLOCK
 70
    64
  3

 72
    65
 73
     0
 40
0.0
  0
LTYPE
  5
12
100
AcDbSymbolTableRecord
100
AcDbLinetypeTableRecord
  2
BYLAYER
 70
    64
  3

 72
    65
 73
     0
 40
0.0
  0
LTYPE
  5
13
100
AcDbSymbolTableRecord
100
AcDbLinetypeTableRecord
  2
CONTINUOUS
 70
    64
  3
Solid line
 72
    65
 73
     0
 40
0.0
  0
LTYPE
  5
1F
100
AcDbSymbolTableRecord
100
AcDbLinetypeTableRecord
  2
CENTER
 70
    64
  3
Center ____ _ ____ _ ____ _ ____ _ ____ _ ____
 72
    65
 73
     4
 40
50.8
 49
31.75
 74
     0
 49
-6.35
 74
     0
 49
6.35
 74
     0
 49
-6.35
 74
     0
  0
LTYPE
  5
20
100
AcDbSymbolTableRecord
100
AcDbLinetypeTableRecord
  2
HIDDEN
 70
    64
  3
Hidden __ __ __ __ __ __ __ __ __ __ __ __ __ __
 72
    65
 73
     2
 40
9.525
 49
6.35
 74
     0
 49
-3.175
 74
     0
  0
LTYPE
  5
21
100
AcDbSymbolTableRecord
100
AcDbLinetypeTableRecord
  2
CENTER2
 70
    64
  3
Center (.5x) ___ _ ___ _ ___ _ ___ _ ___ _ ___
 72
    65
 73
     4
 40
28.575
 49
19.05
 74
     0
 49
-3.175
 74
     0
 49
3.175
 74
     0
 49
-3.175
 74
     0
  0
LTYPE
  5
22
100
AcDbSymbolTableRecord
100
AcDbLinetypeTableRecord
  2
HIDDEN2
 70
    64
  3
Hidden (.5x) _ _ _ _ _ _ _ _ _ _ _ _ _ _ _ _ _
 72
    65
 73
     2
 40
4.7625
 49
3.175
 74
     0
 49
-1.5875
 74
     0
  0
ENDTAB
  0
TABLE
  2
LAYER
  5
2
100
AcDbSymbolTable
 70
     7
  0
LAYER
  5
14
100
AcDbSymbolTableRecord
100
AcDbLayerTableRecord
  2
0
 70
     0
 62
     7
  6
CONTINUOUS
  0
LAYER
  5
23
100
AcDbSymbolTableRecord
100
AcDbLayerTableRecord
  2
TRMODEL1
 70
     0
 62
     7
  6
CONTINUOUS
  0
LAYER
  5
24
100
AcDbSymbolTableRecord
100
AcDbLayerTableRecord
  2
TRMODEL3
 70
     0
 62
     7
  6
CONTINUOUS
  0
LAYER
  5
25
100
AcDbSymbolTableRecord
100
AcDbLayerTableRecord
  2
TRDETAIL2
 70
     0
 62
     7
  6
CONTINUOUS
  0
LAYER
  5
26
100
AcDbSymbolTableRecord
100
AcDbLayerTableRecord
  2
TRDETAIL3
 70
     0
 62
     7
  6
CONTINUOUS
  0
LAYER
  5
27
100
AcDbSymbolTableRecord
100
AcDbLayerTableRecord
  2
TRDETAIL4
 70
     0
 62
     7
  6
CONTINUOUS
  0
LAYER
  5
28
100
AcDbSymbolTableRecord
100
AcDbLayerTableRecord
  2
TRDETAIL5
 70
     0
 62
     7
  6
CONTINUOUS
  0
ENDTAB
  0
TABLE
  2
STYLE
  5
3
100
AcDbSymbolTable
 70
     1
  0
STYLE
  5
17
100
AcDbSymbolTableRecord
100
AcDbTextStyleTableRecord
  2
STANDARD
 70
     0
 40
0.0
 41
1.0
 50
0.0
 71
     0
 42
0.0
  3
txt
  4

  0
ENDTAB
  0
TABLE
  2
VIEW
  5
5
100
AcDbSymbolTable
 70
     0
  0
ENDTAB
  0
TABLE
  2
UCS
  5
6
100
AcDbSymbolTable
 70
     0
  0
ENDTAB
  0
TABLE
  2
APPID
  5
8
100
AcDbSymbolTable
 70
     1
  0
APPID
  5
16
100
AcDbSymbolTableRecord
100
AcDbRegAppTableRecord
  2
ACAD
 70
     0
  0
ENDTAB
  0
TABLE
  2
DIMSTYLE
  5
9
100
AcDbSymbolTable
 70
     1
  0
DIMSTYLE
105
18
100
AcDbSymbolTableRecord
100
AcDbDimStyleTableRecord
  2
STANDARD
 70
     0
  3

  4

  5

  6

  7

 40
1.0
 41
0.18
 42
0.0625
 43
0.38
 44
0.18
 45
0.0
 46
0.0
 47
0.0
 48
0.0
 71
     0
 72
     0
 73
     1
 74
     1
 75
     0
 76
     0
 77
     0
 78
     0
140
0.18
141
0.09
142
0.0
143
25.4
144
1.0
145
0.0
146
1.0
147
0.09
170
     0
171
     2
172
     0
173
     0
174
     0
175
     0
176
     0
177
     0
178
     0
270
     2
271
     4
272
     4
273
     2
274
     2
275
     0
280
     0
281
     0
282
     0
283
     1
284
     0
285
     0
286
     0
287
     3
288
     0
340
17
  0
ENDTAB
  0
TABLE
  2
BLOCK_RECORD
  5
1
100
AcDbSymbolTable
 70
     0
  0
BLOCK_RECORD
  5
A
100
AcDbSymbolTableRecord
100
AcDbBlockTableRecord
  2
*MODEL_SPACE
  0
BLOCK_RECORD
  5
B
100
AcDbSymbolTableRecord
100
AcDbBlockTableRecord
  2
*PAPER_SPACE
  0
ENDTAB
  0
ENDSEC
  0
SECTION
  2
BLOCKS
  0
BLOCK
  5
D
100
AcDbEntity
  8
0
100
AcDbBlockBegin
  2
*MODEL_SPACE
 70
     0
 10
0.0
 20
0.0
 30
0.0
  3
*MODEL_SPACE
  1

  0
ENDBLK
  5
E
100
AcDbEntity
  8
0
100
AcDbBlockEnd
  0
BLOCK
  5
F
100
AcDbEntity
 67
     1
  8
0
100
AcDbBlockBegin
  2
*PAPER_SPACE
 70
     0
 10
0.0
 20
0.0
 30
0.0
  3
*PAPER_SPACE
  1

  0
ENDBLK
  5
10
100
AcDbEntity
 67
     1
  8
0
100
AcDbBlockEnd
  0
ENDSEC
  0
SECTION
  2
ENTITIES
  0
LINE
  5
199
100
AcDbEntity
  8
TRMODEL1
  6
CONTINUOUS
 62
     7
100
AcDbLine
 10
2.287402
 20
-0.212067
 30
0.0
 11
2.287402
 21
0.212067
 31
0.0
  0
LINE
  5
19A
100
AcDbEntity
  8
TRMODEL1
  6
CONTINUOUS
 62
     7
100
AcDbLine
 10
2.213248
 20
-0.23622
 30
0.0
 11
2.213248
 21
0.23622
 31
0.0
  0
LINE
  5
19B
100
AcDbEntity
  8
TRMODEL1
  6
CONTINUOUS
 62
     7
100
AcDbLine
 10
2.237402
 20
0.212067
 30
0.0
 11
2.237402
 21
-0.212067
 31
0.0
  0
LINE
  5
19C
100
AcDbEntity
  8
TRMODEL1
  6
CONTINUOUS
 62
     7
100
AcDbLine
 10
1.911555
 20
0.23622
 30
0.0
 11
1.911555
 21
-0.23622
 31
0.0
  0
LINE
  5
19D
100
AcDbEntity
  8
TRMODEL1
  6
CONTINUOUS
 62
     7
100
AcDbLine
 10
-0.430082
 20
0.258809
 30
0.0
 11
-0.430082
 21
-0.258809
 31
0.0
  0
LINE
  5
19E
100
AcDbEntity
  8
TRMODEL1
  6
CONTINUOUS
 62
     7
100
AcDbLine
 10
-0.472441
 20
-0.21645
 30
0.0
 11
-0.472441
 21
0.21645
 31
0.0
  0
LINE
  5
19F
100
AcDbEntity
  8
TRMODEL1
  6
CONTINUOUS
 62
     7
100
AcDbLine
 10
-0.070641
 20
0.27
 30
0.0
 11
-0.070641
 21
-0.27
 31
0.0
  0
LINE
  5
1A0
100
AcDbEntity
  8
TRMODEL1
  6
CONTINUOUS
 62
     7
100
AcDbLine
 10
0.397638
 20
-0.270609
 30
0.0
 11
0.103134
 21
-0.270609
 31
0.0
  0
LINE
  5
1A1
100
AcDbEntity
  8
TRMODEL1
  6
CONTINUOUS
 62
     7
100
AcDbLine
 10
0.397638
 20
-0.174787
 30
0.0
 11
0.397638
 21
-0.270609
 31
0.0
  0
LINE
  5
1A2
100
AcDbEntity
  8
TRMODEL1
  6
CONTINUOUS
 62
     7
100
AcDbLine
 10
0.103134
 20
-0.174787
 30
0.0
 11
0.397638
 21
-0.174787
 31
0.0
  0
LINE
  5
1A3
100
AcDbEntity
  8
TRMODEL1
  6
CONTINUOUS
 62
     7
100
AcDbLine
 10
0.103134
 20
-0.270609
 30
0.0
 11
0.103134
 21
-0.174787
 31
0.0
  0
LINE
  5
1A4
100
AcDbEntity
  8
TRMODEL1
  6
CONTINUOUS
 62
     7
100
AcDbLine
 10
0.103134
 20
-0.445396
 30
0.0
 11
0.397638
 21
-0.445396
 31
0.0
  0
LINE
  5
1A5
100
AcDbEntity
  8
TRMODEL1
  6
CONTINUOUS
 62
     7
100
AcDbLine
 10
0.103134
 20
-0.448819
 30
0.0
 11
0.103134
 21
-0.445396
 31
0.0
  0
LINE
  5
1A6
100
AcDbEntity
  8
TRMODEL1
  6
CONTINUOUS
 62
     7
100
AcDbLine
 10
0.397638
 20
-0.445396
 30
0.0
 11
0.397638
 21
-0.448819
 31
0.0
  0
LINE
  5
1A7
100
AcDbEntity
  8
TRMODEL1
  6
CONTINUOUS
 62
     7
100
AcDbLine
 10
0.397638
 20
0.174787
 30
0.0
 11
0.103134
 21
0.174787
 31
0.0
  0
LINE
  5
1A8
100
AcDbEntity
  8
TRMODEL1
  6
CONTINUOUS
 62
     7
100
AcDbLine
 10
0.397638
 20
0.270609
 30
0.0
 11
0.397638
 21
0.174787
 31
0.0
  0
LINE
  5
1A9
100
AcDbEntity
  8
TRMODEL1
  6
CONTINUOUS
 62
     7
100
AcDbLine
 10
0.103134
 20
0.270609
 30
0.0
 11
0.397638
 21
0.270609
 31
0.0
  0
LINE
  5
1AA
100
AcDbEntity
  8
TRMODEL1
  6
CONTINUOUS
 62
     7
100
AcDbLine
 10
0.103134
 20
0.174787
 30
0.0
 11
0.103134
 21
0.270609
 31
0.0
  0
LINE
  5
1AB
100
AcDbEntity
  8
TRMODEL1
  6
CONTINUOUS
 62
     7
100
AcDbLine
 10
0.397638
 20
0.445396
 30
0.0
 11
0.103134
 21
0.445396
 31
0.0
  0
LINE
  5
1AC
100
AcDbEntity
  8
TRMODEL1
  6
CONTINUOUS
 62
     7
100
AcDbLine
 10
0.397638
 20
0.448819
 30
0.0
 11
0.397638
 21
0.445396
 31
0.0
  0
LINE
  5
1AD
100
AcDbEntity
  8
TRMODEL1
  6
CONTINUOUS
 62
     7
100
AcDbLine
 10
0.103134
 20
0.445396
 30
0.0
 11
0.103134
 21
0.448819
 31
0.0
  0
LINE
  5
1AE
100
AcDbEntity
  8
TRMODEL1
  6
CONTINUOUS
 62
     7
100
AcDbLine
 10
0.082677
 20
0.358003
 30
0.0
 11
0.082677
 21
0.413386
 31
0.0
  0
LINE
  5
1AF
100
AcDbEntity
  8
TRMODEL1
  6
CONTINUOUS
 62
     7
100
AcDbLine
 10
0.103134
 20
0.445396
 30
0.0
 11
0.101967
 21
0.442767
 31
0.0
  0
LINE
  5
1B0
100
AcDbEntity
  8
TRMODEL1
  6
CONTINUOUS
 62
     7
100
AcDbLine
 10
0.101967
 20
0.442767
 30
0.0
 11
0.100837
 21
0.440152
 31
0.0
  0
LINE
  5
1B1
100
AcDbEntity
  8
TRMODEL1
  6
CONTINUOUS
 62
     7
100
AcDbLine
 10
0.100837
 20
0.440152
 30
0.0
 11
0.099742
 21
0.437549
 31
0.0
  0
LINE
  5
1B2
100
AcDbEntity
  8
TRMODEL1
  6
CONTINUOUS
 62
     7
100
AcDbLine
 10
0.099742
 20
0.437549
 30
0.0
 11
0.098683
 21
0.43496
 31
0.0
  0
LINE
  5
1B3
100
AcDbEntity
  8
TRMODEL1
  6
CONTINUOUS
 62
     7
100
AcDbLine
 10
0.098683
 20
0.43496
 30
0.0
 11
0.09766
 21
0.432382
 31
0.0
  0
LINE
  5
1B4
100
AcDbEntity
  8
TRMODEL1
  6
CONTINUOUS
 62
     7
100
AcDbLine
 10
0.09766
 20
0.432382
 30
0.0
 11
0.096672
 21
0.429815
 31
0.0
  0
LINE
  5
1B5
100
AcDbEntity
  8
TRMODEL1
  6
CONTINUOUS
 62
     7
100
AcDbLine
 10
0.096672
 20
0.429815
 30
0.0
 11
0.095719
 21
0.427259
 31
0.0
  0
LINE
  5
1B6
100
AcDbEntity
  8
TRMODEL1
  6
CONTINUOUS
 62
     7
100
AcDbLine
 10
0.095719
 20
0.427259
 30
0.0
 11
0.0948
 21
0.424714
 31
0.0
  0
LINE
  5
1B7
100
AcDbEntity
  8
TRMODEL1
  6
CONTINUOUS
 62
     7
100
AcDbLine
 10
0.0948
 20
0.424714
 30
0.0
 11
0.093917
 21
0.422178
 31
0.0
  0
LINE
  5
1B8
100
AcDbEntity
  8
TRMODEL1
  6
CONTINUOUS
 62
     7
100
AcDbLine
 10
0.093917
 20
0.422178
 30
0.0
 11
0.093067
 21
0.419651
 31
0.0
  0
LINE
  5
1B9
100
AcDbEntity
  8
TRMODEL1
  6
CONTINUOUS
 62
     7
100
AcDbLine
 10
0.093067
 20
0.419651
 30
0.0
 11
0.092252
 21
0.417134
 31
0.0
  0
LINE
  5
1BA
100
AcDbEntity
  8
TRMODEL1
  6
CONTINUOUS
 62
     7
100
AcDbLine
 10
0.092252
 20
0.417134
 30
0.0
 11
0.09147
 21
0.414624
 31
0.0
  0
LINE
  5
1BB
100
AcDbEntity
  8
TRMODEL1
  6
CONTINUOUS
 62
     7
100
AcDbLine
 10
0.09147
 20
0.414624
 30
0.0
 11
0.090723
 21
0.412122
 31
0.0
  0
LINE
  5
1BC
100
AcDbEntity
  8
TRMODEL1
  6
CONTINUOUS
 62
     7
100
AcDbLine
 10
0.090723
 20
0.412122
 30
0.0
 11
0.090009
 21
0.409627
 31
0.0
  0
LINE
  5
1BD
100
AcDbEntity
  8
TRMODEL1
  6
CONTINUOUS
 62
     7
100
AcDbLine
 10
0.090009
 20
0.409627
 30
0.0
 11
0.089329
 21
0.407139
 31
0.0
  0
LINE
  5
1BE
100
AcDbEntity
  8
TRMODEL1
  6
CONTINUOUS
 62
     7
100
AcDbLine
 10
0.089329
 20
0.407139
 30
0.0
 11
0.088682
 21
0.404657
 31
0.0
  0
LINE
  5
1BF
100
AcDbEntity
  8
TRMODEL1
  6
CONTINUOUS
 62
     7
100
AcDbLine
 10
0.088682
 20
0.404657
 30
0.0
 11
0.088068
 21
0.402181
 31
0.0
  0
LINE
  5
1C0
100
AcDbEntity
  8
TRMODEL1
  6
CONTINUOUS
 62
     7
100
AcDbLine
 10
0.088068
 20
0.402181
 30
0.0
 11
0.087488
 21
0.39971
 31
0.0
  0
LINE
  5
1C1
100
AcDbEntity
  8
TRMODEL1
  6
CONTINUOUS
 62
     7
100
AcDbLine
 10
0.087488
 20
0.39971
 30
0.0
 11
0.08694
 21
0.397244
 31
0.0
  0
LINE
  5
1C2
100
AcDbEntity
  8
TRMODEL1
  6
CONTINUOUS
 62
     7
100
AcDbLine
 10
0.08694
 20
0.397244
 30
0.0
 11
0.086426
 21
0.394781
 31
0.0
  0
LINE
  5
1C3
100
AcDbEntity
  8
TRMODEL1
  6
CONTINUOUS
 62
     7
100
AcDbLine
 10
0.086426
 20
0.394781
 30
0.0
 11
0.085945
 21
0.392323
 31
0.0
  0
LINE
  5
1C4
100
AcDbEntity
  8
TRMODEL1
  6
CONTINUOUS
 62
     7
100
AcDbLine
 10
0.085945
 20
0.392323
 30
0.0
 11
0.085497
 21
0.389867
 31
0.0
  0
LINE
  5
1C5
100
AcDbEntity
  8
TRMODEL1
  6
CONTINUOUS
 62
     7
100
AcDbLine
 10
0.085497
 20
0.389867
 30
0.0
 11
0.085081
 21
0.387414
 31
0.0
  0
LINE
  5
1C6
100
AcDbEntity
  8
TRMODEL1
  6
CONTINUOUS
 62
     7
100
AcDbLine
 10
0.085081
 20
0.387414
 30
0.0
 11
0.084699
 21
0.384963
 31
0.0
  0
LINE
  5
1C7
100
AcDbEntity
  8
TRMODEL1
  6
CONTINUOUS
 62
     7
100
AcDbLine
 10
0.084699
 20
0.384963
 30
0.0
 11
0.08435
 21
0.382514
 31
0.0
  0
LINE
  5
1C8
100
AcDbEntity
  8
TRMODEL1
  6
CONTINUOUS
 62
     7
100
AcDbLine
 10
0.08435
 20
0.382514
 30
0.0
 11
0.084033
 21
0.380066
 31
0.0
  0
LINE
  5
1C9
100
AcDbEntity
  8
TRMODEL1
  6
CONTINUOUS
 62
     7
100
AcDbLine
 10
0.084033
 20
0.380066
 30
0.0
 11
0.08375
 21
0.377619
 31
0.0
  0
LINE
  5
1CA
100
AcDbEntity
  8
TRMODEL1
  6
CONTINUOUS
 62
     7
100
AcDbLine
 10
0.08375
 20
0.377619
 30
0.0
 11
0.083499
 21
0.375172
 31
0.0
  0
LINE
  5
1CB
100
AcDbEntity
  8
TRMODEL1
  6
CONTINUOUS
 62
     7
100
AcDbLine
 10
0.083499
 20
0.375172
 30
0.0
 11
0.083282
 21
0.372724
 31
0.0
  0
LINE
  5
1CC
100
AcDbEntity
  8
TRMODEL1
  6
CONTINUOUS
 62
     7
100
AcDbLine
 10
0.083282
 20
0.372724
 30
0.0
 11
0.083098
 21
0.370276
 31
0.0
  0
LINE
  5
1CD
100
AcDbEntity
  8
TRMODEL1
  6
CONTINUOUS
 62
     7
100
AcDbLine
 10
0.083098
 20
0.370276
 30
0.0
 11
0.082947
 21
0.367826
 31
0.0
  0
LINE
  5
1CE
100
AcDbEntity
  8
TRMODEL1
  6
CONTINUOUS
 62
     7
100
AcDbLine
 10
0.082947
 20
0.367826
 30
0.0
 11
0.082829
 21
0.365374
 31
0.0
  0
LINE
  5
1CF
100
AcDbEntity
  8
TRMODEL1
  6
CONTINUOUS
 62
     7
100
AcDbLine
 10
0.082829
 20
0.365374
 30
0.0
 11
0.082745
 21
0.36292
 31
0.0
  0
LINE
  5
1D0
100
AcDbEntity
  8
TRMODEL1
  6
CONTINUOUS
 62
     7
100
AcDbLine
 10
0.082745
 20
0.36292
 30
0.0
 11
0.082694
 21
0.360463
 31
0.0
  0
LINE
  5
1D1
100
AcDbEntity
  8
TRMODEL1
  6
CONTINUOUS
 62
     7
100
AcDbLine
 10
0.082694
 20
0.360463
 30
0.0
 11
0.082677
 21
0.358003
 31
0.0
  0
LINE
  5
1D2
100
AcDbEntity
  8
TRMODEL1
  6
CONTINUOUS
 62
     7
100
AcDbLine
 10
0.082677
 20
0.358003
 30
0.0
 11
0.082694
 21
0.355542
 31
0.0
  0
LINE
  5
1D3
100
AcDbEntity
  8
TRMODEL1
  6
CONTINUOUS
 62
     7
100
AcDbLine
 10
0.082694
 20
0.355542
 30
0.0
 11
0.082745
 21
0.353085
 31
0.0
  0
LINE
  5
1D4
100
AcDbEntity
  8
TRMODEL1
  6
CONTINUOUS
 62
     7
100
AcDbLine
 10
0.082745
 20
0.353085
 30
0.0
 11
0.082829
 21
0.350631
 31
0.0
  0
LINE
  5
1D5
100
AcDbEntity
  8
TRMODEL1
  6
CONTINUOUS
 62
     7
100
AcDbLine
 10
0.082829
 20
0.350631
 30
0.0
 11
0.082947
 21
0.348179
 31
0.0
  0
LINE
  5
1D6
100
AcDbEntity
  8
TRMODEL1
  6
CONTINUOUS
 62
     7
100
AcDbLine
 10
0.082947
 20
0.348179
 30
0.0
 11
0.083098
 21
0.345729
 31
0.0
  0
LINE
  5
1D7
100
AcDbEntity
  8
TRMODEL1
  6
CONTINUOUS
 62
     7
100
AcDbLine
 10
0.083098
 20
0.345729
 30
0.0
 11
0.083282
 21
0.343281
 31
0.0
  0
LINE
  5
1D8
100
AcDbEntity
  8
TRMODEL1
  6
CONTINUOUS
 62
     7
100
AcDbLine
 10
0.083282
 20
0.343281
 30
0.0
 11
0.083499
 21
0.340833
 31
0.0
  0
LINE
  5
1D9
100
AcDbEntity
  8
TRMODEL1
  6
CONTINUOUS
 62
     7
100
AcDbLine
 10
0.083499
 20
0.340833
 30
0.0
 11
0.08375
 21
0.338386
 31
0.0
  0
LINE
  5
1DA
100
AcDbEntity
  8
TRMODEL1
  6
CONTINUOUS
 62
     7
100
AcDbLine
 10
0.08375
 20
0.338386
 30
0.0
 11
0.084033
 21
0.335939
 31
0.0
  0
LINE
  5
1DB
100
AcDbEntity
  8
TRMODEL1
  6
CONTINUOUS
 62
     7
100
AcDbLine
 10
0.084033
 20
0.335939
 30
0.0
 11
0.08435
 21
0.333491
 31
0.0
  0
LINE
  5
1DC
100
AcDbEntity
  8
TRMODEL1
  6
CONTINUOUS
 62
     7
100
AcDbLine
 10
0.08435
 20
0.333491
 30
0.0
 11
0.084699
 21
0.331042
 31
0.0
  0
LINE
  5
1DD
100
AcDbEntity
  8
TRMODEL1
  6
CONTINUOUS
 62
     7
100
AcDbLine
 10
0.084699
 20
0.331042
 30
0.0
 11
0.085081
 21
0.328591
 31
0.0
  0
LINE
  5
1DE
100
AcDbEntity
  8
TRMODEL1
  6
CONTINUOUS
 62
     7
100
AcDbLine
 10
0.085081
 20
0.328591
 30
0.0
 11
0.085497
 21
0.326138
 31
0.0
  0
LINE
  5
1DF
100
AcDbEntity
  8
TRMODEL1
  6
CONTINUOUS
 62
     7
100
AcDbLine
 10
0.085497
 20
0.326138
 30
0.0
 11
0.085945
 21
0.323683
 31
0.0
  0
LINE
  5
1E0
100
AcDbEntity
  8
TRMODEL1
  6
CONTINUOUS
 62
     7
100
AcDbLine
 10
0.085945
 20
0.323683
 30
0.0
 11
0.086426
 21
0.321224
 31
0.0
  0
LINE
  5
1E1
100
AcDbEntity
  8
TRMODEL1
  6
CONTINUOUS
 62
     7
100
AcDbLine
 10
0.086426
 20
0.321224
 30
0.0
 11
0.08694
 21
0.318762
 31
0.0
  0
LINE
  5
1E2
100
AcDbEntity
  8
TRMODEL1
  6
CONTINUOUS
 62
     7
100
AcDbLine
 10
0.08694
 20
0.318762
 30
0.0
 11
0.087488
 21
0.316295
 31
0.0
  0
LINE
  5
1E3
100
AcDbEntity
  8
TRMODEL1
  6
CONTINUOUS
 62
     7
100
AcDbLine
 10
0.087488
 20
0.316295
 30
0.0
 11
0.088068
 21
0.313824
 31
0.0
  0
LINE
  5
1E4
100
AcDbEntity
  8
TRMODEL1
  6
CONTINUOUS
 62
     7
100
AcDbLine
 10
0.088068
 20
0.313824
 30
0.0
 11
0.088682
 21
0.311348
 31
0.0
  0
LINE
  5
1E5
100
AcDbEntity
  8
TRMODEL1
  6
CONTINUOUS
 62
     7
100
AcDbLine
 10
0.088682
 20
0.311348
 30
0.0
 11
0.089329
 21
0.308866
 31
0.0
  0
LINE
  5
1E6
100
AcDbEntity
  8
TRMODEL1
  6
CONTINUOUS
 62
     7
100
AcDbLine
 10
0.089329
 20
0.308866
 30
0.0
 11
0.090009
 21
0.306378
 31
0.0
  0
LINE
  5
1E7
100
AcDbEntity
  8
TRMODEL1
  6
CONTINUOUS
 62
     7
100
AcDbLine
 10
0.090009
 20
0.306378
 30
0.0
 11
0.090723
 21
0.303883
 31
0.0
  0
LINE
  5
1E8
100
AcDbEntity
  8
TRMODEL1
  6
CONTINUOUS
 62
     7
100
AcDbLine
 10
0.090723
 20
0.303883
 30
0.0
 11
0.09147
 21
0.301381
 31
0.0
  0
LINE
  5
1E9
100
AcDbEntity
  8
TRMODEL1
  6
CONTINUOUS
 62
     7
100
AcDbLine
 10
0.09147
 20
0.301381
 30
0.0
 11
0.092252
 21
0.298872
 31
0.0
  0
LINE
  5
1EA
100
AcDbEntity
  8
TRMODEL1
  6
CONTINUOUS
 62
     7
100
AcDbLine
 10
0.092252
 20
0.298872
 30
0.0
 11
0.093067
 21
0.296354
 31
0.0
  0
LINE
  5
1EB
100
AcDbEntity
  8
TRMODEL1
  6
CONTINUOUS
 62
     7
100
AcDbLine
 10
0.093067
 20
0.296354
 30
0.0
 11
0.093917
 21
0.293827
 31
0.0
  0
LINE
  5
1EC
100
AcDbEntity
  8
TRMODEL1
  6
CONTINUOUS
 62
     7
100
AcDbLine
 10
0.093917
 20
0.293827
 30
0.0
 11
0.0948
 21
0.291292
 31
0.0
  0
LINE
  5
1ED
100
AcDbEntity
  8
TRMODEL1
  6
CONTINUOUS
 62
     7
100
AcDbLine
 10
0.0948
 20
0.291292
 30
0.0
 11
0.095719
 21
0.288746
 31
0.0
  0
LINE
  5
1EE
100
AcDbEntity
  8
TRMODEL1
  6
CONTINUOUS
 62
     7
100
AcDbLine
 10
0.095719
 20
0.288746
 30
0.0
 11
0.096672
 21
0.28619
 31
0.0
  0
LINE
  5
1EF
100
AcDbEntity
  8
TRMODEL1
  6
CONTINUOUS
 62
     7
100
AcDbLine
 10
0.096672
 20
0.28619
 30
0.0
 11
0.09766
 21
0.283624
 31
0.0
  0
LINE
  5
1F0
100
AcDbEntity
  8
TRMODEL1
  6
CONTINUOUS
 62
     7
100
AcDbLine
 10
0.09766
 20
0.283624
 30
0.0
 11
0.098683
 21
0.281046
 31
0.0
  0
LINE
  5
1F1
100
AcDbEntity
  8
TRMODEL1
  6
CONTINUOUS
 62
     7
100
AcDbLine
 10
0.098683
 20
0.281046
 30
0.0
 11
0.099742
 21
0.278456
 31
0.0
  0
LINE
  5
1F2
100
AcDbEntity
  8
TRMODEL1
  6
CONTINUOUS
 62
     7
100
AcDbLine
 10
0.099742
 20
0.278456
 30
0.0
 11
0.100837
 21
0.275853
 31
0.0
  0
LINE
  5
1F3
100
AcDbEntity
  8
TRMODEL1
  6
CONTINUOUS
 62
     7
100
AcDbLine
 10
0.100837
 20
0.275853
 30
0.0
 11
0.101967
 21
0.273238
 31
0.0
  0
LINE
  5
1F4
100
AcDbEntity
  8
TRMODEL1
  6
CONTINUOUS
 62
     7
100
AcDbLine
 10
0.101967
 20
0.273238
 30
0.0
 11
0.103134
 21
0.270609
 31
0.0
  0
LINE
  5
1F5
100
AcDbEntity
  8
TRMODEL1
  6
CONTINUOUS
 62
     7
100
AcDbLine
 10
0.082677
 20
0.0
 30
0.0
 11
0.082677
 21
0.358003
 31
0.0
  0
LINE
  5
1F6
100
AcDbEntity
  8
TRMODEL1
  6
CONTINUOUS
 62
     7
100
AcDbLine
 10
0.103134
 20
0.174787
 30
0.0
 11
0.101967
 21
0.169529
 31
0.0
  0
LINE
  5
1F7
100
AcDbEntity
  8
TRMODEL1
  6
CONTINUOUS
 62
     7
100
AcDbLine
 10
0.101967
 20
0.169529
 30
0.0
 11
0.100837
 21
0.164298
 31
0.0
  0
LINE
  5
1F8
100
AcDbEntity
  8
TRMODEL1
  6
CONTINUOUS
 62
     7
100
AcDbLine
 10
0.100837
 20
0.164298
 30
0.0
 11
0.099742
 21
0.159094
 31
0.0
  0
LINE
  5
1F9
100
AcDbEntity
  8
TRMODEL1
  6
CONTINUOUS
 62
     7
100
AcDbLine
 10
0.099742
 20
0.159094
 30
0.0
 11
0.098683
 21
0.153914
 31
0.0
  0
LINE
  5
1FA
100
AcDbEntity
  8
TRMODEL1
  6
CONTINUOUS
 62
     7
100
AcDbLine
 10
0.098683
 20
0.153914
 30
0.0
 11
0.09766
 21
0.148758
 31
0.0
  0
LINE
  5
1FB
100
AcDbEntity
  8
TRMODEL1
  6
CONTINUOUS
 62
     7
100
AcDbLine
 10
0.09766
 20
0.148758
 30
0.0
 11
0.096672
 21
0.143625
 31
0.0
  0
LINE
  5
1FC
100
AcDbEntity
  8
TRMODEL1
  6
CONTINUOUS
 62
     7
100
AcDbLine
 10
0.096672
 20
0.143625
 30
0.0
 11
0.095719
 21
0.138513
 31
0.0
  0
LINE
  5
1FD
100
AcDbEntity
  8
TRMODEL1
  6
CONTINUOUS
 62
     7
100
AcDbLine
 10
0.095719
 20
0.138513
 30
0.0
 11
0.0948
 21
0.133422
 31
0.0
  0
LINE
  5
1FE
100
AcDbEntity
  8
TRMODEL1
  6
CONTINUOUS
 62
     7
100
AcDbLine
 10
0.0948
 20
0.133422
 30
0.0
 11
0.093917
 21
0.128351
 31
0.0
  0
LINE
  5
1FF
100
AcDbEntity
  8
TRMODEL1
  6
CONTINUOUS
 62
     7
100
AcDbLine
 10
0.093917
 20
0.128351
 30
0.0
 11
0.093067
 21
0.123298
 31
0.0
  0
LINE
  5
200
100
AcDbEntity
  8
TRMODEL1
  6
CONTINUOUS
 62
     7
100
AcDbLine
 10
0.093067
 20
0.123298
 30
0.0
 11
0.092252
 21
0.118262
 31
0.0
  0
LINE
  5
201
100
AcDbEntity
  8
TRMODEL1
  6
CONTINUOUS
 62
     7
100
AcDbLine
 10
0.092252
 20
0.118262
 30
0.0
 11
0.09147
 21
0.113243
 31
0.0
  0
LINE
  5
202
100
AcDbEntity
  8
TRMODEL1
  6
CONTINUOUS
 62
     7
100
AcDbLine
 10
0.09147
 20
0.113243
 30
0.0
 11
0.090723
 21
0.108239
 31
0.0
  0
LINE
  5
203
100
AcDbEntity
  8
TRMODEL1
  6
CONTINUOUS
 62
     7
100
AcDbLine
 10
0.090723
 20
0.108239
 30
0.0
 11
0.090009
 21
0.10325
 31
0.0
  0
LINE
  5
204
100
AcDbEntity
  8
TRMODEL1
  6
CONTINUOUS
 62
     7
100
AcDbLine
 10
0.090009
 20
0.10325
 30
0.0
 11
0.089329
 21
0.098274
 31
0.0
  0
LINE
  5
205
100
AcDbEntity
  8
TRMODEL1
  6
CONTINUOUS
 62
     7
100
AcDbLine
 10
0.089329
 20
0.098274
 30
0.0
 11
0.088682
 21
0.09331
 31
0.0
  0
LINE
  5
206
100
AcDbEntity
  8
TRMODEL1
  6
CONTINUOUS
 62
     7
100
AcDbLine
 10
0.088682
 20
0.09331
 30
0.0
 11
0.088068
 21
0.088357
 31
0.0
  0
LINE
  5
207
100
AcDbEntity
  8
TRMODEL1
  6
CONTINUOUS
 62
     7
100
AcDbLine
 10
0.088068
 20
0.088357
 30
0.0
 11
0.087488
 21
0.083415
 31
0.0
  0
LINE
  5
208
100
AcDbEntity
  8
TRMODEL1
  6
CONTINUOUS
 62
     7
100
AcDbLine
 10
0.087488
 20
0.083415
 30
0.0
 11
0.08694
 21
0.078482
 31
0.0
  0
LINE
  5
209
100
AcDbEntity
  8
TRMODEL1
  6
CONTINUOUS
 62
     7
100
AcDbLine
 10
0.08694
 20
0.078482
 30
0.0
 11
0.086426
 21
0.073557
 31
0.0
  0
LINE
  5
20A
100
AcDbEntity
  8
TRMODEL1
  6
CONTINUOUS
 62
     7
100
AcDbLine
 10
0.086426
 20
0.073557
 30
0.0
 11
0.085945
 21
0.06864
 31
0.0
  0
LINE
  5
20B
100
AcDbEntity
  8
TRMODEL1
  6
CONTINUOUS
 62
     7
100
AcDbLine
 10
0.085945
 20
0.06864
 30
0.0
 11
0.085497
 21
0.063729
 31
0.0
  0
LINE
  5
20C
100
AcDbEntity
  8
TRMODEL1
  6
CONTINUOUS
 62
     7
100
AcDbLine
 10
0.085497
 20
0.063729
 30
0.0
 11
0.085081
 21
0.058823
 31
0.0
  0
LINE
  5
20D
100
AcDbEntity
  8
TRMODEL1
  6
CONTINUOUS
 62
     7
100
AcDbLine
 10
0.085081
 20
0.058823
 30
0.0
 11
0.084699
 21
0.053922
 31
0.0
  0
LINE
  5
20E
100
AcDbEntity
  8
TRMODEL1
  6
CONTINUOUS
 62
     7
100
AcDbLine
 10
0.084699
 20
0.053922
 30
0.0
 11
0.08435
 21
0.049023
 31
0.0
  0
LINE
  5
20F
100
AcDbEntity
  8
TRMODEL1
  6
CONTINUOUS
 62
     7
100
AcDbLine
 10
0.08435
 20
0.049023
 30
0.0
 11
0.084033
 21
0.044128
 31
0.0
  0
LINE
  5
210
100
AcDbEntity
  8
TRMODEL1
  6
CONTINUOUS
 62
     7
100
AcDbLine
 10
0.084033
 20
0.044128
 30
0.0
 11
0.08375
 21
0.039233
 31
0.0
  0
LINE
  5
211
100
AcDbEntity
  8
TRMODEL1
  6
CONTINUOUS
 62
     7
100
AcDbLine
 10
0.08375
 20
0.039233
 30
0.0
 11
0.083499
 21
0.034339
 31
0.0
  0
LINE
  5
212
100
AcDbEntity
  8
TRMODEL1
  6
CONTINUOUS
 62
     7
100
AcDbLine
 10
0.083499
 20
0.034339
 30
0.0
 11
0.083282
 21
0.029443
 31
0.0
  0
LINE
  5
213
100
AcDbEntity
  8
TRMODEL1
  6
CONTINUOUS
 62
     7
100
AcDbLine
 10
0.083282
 20
0.029443
 30
0.0
 11
0.083098
 21
0.024547
 31
0.0
  0
LINE
  5
214
100
AcDbEntity
  8
TRMODEL1
  6
CONTINUOUS
 62
     7
100
AcDbLine
 10
0.083098
 20
0.024547
 30
0.0
 11
0.082947
 21
0.019647
 31
0.0
  0
LINE
  5
215
100
AcDbEntity
  8
TRMODEL1
  6
CONTINUOUS
 62
     7
100
AcDbLine
 10
0.082947
 20
0.019647
 30
0.0
 11
0.082829
 21
0.014744
 31
0.0
  0
LINE
  5
216
100
AcDbEntity
  8
TRMODEL1
  6
CONTINUOUS
 62
     7
100
AcDbLine
 10
0.082829
 20
0.014744
 30
0.0
 11
0.082745
 21
0.009835
 31
0.0
  0
LINE
  5
217
100
AcDbEntity
  8
TRMODEL1
  6
CONTINUOUS
 62
     7
100
AcDbLine
 10
0.082745
 20
0.009835
 30
0.0
 11
0.082694
 21
0.004921
 31
0.0
  0
LINE
  5
218
100
AcDbEntity
  8
TRMODEL1
  6
CONTINUOUS
 62
     7
100
AcDbLine
 10
0.082694
 20
0.004921
 30
0.0
 11
0.082677
 21
0.0
 31
0.0
  0
LINE
  5
219
100
AcDbEntity
  8
TRMODEL1
  6
CONTINUOUS
 62
     7
100
AcDbLine
 10
0.082677
 20
0.0
 30
0.0
 11
0.082694
 21
-0.004921
 31
0.0
  0
LINE
  5
21A
100
AcDbEntity
  8
TRMODEL1
  6
CONTINUOUS
 62
     7
100
AcDbLine
 10
0.082694
 20
-0.004921
 30
0.0
 11
0.082745
 21
-0.009835
 31
0.0
  0
LINE
  5
21B
100
AcDbEntity
  8
TRMODEL1
  6
CONTINUOUS
 62
     7
100
AcDbLine
 10
0.082745
 20
-0.009835
 30
0.0
 11
0.082829
 21
-0.014744
 31
0.0
  0
LINE
  5
21C
100
AcDbEntity
  8
TRMODEL1
  6
CONTINUOUS
 62
     7
100
AcDbLine
 10
0.082829
 20
-0.014744
 30
0.0
 11
0.082947
 21
-0.019647
 31
0.0
  0
LINE
  5
21D
100
AcDbEntity
  8
TRMODEL1
  6
CONTINUOUS
 62
     7
100
AcDbLine
 10
0.082947
 20
-0.019647
 30
0.0
 11
0.083098
 21
-0.024547
 31
0.0
  0
LINE
  5
21E
100
AcDbEntity
  8
TRMODEL1
  6
CONTINUOUS
 62
     7
100
AcDbLine
 10
0.083098
 20
-0.024547
 30
0.0
 11
0.083282
 21
-0.029443
 31
0.0
  0
LINE
  5
21F
100
AcDbEntity
  8
TRMODEL1
  6
CONTINUOUS
 62
     7
100
AcDbLine
 10
0.083282
 20
-0.029443
 30
0.0
 11
0.083499
 21
-0.034339
 31
0.0
  0
LINE
  5
220
100
AcDbEntity
  8
TRMODEL1
  6
CONTINUOUS
 62
     7
100
AcDbLine
 10
0.083499
 20
-0.034339
 30
0.0
 11
0.08375
 21
-0.039233
 31
0.0
  0
LINE
  5
221
100
AcDbEntity
  8
TRMODEL1
  6
CONTINUOUS
 62
     7
100
AcDbLine
 10
0.08375
 20
-0.039233
 30
0.0
 11
0.084033
 21
-0.044128
 31
0.0
  0
LINE
  5
222
100
AcDbEntity
  8
TRMODEL1
  6
CONTINUOUS
 62
     7
100
AcDbLine
 10
0.084033
 20
-0.044128
 30
0.0
 11
0.08435
 21
-0.049023
 31
0.0
  0
LINE
  5
223
100
AcDbEntity
  8
TRMODEL1
  6
CONTINUOUS
 62
     7
100
AcDbLine
 10
0.08435
 20
-0.049023
 30
0.0
 11
0.084699
 21
-0.053922
 31
0.0
  0
LINE
  5
224
100
AcDbEntity
  8
TRMODEL1
  6
CONTINUOUS
 62
     7
100
AcDbLine
 10
0.084699
 20
-0.053922
 30
0.0
 11
0.085081
 21
-0.058823
 31
0.0
  0
LINE
  5
225
100
AcDbEntity
  8
TRMODEL1
  6
CONTINUOUS
 62
     7
100
AcDbLine
 10
0.085081
 20
-0.058823
 30
0.0
 11
0.085497
 21
-0.063729
 31
0.0
  0
LINE
  5
226
100
AcDbEntity
  8
TRMODEL1
  6
CONTINUOUS
 62
     7
100
AcDbLine
 10
0.085497
 20
-0.063729
 30
0.0
 11
0.085945
 21
-0.06864
 31
0.0
  0
LINE
  5
227
100
AcDbEntity
  8
TRMODEL1
  6
CONTINUOUS
 62
     7
100
AcDbLine
 10
0.085945
 20
-0.06864
 30
0.0
 11
0.086426
 21
-0.073557
 31
0.0
  0
LINE
  5
228
100
AcDbEntity
  8
TRMODEL1
  6
CONTINUOUS
 62
     7
100
AcDbLine
 10
0.086426
 20
-0.073557
 30
0.0
 11
0.08694
 21
-0.078482
 31
0.0
  0
LINE
  5
229
100
AcDbEntity
  8
TRMODEL1
  6
CONTINUOUS
 62
     7
100
AcDbLine
 10
0.08694
 20
-0.078482
 30
0.0
 11
0.087488
 21
-0.083415
 31
0.0
  0
LINE
  5
22A
100
AcDbEntity
  8
TRMODEL1
  6
CONTINUOUS
 62
     7
100
AcDbLine
 10
0.087488
 20
-0.083415
 30
0.0
 11
0.088068
 21
-0.088357
 31
0.0
  0
LINE
  5
22B
100
AcDbEntity
  8
TRMODEL1
  6
CONTINUOUS
 62
     7
100
AcDbLine
 10
0.088068
 20
-0.088357
 30
0.0
 11
0.088682
 21
-0.09331
 31
0.0
  0
LINE
  5
22C
100
AcDbEntity
  8
TRMODEL1
  6
CONTINUOUS
 62
     7
100
AcDbLine
 10
0.088682
 20
-0.09331
 30
0.0
 11
0.089329
 21
-0.098274
 31
0.0
  0
LINE
  5
22D
100
AcDbEntity
  8
TRMODEL1
  6
CONTINUOUS
 62
     7
100
AcDbLine
 10
0.089329
 20
-0.098274
 30
0.0
 11
0.090009
 21
-0.10325
 31
0.0
  0
LINE
  5
22E
100
AcDbEntity
  8
TRMODEL1
  6
CONTINUOUS
 62
     7
100
AcDbLine
 10
0.090009
 20
-0.10325
 30
0.0
 11
0.090723
 21
-0.108239
 31
0.0
  0
LINE
  5
22F
100
AcDbEntity
  8
TRMODEL1
  6
CONTINUOUS
 62
     7
100
AcDbLine
 10
0.090723
 20
-0.108239
 30
0.0
 11
0.09147
 21
-0.113243
 31
0.0
  0
LINE
  5
230
100
AcDbEntity
  8
TRMODEL1
  6
CONTINUOUS
 62
     7
100
AcDbLine
 10
0.09147
 20
-0.113243
 30
0.0
 11
0.092252
 21
-0.118262
 31
0.0
  0
LINE
  5
231
100
AcDbEntity
  8
TRMODEL1
  6
CONTINUOUS
 62
     7
100
AcDbLine
 10
0.092252
 20
-0.118262
 30
0.0
 11
0.093067
 21
-0.123298
 31
0.0
  0
LINE
  5
232
100
AcDbEntity
  8
TRMODEL1
  6
CONTINUOUS
 62
     7
100
AcDbLine
 10
0.093067
 20
-0.123298
 30
0.0
 11
0.093917
 21
-0.128351
 31
0.0
  0
LINE
  5
233
100
AcDbEntity
  8
TRMODEL1
  6
CONTINUOUS
 62
     7
100
AcDbLine
 10
0.093917
 20
-0.128351
 30
0.0
 11
0.0948
 21
-0.133422
 31
0.0
  0
LINE
  5
234
100
AcDbEntity
  8
TRMODEL1
  6
CONTINUOUS
 62
     7
100
AcDbLine
 10
0.0948
 20
-0.133422
 30
0.0
 11
0.095719
 21
-0.138513
 31
0.0
  0
LINE
  5
235
100
AcDbEntity
  8
TRMODEL1
  6
CONTINUOUS
 62
     7
100
AcDbLine
 10
0.095719
 20
-0.138513
 30
0.0
 11
0.096672
 21
-0.143625
 31
0.0
  0
LINE
  5
236
100
AcDbEntity
  8
TRMODEL1
  6
CONTINUOUS
 62
     7
100
AcDbLine
 10
0.096672
 20
-0.143625
 30
0.0
 11
0.09766
 21
-0.148758
 31
0.0
  0
LINE
  5
237
100
AcDbEntity
  8
TRMODEL1
  6
CONTINUOUS
 62
     7
100
AcDbLine
 10
0.09766
 20
-0.148758
 30
0.0
 11
0.098683
 21
-0.153914
 31
0.0
  0
LINE
  5
238
100
AcDbEntity
  8
TRMODEL1
  6
CONTINUOUS
 62
     7
100
AcDbLine
 10
0.098683
 20
-0.153914
 30
0.0
 11
0.099742
 21
-0.159094
 31
0.0
  0
LINE
  5
239
100
AcDbEntity
  8
TRMODEL1
  6
CONTINUOUS
 62
     7
100
AcDbLine
 10
0.099742
 20
-0.159094
 30
0.0
 11
0.100837
 21
-0.164298
 31
0.0
  0
LINE
  5
23A
100
AcDbEntity
  8
TRMODEL1
  6
CONTINUOUS
 62
     7
100
AcDbLine
 10
0.100837
 20
-0.164298
 30
0.0
 11
0.101967
 21
-0.169529
 31
0.0
  0
LINE
  5
23B
100
AcDbEntity
  8
TRMODEL1
  6
CONTINUOUS
 62
     7
100
AcDbLine
 10
0.101967
 20
-0.169529
 30
0.0
 11
0.103134
 21
-0.174787
 31
0.0
  0
LINE
  5
23C
100
AcDbEntity
  8
TRMODEL1
  6
CONTINUOUS
 62
     7
100
AcDbLine
 10
0.082677
 20
-0.358003
 30
0.0
 11
0.082677
 21
0.0
 31
0.0
  0
LINE
  5
23D
100
AcDbEntity
  8
TRMODEL1
  6
CONTINUOUS
 62
     7
100
AcDbLine
 10
0.103134
 20
-0.270609
 30
0.0
 11
0.101967
 21
-0.273238
 31
0.0
  0
LINE
  5
23E
100
AcDbEntity
  8
TRMODEL1
  6
CONTINUOUS
 62
     7
100
AcDbLine
 10
0.101967
 20
-0.273238
 30
0.0
 11
0.100837
 21
-0.275853
 31
0.0
  0
LINE
  5
23F
100
AcDbEntity
  8
TRMODEL1
  6
CONTINUOUS
 62
     7
100
AcDbLine
 10
0.100837
 20
-0.275853
 30
0.0
 11
0.099742
 21
-0.278456
 31
0.0
  0
LINE
  5
240
100
AcDbEntity
  8
TRMODEL1
  6
CONTINUOUS
 62
     7
100
AcDbLine
 10
0.099742
 20
-0.278456
 30
0.0
 11
0.098683
 21
-0.281046
 31
0.0
  0
LINE
  5
241
100
AcDbEntity
  8
TRMODEL1
  6
CONTINUOUS
 62
     7
100
AcDbLine
 10
0.098683
 20
-0.281046
 30
0.0
 11
0.09766
 21
-0.283624
 31
0.0
  0
LINE
  5
242
100
AcDbEntity
  8
TRMODEL1
  6
CONTINUOUS
 62
     7
100
AcDbLine
 10
0.09766
 20
-0.283624
 30
0.0
 11
0.096672
 21
-0.28619
 31
0.0
  0
LINE
  5
243
100
AcDbEntity
  8
TRMODEL1
  6
CONTINUOUS
 62
     7
100
AcDbLine
 10
0.096672
 20
-0.28619
 30
0.0
 11
0.095719
 21
-0.288746
 31
0.0
  0
LINE
  5
244
100
AcDbEntity
  8
TRMODEL1
  6
CONTINUOUS
 62
     7
100
AcDbLine
 10
0.095719
 20
-0.288746
 30
0.0
 11
0.0948
 21
-0.291292
 31
0.0
  0
LINE
  5
245
100
AcDbEntity
  8
TRMODEL1
  6
CONTINUOUS
 62
     7
100
AcDbLine
 10
0.0948
 20
-0.291292
 30
0.0
 11
0.093917
 21
-0.293827
 31
0.0
  0
LINE
  5
246
100
AcDbEntity
  8
TRMODEL1
  6
CONTINUOUS
 62
     7
100
AcDbLine
 10
0.093917
 20
-0.293827
 30
0.0
 11
0.093067
 21
-0.296354
 31
0.0
  0
LINE
  5
247
100
AcDbEntity
  8
TRMODEL1
  6
CONTINUOUS
 62
     7
100
AcDbLine
 10
0.093067
 20
-0.296354
 30
0.0
 11
0.092252
 21
-0.298872
 31
0.0
  0
LINE
  5
248
100
AcDbEntity
  8
TRMODEL1
  6
CONTINUOUS
 62
     7
100
AcDbLine
 10
0.092252
 20
-0.298872
 30
0.0
 11
0.09147
 21
-0.301381
 31
0.0
  0
LINE
  5
249
100
AcDbEntity
  8
TRMODEL1
  6
CONTINUOUS
 62
     7
100
AcDbLine
 10
0.09147
 20
-0.301381
 30
0.0
 11
0.090723
 21
-0.303883
 31
0.0
  0
LINE
  5
24A
100
AcDbEntity
  8
TRMODEL1
  6
CONTINUOUS
 62
     7
100
AcDbLine
 10
0.090723
 20
-0.303883
 30
0.0
 11
0.090009
 21
-0.306378
 31
0.0
  0
LINE
  5
24B
100
AcDbEntity
  8
TRMODEL1
  6
CONTINUOUS
 62
     7
100
AcDbLine
 10
0.090009
 20
-0.306378
 30
0.0
 11
0.089329
 21
-0.308866
 31
0.0
  0
LINE
  5
24C
100
AcDbEntity
  8
TRMODEL1
  6
CONTINUOUS
 62
     7
100
AcDbLine
 10
0.089329
 20
-0.308866
 30
0.0
 11
0.088682
 21
-0.311348
 31
0.0
  0
LINE
  5
24D
100
AcDbEntity
  8
TRMODEL1
  6
CONTINUOUS
 62
     7
100
AcDbLine
 10
0.088682
 20
-0.311348
 30
0.0
 11
0.088068
 21
-0.313824
 31
0.0
  0
LINE
  5
24E
100
AcDbEntity
  8
TRMODEL1
  6
CONTINUOUS
 62
     7
100
AcDbLine
 10
0.088068
 20
-0.313824
 30
0.0
 11
0.087488
 21
-0.316295
 31
0.0
  0
LINE
  5
24F
100
AcDbEntity
  8
TRMODEL1
  6
CONTINUOUS
 62
     7
100
AcDbLine
 10
0.087488
 20
-0.316295
 30
0.0
 11
0.08694
 21
-0.318762
 31
0.0
  0
LINE
  5
250
100
AcDbEntity
  8
TRMODEL1
  6
CONTINUOUS
 62
     7
100
AcDbLine
 10
0.08694
 20
-0.318762
 30
0.0
 11
0.086426
 21
-0.321224
 31
0.0
  0
LINE
  5
251
100
AcDbEntity
  8
TRMODEL1
  6
CONTINUOUS
 62
     7
100
AcDbLine
 10
0.086426
 20
-0.321224
 30
0.0
 11
0.085945
 21
-0.323683
 31
0.0
  0
LINE
  5
252
100
AcDbEntity
  8
TRMODEL1
  6
CONTINUOUS
 62
     7
100
AcDbLine
 10
0.085945
 20
-0.323683
 30
0.0
 11
0.085497
 21
-0.326138
 31
0.0
  0
LINE
  5
253
100
AcDbEntity
  8
TRMODEL1
  6
CONTINUOUS
 62
     7
100
AcDbLine
 10
0.085497
 20
-0.326138
 30
0.0
 11
0.085081
 21
-0.328591
 31
0.0
  0
LINE
  5
254
100
AcDbEntity
  8
TRMODEL1
  6
CONTINUOUS
 62
     7
100
AcDbLine
 10
0.085081
 20
-0.328591
 30
0.0
 11
0.084699
 21
-0.331042
 31
0.0
  0
LINE
  5
255
100
AcDbEntity
  8
TRMODEL1
  6
CONTINUOUS
 62
     7
100
AcDbLine
 10
0.084699
 20
-0.331042
 30
0.0
 11
0.08435
 21
-0.333491
 31
0.0
  0
LINE
  5
256
100
AcDbEntity
  8
TRMODEL1
  6
CONTINUOUS
 62
     7
100
AcDbLine
 10
0.08435
 20
-0.333491
 30
0.0
 11
0.084033
 21
-0.335939
 31
0.0
  0
LINE
  5
257
100
AcDbEntity
  8
TRMODEL1
  6
CONTINUOUS
 62
     7
100
AcDbLine
 10
0.084033
 20
-0.335939
 30
0.0
 11
0.08375
 21
-0.338386
 31
0.0
  0
LINE
  5
258
100
AcDbEntity
  8
TRMODEL1
  6
CONTINUOUS
 62
     7
100
AcDbLine
 10
0.08375
 20
-0.338386
 30
0.0
 11
0.083499
 21
-0.340833
 31
0.0
  0
LINE
  5
259
100
AcDbEntity
  8
TRMODEL1
  6
CONTINUOUS
 62
     7
100
AcDbLine
 10
0.083499
 20
-0.340833
 30
0.0
 11
0.083282
 21
-0.343281
 31
0.0
  0
LINE
  5
25A
100
AcDbEntity
  8
TRMODEL1
  6
CONTINUOUS
 62
     7
100
AcDbLine
 10
0.083282
 20
-0.343281
 30
0.0
 11
0.083098
 21
-0.345729
 31
0.0
  0
LINE
  5
25B
100
AcDbEntity
  8
TRMODEL1
  6
CONTINUOUS
 62
     7
100
AcDbLine
 10
0.083098
 20
-0.345729
 30
0.0
 11
0.082947
 21
-0.348179
 31
0.0
  0
LINE
  5
25C
100
AcDbEntity
  8
TRMODEL1
  6
CONTINUOUS
 62
     7
100
AcDbLine
 10
0.082947
 20
-0.348179
 30
0.0
 11
0.082829
 21
-0.350631
 31
0.0
  0
LINE
  5
25D
100
AcDbEntity
  8
TRMODEL1
  6
CONTINUOUS
 62
     7
100
AcDbLine
 10
0.082829
 20
-0.350631
 30
0.0
 11
0.082745
 21
-0.353085
 31
0.0
  0
LINE
  5
25E
100
AcDbEntity
  8
TRMODEL1
  6
CONTINUOUS
 62
     7
100
AcDbLine
 10
0.082745
 20
-0.353085
 30
0.0
 11
0.082694
 21
-0.355542
 31
0.0
  0
LINE
  5
25F
100
AcDbEntity
  8
TRMODEL1
  6
CONTINUOUS
 62
     7
100
AcDbLine
 10
0.082694
 20
-0.355542
 30
0.0
 11
0.082677
 21
-0.358003
 31
0.0
  0
LINE
  5
260
100
AcDbEntity
  8
TRMODEL1
  6
CONTINUOUS
 62
     7
100
AcDbLine
 10
0.397638
 20
-0.445396
 30
0.0
 11
0.397638
 21
-0.444104
 31
0.0
  0
LINE
  5
261
100
AcDbEntity
  8
TRMODEL1
  6
CONTINUOUS
 62
     7
100
AcDbLine
 10
0.397638
 20
0.271901
 30
0.0
 11
0.397638
 21
0.444104
 31
0.0
  0
LINE
  5
262
100
AcDbEntity
  8
TRMODEL1
  6
CONTINUOUS
 62
     7
100
AcDbLine
 10
0.397638
 20
-0.172203
 30
0.0
 11
0.397638
 21
0.172203
 31
0.0
  0
LINE
  5
263
100
AcDbEntity
  8
TRMODEL1
  6
CONTINUOUS
 62
     7
100
AcDbLine
 10
0.397638
 20
-0.444104
 30
0.0
 11
0.397638
 21
-0.271901
 31
0.0
  0
LINE
  5
264
100
AcDbEntity
  8
TRMODEL1
  6
CONTINUOUS
 62
     7
100
AcDbLine
 10
1.837402
 20
0.448819
 30
0.0
 11
1.837402
 21
-0.448819
 31
0.0
  0
LINE
  5
265
100
AcDbEntity
  8
TRMODEL1
  6
CONTINUOUS
 62
     7
100
AcDbLine
 10
1.887402
 20
0.448819
 30
0.0
 11
1.887402
 21
-0.448819
 31
0.0
  0
LINE
  5
266
100
AcDbEntity
  8
TRMODEL1
  6
CONTINUOUS
 62
     7
100
AcDbLine
 10
0.397638
 20
0.172203
 30
0.0
 11
0.397638
 21
0.174787
 31
0.0
  0
LINE
  5
267
100
AcDbEntity
  8
TRMODEL1
  6
CONTINUOUS
 62
     7
100
AcDbLine
 10
0.397638
 20
0.270609
 30
0.0
 11
0.397638
 21
0.271901
 31
0.0
  0
LINE
  5
268
100
AcDbEntity
  8
TRMODEL1
  6
CONTINUOUS
 62
     7
100
AcDbLine
 10
0.397638
 20
0.444104
 30
0.0
 11
0.397638
 21
0.445396
 31
0.0
  0
LINE
  5
269
100
AcDbEntity
  8
TRMODEL1
  6
CONTINUOUS
 62
     7
100
AcDbLine
 10
0.397638
 20
-0.271901
 30
0.0
 11
0.397638
 21
-0.270609
 31
0.0
  0
LINE
  5
26A
100
AcDbEntity
  8
TRMODEL1
  6
CONTINUOUS
 62
     7
100
AcDbLine
 10
0.397638
 20
-0.174787
 30
0.0
 11
0.397638
 21
-0.172203
 31
0.0
  0
LINE
  5
26B
100
AcDbEntity
  8
TRMODEL1
  6
CONTINUOUS
 62
     7
100
AcDbLine
 10
0.082677
 20
-0.358003
 30
0.0
 11
0.082694
 21
-0.360463
 31
0.0
  0
LINE
  5
26C
100
AcDbEntity
  8
TRMODEL1
  6
CONTINUOUS
 62
     7
100
AcDbLine
 10
0.082694
 20
-0.360463
 30
0.0
 11
0.082745
 21
-0.36292
 31
0.0
  0
LINE
  5
26D
100
AcDbEntity
  8
TRMODEL1
  6
CONTINUOUS
 62
     7
100
AcDbLine
 10
0.082745
 20
-0.36292
 30
0.0
 11
0.082829
 21
-0.365374
 31
0.0
  0
LINE
  5
26E
100
AcDbEntity
  8
TRMODEL1
  6
CONTINUOUS
 62
     7
100
AcDbLine
 10
0.082829
 20
-0.365374
 30
0.0
 11
0.082947
 21
-0.367826
 31
0.0
  0
LINE
  5
26F
100
AcDbEntity
  8
TRMODEL1
  6
CONTINUOUS
 62
     7
100
AcDbLine
 10
0.082947
 20
-0.367826
 30
0.0
 11
0.083098
 21
-0.370276
 31
0.0
  0
LINE
  5
270
100
AcDbEntity
  8
TRMODEL1
  6
CONTINUOUS
 62
     7
100
AcDbLine
 10
0.083098
 20
-0.370276
 30
0.0
 11
0.083282
 21
-0.372724
 31
0.0
  0
LINE
  5
271
100
AcDbEntity
  8
TRMODEL1
  6
CONTINUOUS
 62
     7
100
AcDbLine
 10
0.083282
 20
-0.372724
 30
0.0
 11
0.083499
 21
-0.375172
 31
0.0
  0
LINE
  5
272
100
AcDbEntity
  8
TRMODEL1
  6
CONTINUOUS
 62
     7
100
AcDbLine
 10
0.083499
 20
-0.375172
 30
0.0
 11
0.08375
 21
-0.377619
 31
0.0
  0
LINE
  5
273
100
AcDbEntity
  8
TRMODEL1
  6
CONTINUOUS
 62
     7
100
AcDbLine
 10
0.08375
 20
-0.377619
 30
0.0
 11
0.084033
 21
-0.380066
 31
0.0
  0
LINE
  5
274
100
AcDbEntity
  8
TRMODEL1
  6
CONTINUOUS
 62
     7
100
AcDbLine
 10
0.084033
 20
-0.380066
 30
0.0
 11
0.08435
 21
-0.382514
 31
0.0
  0
LINE
  5
275
100
AcDbEntity
  8
TRMODEL1
  6
CONTINUOUS
 62
     7
100
AcDbLine
 10
0.08435
 20
-0.382514
 30
0.0
 11
0.084699
 21
-0.384963
 31
0.0
  0
LINE
  5
276
100
AcDbEntity
  8
TRMODEL1
  6
CONTINUOUS
 62
     7
100
AcDbLine
 10
0.084699
 20
-0.384963
 30
0.0
 11
0.085081
 21
-0.387414
 31
0.0
  0
LINE
  5
277
100
AcDbEntity
  8
TRMODEL1
  6
CONTINUOUS
 62
     7
100
AcDbLine
 10
0.085081
 20
-0.387414
 30
0.0
 11
0.085497
 21
-0.389867
 31
0.0
  0
LINE
  5
278
100
AcDbEntity
  8
TRMODEL1
  6
CONTINUOUS
 62
     7
100
AcDbLine
 10
0.085497
 20
-0.389867
 30
0.0
 11
0.085945
 21
-0.392323
 31
0.0
  0
LINE
  5
279
100
AcDbEntity
  8
TRMODEL1
  6
CONTINUOUS
 62
     7
100
AcDbLine
 10
0.085945
 20
-0.392323
 30
0.0
 11
0.086426
 21
-0.394781
 31
0.0
  0
LINE
  5
27A
100
AcDbEntity
  8
TRMODEL1
  6
CONTINUOUS
 62
     7
100
AcDbLine
 10
0.086426
 20
-0.394781
 30
0.0
 11
0.08694
 21
-0.397244
 31
0.0
  0
LINE
  5
27B
100
AcDbEntity
  8
TRMODEL1
  6
CONTINUOUS
 62
     7
100
AcDbLine
 10
0.08694
 20
-0.397244
 30
0.0
 11
0.087488
 21
-0.39971
 31
0.0
  0
LINE
  5
27C
100
AcDbEntity
  8
TRMODEL1
  6
CONTINUOUS
 62
     7
100
AcDbLine
 10
0.087488
 20
-0.39971
 30
0.0
 11
0.088068
 21
-0.402181
 31
0.0
  0
LINE
  5
27D
100
AcDbEntity
  8
TRMODEL1
  6
CONTINUOUS
 62
     7
100
AcDbLine
 10
0.088068
 20
-0.402181
 30
0.0
 11
0.088682
 21
-0.404657
 31
0.0
  0
LINE
  5
27E
100
AcDbEntity
  8
TRMODEL1
  6
CONTINUOUS
 62
     7
100
AcDbLine
 10
0.088682
 20
-0.404657
 30
0.0
 11
0.089329
 21
-0.407139
 31
0.0
  0
LINE
  5
27F
100
AcDbEntity
  8
TRMODEL1
  6
CONTINUOUS
 62
     7
100
AcDbLine
 10
0.089329
 20
-0.407139
 30
0.0
 11
0.090009
 21
-0.409627
 31
0.0
  0
LINE
  5
280
100
AcDbEntity
  8
TRMODEL1
  6
CONTINUOUS
 62
     7
100
AcDbLine
 10
0.090009
 20
-0.409627
 30
0.0
 11
0.090723
 21
-0.412122
 31
0.0
  0
LINE
  5
281
100
AcDbEntity
  8
TRMODEL1
  6
CONTINUOUS
 62
     7
100
AcDbLine
 10
0.090723
 20
-0.412122
 30
0.0
 11
0.09147
 21
-0.414624
 31
0.0
  0
LINE
  5
282
100
AcDbEntity
  8
TRMODEL1
  6
CONTINUOUS
 62
     7
100
AcDbLine
 10
0.09147
 20
-0.414624
 30
0.0
 11
0.092252
 21
-0.417134
 31
0.0
  0
LINE
  5
283
100
AcDbEntity
  8
TRMODEL1
  6
CONTINUOUS
 62
     7
100
AcDbLine
 10
0.092252
 20
-0.417134
 30
0.0
 11
0.093067
 21
-0.419651
 31
0.0
  0
LINE
  5
284
100
AcDbEntity
  8
TRMODEL1
  6
CONTINUOUS
 62
     7
100
AcDbLine
 10
0.093067
 20
-0.419651
 30
0.0
 11
0.093917
 21
-0.422178
 31
0.0
  0
LINE
  5
285
100
AcDbEntity
  8
TRMODEL1
  6
CONTINUOUS
 62
     7
100
AcDbLine
 10
0.093917
 20
-0.422178
 30
0.0
 11
0.0948
 21
-0.424714
 31
0.0
  0
LINE
  5
286
100
AcDbEntity
  8
TRMODEL1
  6
CONTINUOUS
 62
     7
100
AcDbLine
 10
0.0948
 20
-0.424714
 30
0.0
 11
0.095719
 21
-0.427259
 31
0.0
  0
LINE
  5
287
100
AcDbEntity
  8
TRMODEL1
  6
CONTINUOUS
 62
     7
100
AcDbLine
 10
0.095719
 20
-0.427259
 30
0.0
 11
0.096672
 21
-0.429815
 31
0.0
  0
LINE
  5
288
100
AcDbEntity
  8
TRMODEL1
  6
CONTINUOUS
 62
     7
100
AcDbLine
 10
0.096672
 20
-0.429815
 30
0.0
 11
0.09766
 21
-0.432382
 31
0.0
  0
LINE
  5
289
100
AcDbEntity
  8
TRMODEL1
  6
CONTINUOUS
 62
     7
100
AcDbLine
 10
0.09766
 20
-0.432382
 30
0.0
 11
0.098683
 21
-0.43496
 31
0.0
  0
LINE
  5
28A
100
AcDbEntity
  8
TRMODEL1
  6
CONTINUOUS
 62
     7
100
AcDbLine
 10
0.098683
 20
-0.43496
 30
0.0
 11
0.099742
 21
-0.437549
 31
0.0
  0
LINE
  5
28B
100
AcDbEntity
  8
TRMODEL1
  6
CONTINUOUS
 62
     7
100
AcDbLine
 10
0.099742
 20
-0.437549
 30
0.0
 11
0.100837
 21
-0.440152
 31
0.0
  0
LINE
  5
28C
100
AcDbEntity
  8
TRMODEL1
  6
CONTINUOUS
 62
     7
100
AcDbLine
 10
0.100837
 20
-0.440152
 30
0.0
 11
0.101967
 21
-0.442767
 31
0.0
  0
LINE
  5
28D
100
AcDbEntity
  8
TRMODEL1
  6
CONTINUOUS
 62
     7
100
AcDbLine
 10
0.101967
 20
-0.442767
 30
0.0
 11
0.103134
 21
-0.445396
 31
0.0
  0
LINE
  5
28E
100
AcDbEntity
  8
TRMODEL1
  6
CONTINUOUS
 62
     7
100
AcDbLine
 10
0.082677
 20
-0.413386
 30
0.0
 11
0.082677
 21
-0.358003
 31
0.0
  0
LINE
  5
28F
100
AcDbEntity
  8
TRMODEL1
  6
CONTINUOUS
 62
     7
100
AcDbLine
 10
0.0
 20
-0.370079
 30
0.0
 11
0.0
 21
0.370079
 31
0.0
  0
LINE
  5
290
100
AcDbEntity
  8
TRMODEL1
  6
CONTINUOUS
 62
     7
100
AcDbLine
 10
2.213248
 20
-0.23622
 30
0.0
 11
2.237402
 21
-0.212067
 31
0.0
  0
LINE
  5
291
100
AcDbEntity
  8
TRMODEL1
  6
CONTINUOUS
 62
     7
100
AcDbLine
 10
2.237402
 20
0.212067
 30
0.0
 11
2.213248
 21
0.23622
 31
0.0
  0
LINE
  5
292
100
AcDbEntity
  8
TRMODEL1
  6
CONTINUOUS
 62
     7
100
AcDbLine
 10
1.911555
 20
0.23622
 30
0.0
 11
1.887402
 21
0.212067
 31
0.0
  0
LINE
  5
293
100
AcDbEntity
  8
TRMODEL1
  6
CONTINUOUS
 62
     7
100
AcDbLine
 10
1.887656
 20
-0.212322
 30
0.0
 11
1.911555
 21
-0.23622
 31
0.0
  0
LINE
  5
294
100
AcDbEntity
  8
TRMODEL1
  6
CONTINUOUS
 62
     7
100
AcDbLine
 10
2.213248
 20
0.23622
 30
0.0
 11
1.911555
 21
0.23622
 31
0.0
  0
LINE
  5
295
100
AcDbEntity
  8
TRMODEL1
  6
CONTINUOUS
 62
     7
100
AcDbLine
 10
1.911555
 20
-0.23622
 30
0.0
 11
2.213248
 21
-0.23622
 31
0.0
  0
LINE
  5
296
100
AcDbEntity
  8
TRMODEL1
  6
CONTINUOUS
 62
     7
100
AcDbLine
 10
2.237402
 20
-0.212067
 30
0.0
 11
2.287402
 21
-0.212067
 31
0.0
  0
LINE
  5
297
100
AcDbEntity
  8
TRMODEL1
  6
CONTINUOUS
 62
     7
100
AcDbLine
 10
2.287402
 20
0.212067
 30
0.0
 11
2.237402
 21
0.212067
 31
0.0
  0
LINE
  5
298
100
AcDbEntity
  8
TRMODEL1
  6
CONTINUOUS
 62
     7
100
AcDbLine
 10
-0.430082
 20
0.258809
 30
0.0
 11
-0.472441
 21
0.21645
 31
0.0
  0
LINE
  5
299
100
AcDbEntity
  8
TRMODEL1
  6
CONTINUOUS
 62
     7
100
AcDbLine
 10
-0.472441
 20
-0.21645
 30
0.0
 11
-0.430082
 21
-0.258809
 31
0.0
  0
LINE
  5
29A
100
AcDbEntity
  8
TRMODEL1
  6
CONTINUOUS
 62
     7
100
AcDbLine
 10
0.0
 20
0.27
 30
0.0
 11
-0.070641
 21
0.27
 31
0.0
  0
LINE
  5
29B
100
AcDbEntity
  8
TRMODEL1
  6
CONTINUOUS
 62
     7
100
AcDbLine
 10
-0.070641
 20
-0.27
 30
0.0
 11
0.0
 21
-0.27
 31
0.0
  0
LINE
  5
29C
100
AcDbEntity
  8
TRMODEL1
  6
CONTINUOUS
 62
     7
100
AcDbLine
 10
-0.070641
 20
0.27
 30
0.0
 11
-0.430082
 21
0.258809
 31
0.0
  0
LINE
  5
29D
100
AcDbEntity
  8
TRMODEL1
  6
CONTINUOUS
 62
     7
100
AcDbLine
 10
-0.430082
 20
-0.258809
 30
0.0
 11
-0.070641
 21
-0.27
 31
0.0
  0
LINE
  5
29E
100
AcDbEntity
  8
TRMODEL1
  6
CONTINUOUS
 62
     7
100
AcDbLine
 10
0.103134
 20
-0.448819
 30
0.0
 11
0.397638
 21
-0.448819
 31
0.0
  0
LINE
  5
29F
100
AcDbEntity
  8
TRMODEL1
  6
CONTINUOUS
 62
     7
100
AcDbLine
 10
0.397638
 20
0.448819
 30
0.0
 11
0.103134
 21
0.448819
 31
0.0
  0
LINE
  5
2A0
100
AcDbEntity
  8
TRMODEL1
  6
CONTINUOUS
 62
     7
100
AcDbLine
 10
0.103134
 20
0.448819
 30
0.0
 11
0.082677
 21
0.413386
 31
0.0
  0
LINE
  5
2A1
100
AcDbEntity
  8
TRMODEL1
  6
CONTINUOUS
 62
     7
100
AcDbLine
 10
0.397638
 20
-0.447819
 30
0.0
 11
1.837402
 21
-0.447819
 31
0.0
  0
LINE
  5
2A2
100
AcDbEntity
  8
TRMODEL1
  6
CONTINUOUS
 62
     7
100
AcDbLine
 10
1.837402
 20
0.447819
 30
0.0
 11
0.397638
 21
0.447819
 31
0.0
  0
LINE
  5
2A3
100
AcDbEntity
  8
TRMODEL1
  6
CONTINUOUS
 62
     7
100
AcDbLine
 10
1.887402
 20
0.448819
 30
0.0
 11
1.837402
 21
0.448819
 31
0.0
  0
LINE
  5
2A4
100
AcDbEntity
  8
TRMODEL1
  6
CONTINUOUS
 62
     7
100
AcDbLine
 10
1.837402
 20
-0.448819
 30
0.0
 11
1.887402
 21
-0.448819
 31
0.0
  0
LINE
  5
2A5
100
AcDbEntity
  8
TRMODEL1
  6
CONTINUOUS
 62
     7
100
AcDbLine
 10
0.082677
 20
-0.413386
 30
0.0
 11
0.103134
 21
-0.448819
 31
0.0
  0
LINE
  5
2A6
100
AcDbEntity
  8
TRMODEL1
  6
CONTINUOUS
 62
     7
100
AcDbLine
 10
0.0
 20
-0.370079
 30
0.0
 11
0.082677
 21
-0.370079
 31
0.0
  0
LINE
  5
2A7
100
AcDbEntity
  8
TRMODEL1
  6
CONTINUOUS
 62
     7
100
AcDbLine
 10
0.082677
 20
0.370079
 30
0.0
 11
0.0
 21
0.370079
 31
0.0
  0
LINE
  5
2A8
100
AcDbEntity
  8
TRDETAIL3
  6
CENTER2
 62
     4
100
AcDbLine
 10
-0.512621
 20
0.0
 30
0.0
 11
2.327402
 21
0.0
 31
0.0
  0
LINE
  5
2A9
100
AcDbEntity
  8
TRMODEL1
  6
CONTINUOUS
 62
     7
100
AcDbLine
 10
-0.181741
 20
-0.266541
 30
0.0
 11
-0.181741
 21
0.266541
 31
0.0
  0
LINE
  5
2AA
100
AcDbEntity
  8
TRMODEL3
  6
CONTINUOUS
 62
     1
100
AcDbLine
 10
-0.181741
 20
0.22556
 30
0.0
 11
-0.430082
 21
0.233292
 31
0.0
  0
LINE
  5
2AB
100
AcDbEntity
  8
TRMODEL3
  6
CONTINUOUS
 62
     1
100
AcDbLine
 10
-0.181741
 20
0.22556
 30
0.0
 11
-0.137301
 21
0.267925
 31
0.0
  0
LINE
  5
2AC
100
AcDbEntity
  8
TRMODEL3
  6
CONTINUOUS
 62
     1
100
AcDbLine
 10
-0.181741
 20
-0.22556
 30
0.0
 11
-0.430082
 21
-0.233292
 31
0.0
  0
LINE
  5
2AD
100
AcDbEntity
  8
TRMODEL3
  6
CONTINUOUS
 62
     1
100
AcDbLine
 10
-0.181741
 20
-0.22556
 30
0.0
 11
-0.137301
 21
-0.267925
 31
0.0
  0
LINE
  5
2AE
100
AcDbEntity
  8
TRMODEL3
  6
CONTINUOUS
 62
     1
100
AcDbLine
 10
1.887402
 20
0.212067
 30
0.0
 11
2.237402
 21
0.212067
 31
0.0
  0
LINE
  5
2AF
100
AcDbEntity
  8
TRMODEL3
  6
CONTINUOUS
 62
     1
100
AcDbLine
 10
2.237402
 20
-0.212067
 30
0.0
 11
1.887402
 21
-0.212067
 31
0.0
  0
ENDSEC
  0
SECTION
  2
OBJECTS
  0
DICTIONARY
  5
19
100
AcDbDictionary
  3
ACAD_GROUP
350
1A
  3
ACAD_MLINESTYLE
350
1B
  0
DICTIONARY
  5
1A
102
{ACAD_REACTORS
330
19
102
}
100
AcDbDictionary
  0
DICTIONARY
  5
1B
102
{ACAD_REACTORS
330
19
102
}
100
AcDbDictionary
  3
STANDARD
350
1C
  0
MLINESTYLE
  5
1C
102
{ACAD_REACTORS
330
1B
102
}
100
AcDbMlineStyle
  2
STANDARD
 70
     0
  3

 62
     0
 51
90.0
 52
90.0
 71
     2
 49
0.5
 62
   256
  6
BYLAYER
 49
-0.5
 62
   256
  6
BYLAYER
  0
ENDSEC
  0
EOF
