999
DXF file: C:\Users\sesa63760\Dev\_Creo\CAD\MCADID0004681_3D-CAD\drw0001_2.dxf
999
Pro/ENGINEER 2019471 by Parametric Technology Corporation
  0
SECTION
  2
HEADER
  9
$ACADVER
  1
AC1024
  9
$DWGCODEPAGE
  3
ANSI_1252
  9
$EXTMAX
 10
23.619100083
 20
33.4041558317
 30
0.0
  9
$EXTMIN
 10
0.0
 20
0.0
 30
0.0
  9
$LIMMIN
 10
0.0
 20
0.0
  9
$LIMMAX
 10
23.619100083
 20
33.4041558317
  9
$VIEWCTR
 10
11.8095500415
 20
16.7020779159
  9
$VIEWSIZE
 40
33.4041558317
  9
$CLAYER
  8
0
  9
$LTSCALE
 40
2.1774560838
  9
$CELTYPE
  6
BYLAYER
  9
$DIMSCALE
 40
1.0
  9
$DIMASZ
 40
0.2811797629
  9
$DIMEXO
 40
1.0
  9
$DIMDLI
 40
1.5044242034
  9
$DIMEXE
 40
1.0
  9
$DIMCEN
 40
0.3563109955
  9
$DIMLFAC
 40
1.0
  9
$DIMBLK
  1
_FILLED
  9
$DIMALT
 70
0
  9
$DIMALTF
 40
0.0393700787
  9
$DIMTXT
 40
0.3936516681
  9
$DIMTOL
 70
1
  9
$DIMLIM
 70
0
  9
$DIMTFAC
 40
1.0
  9
$DIMTP
 40
0.01
  9
$DIMTM
 40
0.01
  9
$DIMGAP
 40
0.625
  9
$DIMDSEP
 70
46
  9
$AUNITS
 70
0
  9
$PDMODE
 70
3
  9
$PDSIZE
 40
0.3125
  9
$HANDSEED
  5
257
  9
$TILEMODE
 70
1
  9
$MEASUREMENT
 70
1
  9
$INSUNITS
 70
4
  0
ENDSEC
  0
SECTION
  2
CLASSES
  0
CLASS
  1
ACDBDICTIONARYWDFLT
  2
AcDbDictionaryWithDefault
  3
AutoCAD 2000
 90
0
 91
1
280
0
281
0
  0
CLASS
  1
ACDBPLACEHOLDER
  2
AcDbPlaceHolder
  3
AutoCAD 2000
 90
0
 91
1
280
0
281
0
  0
CLASS
  1
LAYOUT
  2
AcDbLayout
  3
AutoCAD 2000
 90
0
 91
0
280
0
281
0
  0
ENDSEC
  0
SECTION
  2
TABLES
  0
TABLE
  2
VPORT
  5
8
100
AcDbSymbolTable
 70
2
  0
VPORT
  5
1F4
100
AcDbSymbolTableRecord
100
AcDbViewportTableRecord
  2
*ACTIVE
 70
0
 10
0.0
 20
0.0
 11
1.0
 21
1.0
 12
11.8095500415
 22
16.7020779159
 13
0.0
 23
0.0
 14
1.0
 24
1.0
 15
0.0
 25
0.0
 16
0.0
 26
0.0
 36
1.0
 17
0.0
 27
0.0
 37
0.0
 40
33.4041558317
 41
0.7070707071
 42
50.0
 43
0.0
 44
0.0
 50
0.0
 51
0.0
 71
0
 72
100
 73
1
 74
1
 75
0
 76
0
 77
0
 78
0
  0
ENDTAB
  0
TABLE
  2
LTYPE
  5
5
100
AcDbSymbolTable
 70
6
  0
LTYPE
  5
14
100
AcDbSymbolTableRecord
100
AcDbLinetypeTableRecord
  2
BYBLOCK
 70
0
  3

 72
65
 73
0
 40
0.0
  0
LTYPE
  5
15
100
AcDbSymbolTableRecord
100
AcDbLinetypeTableRecord
  2
BYLAYER
 70
0
  3

 72
65
 73
0
 40
0.0
  0
LTYPE
  5
16
100
AcDbSymbolTableRecord
100
AcDbLinetypeTableRecord
  2
CONTINUOUS
 70
64
  3
Solid line
 72
65
 73
0
 40
0.0
  0
LTYPE
  5
1F5
100
AcDbSymbolTableRecord
100
AcDbLinetypeTableRecord
  2
CENTER
 70
64
  3
____ _ ____ _ ____ _ ____ _ ____ _ ____ _ ____
 72
65
 73
4
 40
0.6
 49
0.375
 74
0
 49
-0.075
 74
0
 49
0.075
 74
0
 49
-0.075
 74
0
  0
LTYPE
  5
1F6
100
AcDbSymbolTableRecord
100
AcDbLinetypeTableRecord
  2
HIDDEN
 70
64
  3
- - - - - - - - - - - - - - - - - - - -
 72
65
 73
2
 40
0.2
 49
0.1
 74
0
 49
-0.1
 74
0
  0
LTYPE
  5
1F7
100
AcDbSymbolTableRecord
100
AcDbLinetypeTableRecord
  2
PHANTOM
 70
64
  3
_____ _ _ _____ _ _ _____ _ _ _____
 72
65
 73
6
 40
0.8
 49
0.45
 74
0
 49
-0.05
 74
0
 49
0.1
 74
0
 49
-0.05
 74
0
 49
0.1
 74
0
 49
-0.05
 74
0
  0
LTYPE
  5
1F8
100
AcDbSymbolTableRecord
100
AcDbLinetypeTableRecord
  2
DOT
 70
64
  3
. . . . . . . . . . . . . . . . . . . .
 72
65
 73
2
 40
0.2
 49
0.1
 74
0
 49
-0.1
 74
0
  0
LTYPE
  5
1F9
100
AcDbSymbolTableRecord
100
AcDbLinetypeTableRecord
  2
DASHED
 70
64
  3
- - - - - - - - - - - - - - - - - - - -
 72
65
 73
2
 40
0.2
 49
0.1
 74
0
 49
-0.1
 74
0
  0
ENDTAB
  0
TABLE
  2
LAYER
  5
2
100
AcDbSymbolTable
 70
36
  0
LAYER
  5
10
100
AcDbSymbolTableRecord
100
AcDbLayerTableRecord
  2
0
 70
0
 62
7
  6
CONTINUOUS
370
-3
390
F
  0
LAYER
  5
1FA
100
AcDbSymbolTableRecord
100
AcDbLayerTableRecord
  2
DEFAULT_1
 70
0
 62
7
  6
CENTER
370
-3
390
F
  0
LAYER
  5
1FB
100
AcDbSymbolTableRecord
100
AcDbLayerTableRecord
  2
DEFAULT_2
 70
0
 62
7
  6
HIDDEN
370
-3
390
F
  0
LAYER
  5
1FC
100
AcDbSymbolTableRecord
100
AcDbLayerTableRecord
  2
DEFAULT_3
 70
0
 62
7
  6
PHANTOM
370
-3
390
F
  0
LAYER
  5
1FD
100
AcDbSymbolTableRecord
100
AcDbLayerTableRecord
  2
00_COMPONENTS
 70
0
 62
7
  6
CONTINUOUS
370
-3
390
F
  0
LAYER
  5
1FE
100
AcDbSymbolTableRecord
100
AcDbLayerTableRecord
  2
01_1_DEFAULT_DATUMS
 70
0
 62
7
  6
CONTINUOUS
370
-3
390
F
  0
LAYER
  5
1FF
100
AcDbSymbolTableRecord
100
AcDbLayerTableRecord
  2
01_PLANES
 70
0
 62
7
  6
CONTINUOUS
370
-3
390
F
  0
LAYER
  5
200
100
AcDbSymbolTableRecord
100
AcDbLayerTableRecord
  2
02_COORD_SYS
 70
0
 62
7
  6
CONTINUOUS
370
-3
390
F
  0
LAYER
  5
201
100
AcDbSymbolTableRecord
100
AcDbLayerTableRecord
  2
03_AXES
 70
0
 62
7
  6
CONTINUOUS
370
-3
390
F
  0
LAYER
  5
202
100
AcDbSymbolTableRecord
100
AcDbLayerTableRecord
  2
04_POINTS
 70
0
 62
7
  6
CONTINUOUS
370
-3
390
F
  0
LAYER
  5
203
100
AcDbSymbolTableRecord
100
AcDbLayerTableRecord
  2
05_CURVES
 70
0
 62
7
  6
CONTINUOUS
370
-3
390
F
  0
LAYER
  5
204
100
AcDbSymbolTableRecord
100
AcDbLayerTableRecord
  2
06_SURFS
 70
0
 62
7
  6
CONTINUOUS
370
-3
390
F
  0
LAYER
  5
205
100
AcDbSymbolTableRecord
100
AcDbLayerTableRecord
  2
07_COSMETICS
 70
0
 62
7
  6
CONTINUOUS
370
-3
390
F
  0
LAYER
  5
206
100
AcDbSymbolTableRecord
100
AcDbLayerTableRecord
  2
10_NOTES
 70
0
 62
7
  6
CONTINUOUS
370
-3
390
F
  0
LAYER
  5
207
100
AcDbSymbolTableRecord
100
AcDbLayerTableRecord
  2
11_NOTES_PUB
 70
0
 62
7
  6
CONTINUOUS
370
-3
390
F
  0
LAYER
  5
208
100
AcDbSymbolTableRecord
100
AcDbLayerTableRecord
  2
13_REF_GTOL
 70
0
 62
7
  6
CONTINUOUS
370
-3
390
F
  0
LAYER
  5
209
100
AcDbSymbolTableRecord
100
AcDbLayerTableRecord
  2
16_MISC
 70
0
 62
7
  6
CONTINUOUS
370
-3
390
F
  0
LAYER
  5
20A
100
AcDbSymbolTableRecord
100
AcDbLayerTableRecord
  2
17_NO_PRINT
 70
0
 62
7
  6
CONTINUOUS
370
-3
390
F
  0
LAYER
  5
20B
100
AcDbSymbolTableRecord
100
AcDbLayerTableRecord
  2
18_DATUM_CAMS_JOINTS
 70
0
 62
7
  6
CONTINUOUS
370
-3
390
F
  0
LAYER
  5
20C
100
AcDbSymbolTableRecord
100
AcDbLayerTableRecord
  2
19_DATUM_FUNCTIONAL
 70
0
 62
7
  6
CONTINUOUS
370
-3
390
F
  0
LAYER
  5
20D
100
AcDbSymbolTableRecord
100
AcDbLayerTableRecord
  2
20_DATUM_KINEMATIC_SCHEME
 70
0
 62
7
  6
CONTINUOUS
370
-3
390
F
  0
ENDTAB
  0
TABLE
  2
STYLE
  5
3
100
AcDbSymbolTable
 70
1
  0
STYLE
  5
11
100
AcDbSymbolTableRecord
100
AcDbTextStyleTableRecord
  2
STANDARD
 70
0
 40
0.0
 41
1.0
 50
0.0
 71
0
 42
0.2
  3
ARIAL.TTF
  4

  0
STYLE
  5
20E
100
AcDbSymbolTableRecord
100
AcDbTextStyleTableRecord
  2
TEXTSTYLE_1
 70
0
 40
0.0
 41
0.8
 50
0.0
 71
0
 42
0.2
  3
gdt
  4

  0
ENDTAB
  0
TABLE
  2
VIEW
  5
6
100
AcDbSymbolTable
 70
0
  0
ENDTAB
  0
TABLE
  2
UCS
  5
7
100
AcDbSymbolTable
 70
0
  0
ENDTAB
  0
TABLE
  2
APPID
  5
9
100
AcDbSymbolTable
 70
1
  0
APPID
  5
20F
100
AcDbSymbolTableRecord
100
AcDbRegAppTableRecord
  2
ACAD
 70
0
  0
ENDTAB
  0
TABLE
  2
BLOCK_RECORD
  5
1
100
AcDbSymbolTable
 70
0
  0
BLOCK_RECORD
  5
210
100
AcDbSymbolTableRecord
100
AcDbBlockTableRecord
  2
*Model_Space
  0
BLOCK_RECORD
  5
211
100
AcDbSymbolTableRecord
100
AcDbBlockTableRecord
  2
*Paper_Space
  0
BLOCK_RECORD
  5
212
100
AcDbSymbolTableRecord
100
AcDbBlockTableRecord
  2
_FILLED
  0
ENDTAB
  0
TABLE
  2
DIMSTYLE
  5
A
100
AcDbSymbolTable
 70
1
100
AcDbDimStyleTable
 71
0
  0
DIMSTYLE
105
213
100
AcDbSymbolTableRecord
100
AcDbDimStyleTableRecord
  2
STANDARD
 70
0
  3

  4

 40
1.0
 41
0.2811797629
 42
1.0
 43
0.38
 44
1.0
 45
0.0
 46
0.0
 47
0.01
 48
0.01
140
0.3936516681
141
0.09
142
0.0
143
25.4
144
1.0
145
0.0
146
1.0
147
0.625
 71
1
 72
0
 73
0
 74
0
 75
0
 76
0
 77
1
 78
8
 79
2
170
0
171
1
172
0
173
0
174
0
175
0
176
0
177
0
178
0
270
2
179
2
271
2
272
2
273
2
274
2
275
0
280
0
281
0
282
0
283
1
284
8
285
0
286
0
287
3
288
0
340
11
278
46
341
212
342
212
343
212
344
212
  0
ENDTAB
  0
ENDSEC
  0
SECTION
  2
BLOCKS
  0
BLOCK
  5
20
100
AcDbEntity
  8
0
100
AcDbBlockBegin
  2
*Model_Space
 70
0
 10
0.0
 20
0.0
 30
0.0
  3
*Model_Space
  1

  0
ENDBLK
  5
21
100
AcDbEntity
  8
0
100
AcDbBlockEnd
  0
BLOCK
  5
1C
100
AcDbEntity
  8
0
100
AcDbBlockBegin
  2
*Paper_Space
 70
0
 10
0.0
 20
0.0
 30
0.0
  3
*Paper_Space
  1

  0
ENDBLK
  5
1D
100
AcDbEntity
  8
0
100
AcDbBlockEnd
  0
BLOCK
  5
214
100
AcDbEntity
  8
0
100
AcDbBlockBegin
  2
_FILLED
 70
64
 10
0.0
 20
0.0
  3
_FILLED
  1

  0
SOLID
  5
215
100
AcDbEntity
  8
0
  6
BYBLOCK
 62
0
100
AcDbTrace
 10
0.0
 20
0.0
 11
-1.0
 21
0.25
 12
-1.0
 22
-0.25
 13
-1.0
 23
-0.25
  0
ENDBLK
  5
216
100
AcDbEntity
  8
0
  6
BYBLOCK
 62
0
100
AcDbBlockEnd
  0
ENDSEC
  0
SECTION
  2
ENTITIES
  0
LINE
  5
217
100
AcDbEntity
  8
0
100
AcDbLine
 62
7
  6
BYLAYER
 10
6.8156313185
 20
8.6538740137
 11
9.2363599079
 21
7.2562075484
  0
LINE
  5
218
100
AcDbEntity
  8
0
100
AcDbLine
 62
7
  6
BYLAYER
 10
3.9872551625
 20
11.4823521062
 11
2.5896759411
 21
13.9031310658
  0
LINE
  5
219
100
AcDbEntity
  8
0
100
AcDbLine
 62
7
  6
BYLAYER
 10
14.2868143042
 20
26.0241042957
 11
9.9193562411
 21
21.6568036328
  0
LINE
  5
21A
100
AcDbEntity
  8
0
100
AcDbLine
 62
7
  6
BYLAYER
 10
2.5896759411
 20
13.9031310658
 11
8.8635127571
 21
20.176741777
  0
LINE
  5
21B
100
AcDbEntity
  8
0
100
AcDbLine
 62
7
  6
BYLAYER
 10
9.7473803059
 20
19.2928423731
 11
10.8068898869
 21
20.3523137701
  0
LINE
  5
21C
100
AcDbEntity
  8
0
100
AcDbLine
 62
7
  6
BYLAYER
 10
3.8068038706
 20
11.3019073177
 11
10.4969821425
 21
17.9918444801
  0
LWPOLYLINE
  5
21D
100
AcDbEntity
  8
0
100
AcDbPolyline
 62
7
  6
BYLAYER
 90
3
 70
0
 10
14.6263291751
 20
14.4137176635
 10
14.4667051462
 20
14.4531296294
 10
13.6264544292
 20
15.0926431232
  0
LWPOLYLINE
  5
21E
100
AcDbEntity
  8
0
100
AcDbPolyline
 62
7
  6
BYLAYER
 90
3
 70
0
 10
8.8635127571
 20
20.176741777
 10
9.0715837496
 20
19.7152746882
 10
9.4179250991
 20
19.2586834248
  0
LWPOLYLINE
  5
21F
100
AcDbEntity
  8
0
100
AcDbPolyline
 62
7
  6
BYLAYER
 90
4
 70
0
 10
13.3389180139
 20
15.1769256142
 10
14.5922086533
 20
14.0842232008
 10
15.0487744379
 20
13.7378799153
 10
15.5101967239
 20
13.5298182596
  0
LWPOLYLINE
  5
220
100
AcDbEntity
  8
0
100
AcDbPolyline
 62
7
  6
BYLAYER
 90
3
 70
0
 10
13.6264544292
 20
15.0926431232
 10
12.3323993214
 20
16.2870394444
 10
11.6398430123
 20
16.979134405
  0
LWPOLYLINE
  5
221
100
AcDbEntity
  8
0
100
AcDbPolyline
 62
7
  6
BYLAYER
 90
4
 70
0
 10
11.6398430123
 20
16.979134405
 10
10.4380680168
 20
18.2792260786
 10
9.7873842901
 20
19.1321190877
 10
9.7473803059
 20
19.2928423731
  0
LINE
  5
222
100
AcDbEntity
  8
0
100
AcDbLine
 62
7
  6
BYLAYER
 10
9.4179250991
 20
19.2586834248
 11
10.5105418578
 21
18.0054037068
  0
LINE
  5
223
100
AcDbEntity
  8
0
100
AcDbLine
 62
7
  6
BYLAYER
 10
16.9902763708
 20
14.5856286631
 11
16.3756853645
 21
14.8955655552
  0
LWPOLYLINE
  5
224
100
AcDbEntity
  8
0
100
AcDbPolyline
 62
7
  6
BYLAYER
 90
3
 70
0
 10
16.3756853645
 20
14.8955655552
 10
14.9705356713
 20
16.0731454561
 10
13.1466788
 20
17.8130694864
  0
LINE
  5
225
100
AcDbEntity
  8
0
100
AcDbLine
 62
7
  6
BYLAYER
 10
13.1466788
 20
17.8130694864
 11
11.4168613729
 21
19.6258758869
  0
LWPOLYLINE
  5
226
100
AcDbEntity
  8
0
100
AcDbPolyline
 62
7
  6
BYLAYER
 90
3
 70
0
 10
11.4168613729
 20
19.6258758869
 10
10.2411509157
 20
21.0260734951
 10
9.9193765017
 20
21.6567833713
  0
LINE
  5
227
100
AcDbEntity
  8
0
100
AcDbLine
 62
7
  6
BYLAYER
 10
13.3253582986
 20
15.1633663875
 11
6.6351800267
 21
8.4734292252
  0
LINE
  5
228
100
AcDbEntity
  8
0
100
AcDbLine
 62
7
  6
BYLAYER
 10
15.6861105706
 20
15.4734608652
 11
14.6263291751
 21
14.4137176635
  0
LINE
  5
229
100
AcDbEntity
  8
0
100
AcDbLine
 62
7
  6
BYLAYER
 10
9.2363599079
 20
7.2562075484
 11
15.5101967239
 21
13.5298182596
  0
LINE
  5
22A
100
AcDbEntity
  8
0
100
AcDbLine
 62
7
  6
BYLAYER
 10
21.3577546944
 20
18.9529090645
 11
16.9902966313
 21
14.5856084016
  0
LINE
  5
22B
100
AcDbEntity
  8
0
100
AcDbLine
 62
7
  6
BYLAYER
 10
14.2868345651
 20
26.0240840344
 11
14.5967493071
 21
25.4094818585
  0
LWPOLYLINE
  5
22C
100
AcDbEntity
  8
0
100
AcDbPolyline
 62
7
  6
BYLAYER
 90
3
 70
0
 10
19.3268809199
 20
20.4504873898
 10
20.7270361546
 20
19.2747264703
 10
21.3577344336
 20
18.9529293258
  0
LINE
  5
22D
100
AcDbEntity
  8
0
100
AcDbLine
 62
7
  6
BYLAYER
 10
19.2853859296
 20
20.6290843235
 11
17.793899926
 21
22.0253145428
  0
LINE
  5
22E
100
AcDbEntity
  8
0
100
AcDbLine
 62
7
  6
BYLAYER
 10
17.5141368631
 20
22.1803701493
 11
19.2160920964
 21
20.5562120093
  0
LINE
  5
22F
100
AcDbEntity
  8
0
100
AcDbLine
 62
7
  6
BYLAYER
 10
17.793899926
 20
22.0253145428
 11
16.255819769
 21
23.6217663978
  0
LINE
  5
230
100
AcDbEntity
  8
0
100
AcDbLine
 62
7
  6
BYLAYER
 10
15.7742785657
 20
24.0042897262
 11
17.5141368631
 21
22.1803701493
  0
LINE
  5
231
100
AcDbEntity
  8
0
100
AcDbLine
 62
7
  6
BYLAYER
 10
14.5967493071
 20
25.4094818585
 11
15.7742785657
 21
24.0042897262
  0
LWPOLYLINE
  5
232
100
AcDbEntity
  8
0
100
AcDbPolyline
 62
7
  6
BYLAYER
 90
3
 70
0
 10
15.4764503891
 20
24.5310758224
 10
15.2206609243
 20
24.8543650754
 10
14.9893432756
 20
25.246837385
  0
LINE
  5
233
100
AcDbEntity
  8
0
100
AcDbLine
 62
7
  6
BYLAYER
 10
15.982665839
 20
24.0865518783
 11
15.7332516539
 21
24.2171189529
  0
LINE
  5
234
100
AcDbEntity
  8
0
100
AcDbLine
 62
7
  6
BYLAYER
 10
16.3447833276
 20
24.3613973035
 11
17.8507787683
 21
22.9515843121
  0
LINE
  5
235
100
AcDbEntity
  8
0
100
AcDbLine
 62
7
  6
BYLAYER
 10
18.1304321356
 20
22.7966432109
 11
16.4183577341
 21
24.4304579676
  0
LINE
  5
236
100
AcDbEntity
  8
0
100
AcDbLine
 62
7
  6
BYLAYER
 10
17.6665870103
 20
22.4742336102
 11
17.8080058181
 21
22.3328097056
  0
LINE
  5
237
100
AcDbEntity
  8
0
100
AcDbLine
 62
7
  6
BYLAYER
 10
17.8507787683
 20
22.9515843121
 11
19.3888589252
 21
21.3551324572
  0
LINE
  5
238
100
AcDbEntity
  8
0
100
AcDbLine
 62
7
  6
BYLAYER
 10
19.7639840663
 20
21.0841661943
 11
18.1304321356
 21
22.7966432109
  0
LINE
  5
239
100
AcDbEntity
  8
0
100
AcDbLine
 62
7
  6
BYLAYER
 10
19.3888589252
 20
21.3551324572
 11
19.9965850349
 21
20.6627609141
  0
LWPOLYLINE
  5
23A
100
AcDbEntity
  8
0
100
AcDbPolyline
 62
7
  6
BYLAYER
 90
3
 70
0
 10
19.5483151887
 20
20.4041927467
 10
19.4202299377
 20
20.6488751664
 10
19.3117665636
 20
20.783608913
  0
ARC
  5
23B
100
AcDbEntity
  8
0
100
AcDbCircle
 62
7
  6
BYLAYER
 10
45.0450951883
 20
48.9000936434
 40
38.3510970005
100
AcDbArc
 50
227.6851619334
 51
227.8866732051
  0
ARC
  5
23C
100
AcDbEntity
  8
0
100
AcDbCircle
 62
7
  6
BYLAYER
 10
34.9828230128
 20
38.4446218818
 40
23.7464871449
100
AcDbArc
 50
228.642011089
 51
228.7661928362
  0
ARC
  5
23D
100
AcDbEntity
  8
0
100
AcDbCircle
 62
7
  6
BYLAYER
 10
26.4147917366
 20
33.3599182136
 40
14.0622874466
100
AcDbArc
 50
218.7848632936
 51
220.0357310683
  0
ARC
  5
23E
100
AcDbEntity
  8
0
100
AcDbCircle
 62
7
  6
BYLAYER
 10
26.7825960199
 20
28.7188696888
 40
11.0240263347
100
AcDbArc
 50
231.2249291684
 51
231.4082819796
  0
ARC
  5
23F
100
AcDbEntity
  8
0
100
AcDbCircle
 62
7
  6
BYLAYER
 10
26.2814385236
 20
28.0903023302
 40
10.2201260839
100
AcDbArc
 50
231.406211593
 51
231.6889851843
  0
ARC
  5
240
100
AcDbEntity
  8
0
100
AcDbCircle
 62
7
  6
BYLAYER
 10
8.2285367915
 20
12.8951047244
 40
4.7
100
AcDbArc
 50
199.8146280829
 51
250.183306978
  0
SPLINE
  5
241
100
AcDbEntity
  8
0
100
AcDbSpline
 62
7
  6
BYLAYER
 70
0
 71
3
 72
16
 73
12
 74
0
 42
0.0000001
 43
0.0000001
 44
0.0000000001
 40
0.0
 40
0.0
 40
0.0
 40
0.0
 40
0.009678191
 40
0.026207748
 40
0.0846749709
 40
0.1772637018
 40
0.3007363328
 40
0.4507432417
 40
0.6218017113
 40
0.8076279699
 40
1.0
 40
1.0
 40
1.0
 40
1.0
 10
18.1923676013
 20
22.0100635971
 30
0.0
 10
18.1912131711
 20
22.0089092085
 30
0.0
 10
18.1862167309
 20
22.0083427683
 30
0.0
 10
18.1729308105
 20
22.0131482478
 30
0.0
 10
18.148410155
 20
22.0279404228
 30
0.0
 10
18.1112745204
 20
22.0553873707
 30
0.0
 10
18.0633382209
 20
22.0944405033
 30
0.0
 10
18.0067925158
 20
22.1436707779
 30
0.0
 10
17.9436290875
 20
22.2013251794
 30
0.0
 10
17.876451151
 20
22.2651378642
 30
0.0
 10
17.8309514364
 20
22.3098632604
 30
0.0
 10
17.8080058181
 20
22.3328097056
 30
0.0
  0
SPLINE
  5
242
100
AcDbEntity
  8
0
100
AcDbSpline
 62
7
  6
BYLAYER
 70
0
 71
3
 72
9
 73
5
 74
0
 42
0.0000001
 43
0.0000001
 44
0.0000000001
 40
0.0
 40
0.0
 40
0.0
 40
0.0
 40
0.2317757653
 40
1.0
 40
1.0
 40
1.0
 40
1.0
 10
19.326148693
 20
20.7709797447
 30
0.0
 10
19.3103164581
 20
20.7910089908
 30
0.0
 10
19.2415416621
 20
20.8770567216
 30
0.0
 10
19.1711116398
 20
20.9617733749
 30
0.0
 10
19.1163825431
 20
21.0263159218
 30
0.0
  0
SPLINE
  5
243
100
AcDbEntity
  8
0
100
AcDbSpline
 62
7
  6
BYLAYER
 70
0
 71
3
 72
9
 73
5
 74
0
 42
0.0000001
 43
0.0000001
 44
0.0000000001
 40
0.0
 40
0.0
 40
0.0
 40
0.0
 40
0.4643628168
 40
1.0
 40
1.0
 40
1.0
 40
1.0
 10
19.1163825431
 20
21.0263159218
 30
0.0
 10
18.9811803156
 20
21.1857612014
 30
0.0
 10
18.6820520253
 20
21.5223571075
 30
0.0
 10
18.3735550255
 20
21.8502901349
 30
0.0
 10
18.2062894805
 20
22.0239849746
 30
0.0
  0
SPLINE
  5
244
100
AcDbEntity
  8
0
100
AcDbSpline
 62
7
  6
BYLAYER
 70
0
 71
3
 72
11
 73
7
 74
0
 42
0.0000001
 43
0.0000001
 44
0.0000000001
 40
0.0
 40
0.0
 40
0.0
 40
0.0
 40
0.299113309
 40
0.572834801
 40
0.8095408082
 40
1.0
 40
1.0
 40
1.0
 40
1.0
 10
17.3577766336
 20
22.8725284023
 30
0.0
 10
17.2259784383
 20
22.9994572578
 30
0.0
 10
16.9713897571
 20
23.2402883608
 30
0.0
 10
16.6046816713
 20
23.5731958892
 30
0.0
 10
16.2798506802
 20
23.8531100339
 30
0.0
 10
16.0759663313
 20
24.016766353
 30
0.0
 10
15.982665839
 20
24.0865518783
 30
0.0
  0
SPLINE
  5
245
100
AcDbEntity
  8
0
100
AcDbSpline
 62
7
  6
BYLAYER
 70
0
 71
3
 72
16
 73
12
 74
0
 42
0.0000001
 43
0.0000001
 44
0.0000000001
 40
0.0
 40
0.0
 40
0.0
 40
0.0
 40
0.1923720301
 40
0.3781982887
 40
0.5492567583
 40
0.6992636672
 40
0.8227362982
 40
0.9153250291
 40
0.973792252
 40
0.990321809
 40
1.0
 40
1.0
 40
1.0
 40
1.0
 10
17.6665870103
 20
22.4742336102
 30
0.0
 10
17.6436413921
 20
22.4971800554
 30
0.0
 10
17.5989176357
 20
22.5426813819
 30
0.0
 10
17.5351073721
 20
22.6098616182
 30
0.0
 10
17.4774552471
 20
22.6730271243
 30
0.0
 10
17.4282270104
 20
22.7295746036
 30
0.0
 10
17.3891756054
 20
22.7775123106
 30
0.0
 10
17.3617299959
 20
22.8146489344
 30
0.0
 10
17.3469387047
 20
22.8391701229
 30
0.0
 10
17.342133704
 20
22.8524562166
 30
0.0
 10
17.3427003243
 20
22.8574526363
 30
0.0
 10
17.3438547545
 20
22.8586070249
 30
0.0
  0
SPLINE
  5
246
100
AcDbEntity
  8
0
100
AcDbSpline
 62
7
  6
BYLAYER
 70
0
 71
3
 72
10
 73
6
 74
0
 42
0.0000001
 43
0.0000001
 44
0.0000000001
 40
0.0
 40
0.0
 40
0.0
 40
0.0
 40
0.6883565383
 40
0.8841321286
 40
1.0
 40
1.0
 40
1.0
 40
1.0
 10
18.4410067362
 20
21.4195153697
 30
0.0
 10
18.4349216072
 20
21.4289896161
 30
0.0
 10
18.4273899693
 20
21.4416326925
 30
0.0
 10
18.4220492564
 20
21.4569222084
 30
0.0
 10
18.4227737803
 20
21.462658029
 30
0.0
 10
18.4241140282
 20
21.4639982287
 30
0.0
  0
SPLINE
  5
247
100
AcDbEntity
  8
0
100
AcDbSpline
 62
7
  6
BYLAYER
 70
0
 71
3
 72
12
 73
8
 74
0
 42
0.0000001
 43
0.0000001
 44
0.0000000001
 40
0.0
 40
0.0
 40
0.0
 40
0.0
 40
0.111656223
 40
0.1972991714
 40
0.3070244616
 40
0.602231935
 40
1.0
 40
1.0
 40
1.0
 40
1.0
 10
16.7977977385
 20
23.0903731319
 30
0.0
 10
16.7963400803
 20
23.0889155262
 30
0.0
 10
16.7921153448
 20
23.0885297748
 30
0.0
 10
16.7867210034
 20
23.0897875431
 30
0.0
 10
16.7781269675
 20
23.0928887975
 30
0.0
 10
16.7650206363
 20
23.0998172623
 30
0.0
 10
16.7541789103
 20
23.1066376675
 30
0.0
 10
16.7480610681
 20
23.11069977
 30
0.0
  0
SPLINE
  5
248
100
AcDbEntity
  8
0
100
AcDbSpline
 62
7
  6
BYLAYER
 70
0
 71
3
 72
22
 73
18
 74
0
 42
0.0000001
 43
0.0000001
 44
0.0000000001
 40
0.0
 40
0.0
 40
0.0
 40
0.0
 40
0.0055607243
 40
0.011863554
 40
0.0194281206
 40
0.0285551056
 40
0.0520702233
 40
0.083088783
 40
0.1217918912
 40
0.168125446
 40
0.2219574717
 40
0.2831237218
 40
0.3514006711
 40
0.4264814189
 40
0.5957613375
 40
0.7880967926
 40
1.0
 40
1.0
 40
1.0
 40
1.0
 10
21.3577340645
 20
18.9529296949
 30
0.0
 10
21.3612424204
 20
18.9564396623
 30
0.0
 10
21.3672078917
 20
18.9655417404
 30
0.0
 10
21.3712803005
 20
18.9826290015
 30
0.0
 10
21.3712560574
 20
19.0032750982
 30
0.0
 10
21.3654335396
 20
19.0387860626
 30
0.0
 10
21.3466376746
 20
19.0927318802
 30
0.0
 10
21.3106980214
 20
19.1678290506
 30
0.0
 10
21.2593113115
 20
19.2578493549
 30
0.0
 10
21.1927226136
 20
19.3624053506
 30
0.0
 10
21.1111036405
 20
19.4810492543
 30
0.0
 10
21.0147628071
 20
19.6132491508
 30
0.0
 10
20.9040926013
 20
19.7584150618
 30
0.0
 10
20.7310427051
 20
19.9772977081
 30
0.0
 10
20.4824206253
 20
20.2774918983
 30
0.0
 10
20.1474440105
 20
20.6645301786
 30
0.0
 10
19.9066038738
 20
20.9331590655
 30
0.0
 10
19.7793489811
 20
21.0730534576
 30
0.0
  0
SPLINE
  5
249
100
AcDbEntity
  8
0
100
AcDbSpline
 62
7
  6
BYLAYER
 70
0
 71
3
 72
13
 73
9
 74
0
 42
0.0000001
 43
0.0000001
 44
0.0000000001
 40
0.0
 40
0.0
 40
0.0
 40
0.0
 40
0.0641611385
 40
0.145738151
 40
0.2450235494
 40
0.3620414949
 40
0.6479805334
 40
1.0
 40
1.0
 40
1.0
 40
1.0
 10
20.580657367
 20
19.6553209637
 30
0.0
 10
20.5649500349
 20
19.6596500022
 30
0.0
 10
20.5302094545
 20
19.6727853721
 30
0.0
 10
20.4743145585
 20
19.700194457
 30
0.0
 10
20.40860208
 20
19.7377497002
 30
0.0
 10
20.3008245718
 20
19.8059910431
 30
0.0
 10
20.1442734528
 20
19.9168432041
 30
0.0
 10
20.0158193166
 20
20.0155916733
 30
0.0
 10
19.9456768895
 20
20.0710067448
 30
0.0
  0
SPLINE
  5
24A
100
AcDbEntity
  8
0
100
AcDbSpline
 62
7
  6
BYLAYER
 70
0
 71
3
 72
9
 73
5
 74
0
 42
0.0000001
 43
0.0000001
 44
0.0000000001
 40
0.0
 40
0.0
 40
0.0
 40
0.0
 40
0.2270871154
 40
1.0
 40
1.0
 40
1.0
 40
1.0
 10
19.8786378584
 20
20.1244227413
 30
0.0
 10
19.8363325071
 20
20.1584058054
 30
0.0
 10
19.6511148945
 20
20.309395284
 30
0.0
 10
19.4696172882
 20
20.4649068726
 30
0.0
 10
19.330722457
 20
20.5866432752
 30
0.0
  0
SPLINE
  5
24B
100
AcDbEntity
  8
0
100
AcDbSpline
 62
7
  6
BYLAYER
 70
0
 71
3
 72
9
 73
5
 74
0
 42
0.0000001
 43
0.0000001
 44
0.0000000001
 40
0.0
 40
0.0
 40
0.0
 40
0.0
 40
0.5270315285
 40
1.0
 40
1.0
 40
1.0
 40
1.0
 10
16.255819769
 20
23.6217663978
 30
0.0
 10
16.1469186461
 20
23.7415006403
 30
0.0
 10
15.9420403276
 20
23.9702891731
 30
0.0
 10
15.7414925454
 20
24.2029007749
 30
0.0
 10
15.6480936594
 20
24.3141379408
 30
0.0
  0
SPLINE
  5
24C
100
AcDbEntity
  8
0
100
AcDbSpline
 62
7
  6
BYLAYER
 70
0
 71
3
 72
22
 73
18
 74
0
 42
0.0000001
 43
0.0000001
 44
0.0000000001
 40
0.0
 40
0.0
 40
0.0
 40
0.0
 40
0.2118859297
 40
0.4042133708
 40
0.5734920353
 40
0.6485768333
 40
0.7168566091
 40
0.7780250821
 40
0.8318639266
 40
0.8782045881
 40
0.9169104721
 40
0.9479292721
 40
0.9714471942
 40
0.9805751057
 40
0.9881395985
 40
0.9944411535
 40
1.0
 40
1.0
 40
1.0
 40
1.0
 10
16.4083412638
 20
24.4443129285
 30
0.0
 10
16.2683672815
 20
24.5716619449
 30
0.0
 10
15.9995806192
 20
24.8126855958
 30
0.0
 10
15.6123094253
 20
25.1479261745
 30
0.0
 10
15.3119227511
 20
25.3967532257
 30
0.0
 10
15.0928957106
 20
25.5699560035
 30
0.0
 10
14.9476295528
 20
25.680727288
 30
0.0
 10
14.8153344428
 20
25.777157579
 30
0.0
 10
14.6966032269
 20
25.858859936
 30
0.0
 10
14.5919689755
 20
25.9255213879
 30
0.0
 10
14.5018831756
 20
25.9769640103
 30
0.0
 10
14.4267309724
 20
26.0129408944
 30
0.0
 10
14.3727476169
 20
26.0317648117
 30
0.0
 10
14.3372095719
 20
26.0376039869
 30
0.0
 10
14.3165488737
 20
26.0376355647
 30
0.0
 10
14.299450513
 20
26.0335653202
 30
0.0
 10
14.2903446579
 20
26.0275950012
 30
0.0
 10
14.2868349341
 20
26.0240836653
 30
0.0
  0
SPLINE
  5
24D
100
AcDbEntity
  8
0
100
AcDbSpline
 62
7
  6
BYLAYER
 70
0
 71
3
 72
19
 73
15
 74
0
 42
0.0000001
 43
0.0000001
 44
0.0000000001
 40
0.0
 40
0.0
 40
0.0
 40
0.0
 40
0.2175662373
 40
0.4100367502
 40
0.5761012545
 40
0.7147380391
 40
0.7735984686
 40
0.825427006
 40
0.8702231515
 40
0.9080727731
 40
0.9392105993
 40
0.9641016886
 40
0.9837054616
 40
1.0
 40
1.0
 40
1.0
 40
1.0
 10
9.7815008277
 20
19.6223368358
 30
0.0
 10
9.7196072653
 20
19.6721543152
 30
0.0
 10
9.6021396182
 20
19.7650332755
 30
0.0
 10
9.4341772324
 20
19.8917619102
 30
0.0
 10
9.2860521087
 20
19.9967991581
 30
0.0
 10
9.174701498
 20
20.0692270861
 30
0.0
 10
9.0960773062
 20
20.1151788182
 30
0.0
 10
9.0459503127
 20
20.1418887289
 30
0.0
 10
9.001459532
 20
20.1627457026
 30
0.0
 10
8.9626568713
 20
20.1777305729
 30
0.0
 10
8.9295360904
 20
20.1868999418
 30
0.0
 10
8.9019796526
 20
20.1902497249
 30
0.0
 10
8.8795858382
 20
20.1877159436
 30
0.0
 10
8.8677204819
 20
20.1809493502
 30
0.0
 10
8.8635127571
 20
20.176741777
 30
0.0
  0
SPLINE
  5
24E
100
AcDbEntity
  8
0
100
AcDbSpline
 62
7
  6
BYLAYER
 70
0
 71
3
 72
19
 73
15
 74
0
 42
0.0000001
 43
0.0000001
 44
0.0000000001
 40
0.0
 40
0.0
 40
0.0
 40
0.0
 40
0.0162941301
 40
0.0358975997
 40
0.0607885016
 40
0.0919262343
 40
0.1297758345
 40
0.1745720164
 40
0.2264006398
 40
0.2852611902
 40
0.4238982656
 40
0.589963049
 40
0.7824337572
 40
1.0
 40
1.0
 40
1.0
 40
1.0
 10
15.5101967239
 20
13.5298182596
 30
0.0
 10
15.5144045911
 20
13.5340259752
 30
0.0
 10
15.5211717722
 20
13.5458916456
 30
0.0
 10
15.5237060722
 20
13.5682864053
 30
0.0
 10
15.5203566652
 20
13.5958443145
 30
0.0
 10
15.511187509
 20
13.6289671381
 30
0.0
 10
15.4962026924
 20
13.6677724129
 30
0.0
 10
15.475345605
 20
13.7122663768
 30
0.0
 10
15.4486354113
 20
13.7623971104
 30
0.0
 10
15.4026830479
 20
13.8410273566
 30
0.0
 10
15.3302539254
 20
13.952386822
 30
0.0
 10
15.2252147528
 20
14.1005240355
 30
0.0
 10
15.0984836837
 20
14.26850033
 30
0.0
 10
15.0056028611
 20
14.3859778434
 30
0.0
 10
14.9557843819
 20
14.4478766119
 30
0.0
  0
SPLINE
  5
24F
100
AcDbEntity
  8
0
100
AcDbSpline
 62
7
  6
BYLAYER
 70
0
 71
3
 72
23
 73
19
 74
0
 42
0.0000001
 43
0.0000001
 44
0.0000000001
 40
0.0
 40
0.0
 40
0.0
 40
0.0
 40
0.2416875285
 40
0.451157791
 40
0.5427322711
 40
0.6250269178
 40
0.697862086
 40
0.7611104099
 40
0.8146837821
 40
0.858570357
 40
0.8929625026
 40
0.9185234513
 40
0.937007058
 40
0.944955306
 40
0.9530644724
 40
0.9621417388
 40
0.9727794906
 40
1.0
 40
1.0
 40
1.0
 40
1.0
 10
19.9965850349
 20
20.6627609141
 30
0.0
 10
20.0635242173
 20
20.5830369982
 30
0.0
 10
20.1870722645
 20
20.4330258581
 30
0.0
 10
20.3311260547
 20
20.2488680405
 30
0.0
 10
20.4292234479
 20
20.1160433802
 30
0.0
 10
20.4904460224
 20
20.0291793851
 30
0.0
 10
20.5425109342
 20
19.9508254658
 30
0.0
 10
20.585305135
 20
19.8812178441
 30
0.0
 10
20.618723777
 20
19.8205552714
 30
0.0
 10
20.6427712659
 20
19.7690507155
 30
0.0
 10
20.6573667778
 20
19.7266066432
 30
0.0
 10
20.6630189711
 20
19.6931556999
 30
0.0
 10
20.6590511494
 20
19.6700458979
 30
0.0
 10
20.6495865669
 20
19.6581613656
 30
0.0
 10
20.6401707416
 20
19.6524358906
 30
0.0
 10
20.6284325291
 20
19.6494348322
 30
0.0
 10
20.6081237357
 20
19.6487873852
 30
0.0
 10
20.5919603703
 20
19.6522057856
 30
0.0
 10
20.580657367
 20
19.6553209637
 30
0.0
  0
SPLINE
  5
250
100
AcDbEntity
  8
0
100
AcDbSpline
 62
7
  6
BYLAYER
 70
0
 71
3
 72
24
 73
20
 74
0
 42
0.0000001
 43
0.0000001
 44
0.0000000001
 40
0.0
 40
0.0
 40
0.0
 40
0.0
 40
0.0043454041
 40
0.0113804453
 40
0.0218102698
 40
0.0357720228
 40
0.0532695891
 40
0.0742526596
 40
0.1260133505
 40
0.1894734811
 40
0.2628724463
 40
0.3439542738
 40
0.4302690194
 40
0.6081678207
 40
0.7750655021
 40
0.8480456138
 40
0.9110024971
 40
0.9621827019
 40
1.0
 40
1.0
 40
1.0
 40
1.0
 10
18.4241140282
 20
21.4639982287
 30
0.0
 10
18.4253169056
 20
21.4652010627
 30
0.0
 10
18.4302275827
 20
21.466096413
 30
0.0
 10
18.4383658343
 20
21.4636364576
 30
0.0
 10
18.4496428992
 20
21.4585727273
 30
0.0
 10
18.4638168264
 20
21.4503154636
 30
0.0
 10
18.4809823713
 20
21.439037168
 30
0.0
 10
18.5096732703
 20
21.4184156306
 30
0.0
 10
18.5515607126
 20
21.385389399
 30
0.0
 10
18.607988963
 20
21.3377548684
 30
0.0
 10
18.6717795105
 20
21.2810878102
 30
0.0
 10
18.7410282097
 20
21.2171249388
 30
0.0
 10
18.8387528224
 20
21.1237275588
 30
0.0
 10
18.9580498713
 20
21.0043175446
 30
0.0
 10
19.0701935541
 20
20.8852230788
 30
0.0
 10
19.1488373892
 20
20.7965048018
 30
0.0
 10
19.196031981
 20
20.7404623177
 30
0.0
 10
19.232734031
 20
20.6936482721
 30
0.0
 10
19.2527730898
 20
20.6650790799
 30
0.0
 10
19.2604328721
 20
20.6524103782
 30
0.0
  0
SPLINE
  5
251
100
AcDbEntity
  8
0
100
AcDbSpline
 62
7
  6
BYLAYER
 70
0
 71
3
 72
23
 73
19
 74
0
 42
0.0000001
 43
0.0000001
 44
0.0000000001
 40
0.0
 40
0.0
 40
0.0
 40
0.0
 40
0.0283190103
 40
0.0394999866
 40
0.0490846588
 40
0.0576041575
 40
0.0658052697
 40
0.0843150932
 40
0.1095826618
 40
0.1435523853
 40
0.1869184924
 40
0.2399327865
 40
0.3026685625
 40
0.3750843953
 40
0.4569915658
 40
0.5481542826
 40
0.7572237463
 40
1.0
 40
1.0
 40
1.0
 40
1.0
 10
14.9893173444
 20
25.2468626344
 30
0.0
 10
14.9863090477
 20
25.257829643
 30
0.0
 10
14.9830020915
 20
25.2735365179
 30
0.0
 10
14.983374618
 20
25.29333099
 30
0.0
 10
14.9859709681
 20
25.3049129704
 30
0.0
 10
14.991051692
 20
25.3143590547
 30
0.0
 10
15.0016703161
 20
25.3241405279
 30
0.0
 10
15.0229861212
 20
25.3292713899
 30
0.0
 10
15.054137481
 20
25.3251201434
 30
0.0
 10
15.0935607651
 20
25.312674373
 30
0.0
 10
15.1414610008
 20
25.291413714
 30
0.0
 10
15.197920772
 20
25.2614186093
 30
0.0
 10
15.2627891997
 20
25.2226210275
 30
0.0
 10
15.3358831944
 20
25.1751070553
 30
0.0
 10
15.4169698233
 20
25.1190257634
 30
0.0
 10
15.5411541687
 20
25.028857295
 30
0.0
 10
15.7138574621
 20
24.8956629316
 30
0.0
 10
15.8545760388
 20
24.7810874981
 30
0.0
 10
15.9295856848
 20
24.7188117428
 30
0.0
  0
SPLINE
  5
252
100
AcDbEntity
  8
0
100
AcDbSpline
 62
7
  6
BYLAYER
 70
0
 71
3
 72
9
 73
5
 74
0
 42
0.0000001
 43
0.0000001
 44
0.0000000001
 40
0.0
 40
0.0
 40
0.0
 40
0.0
 40
0.2349411203
 40
1.0
 40
1.0
 40
1.0
 40
1.0
 10
15.9295856848
 20
24.7188117428
 30
0.0
 10
15.9621555902
 20
24.6917710145
 30
0.0
 10
16.1002961394
 20
24.5760858546
 30
0.0
 10
16.2366365164
 20
24.4582600227
 30
0.0
 10
16.3401690892
 20
24.3672465298
 30
0.0
  0
SPLINE
  5
253
100
AcDbEntity
  8
0
100
AcDbSpline
 62
7
  6
BYLAYER
 70
0
 71
3
 72
11
 73
7
 74
0
 42
0.0000001
 43
0.0000001
 44
0.0000000001
 40
0.0
 40
0.0
 40
0.0
 40
0.0
 40
0.2444176216
 40
0.5
 40
0.7555823784
 40
1.0
 40
1.0
 40
1.0
 40
1.0
 10
10.4969821425
 20
17.9918444801
 30
0.0
 10
10.7183178761
 20
17.7525508626
 30
0.0
 10
11.1765938945
 20
17.2680981543
 30
0.0
 10
11.8827009139
 20
16.5491371532
 30
0.0
 10
12.6016364664
 20
15.843004223
 30
0.0
 10
13.0860726582
 20
15.3847107451
 30
0.0
 10
13.3253582986
 20
15.1633663875
 30
0.0
  0
SPLINE
  5
254
100
AcDbEntity
  8
0
100
AcDbSpline
 62
7
  6
BYLAYER
 70
0
 71
3
 72
24
 73
20
 74
0
 42
0.0000001
 43
0.0000001
 44
0.0000000001
 40
0.0
 40
0.0
 40
0.0
 40
0.0
 40
0.0390634218
 40
0.0912219655
 40
0.1548986266
 40
0.2283500748
 40
0.3954519376
 40
0.5727925054
 40
0.6586413289
 40
0.739204156
 40
0.8120641353
 40
0.8750261628
 40
0.9263610321
 40
0.9471622747
 40
0.9645067109
 40
0.9783478175
 40
0.9886907776
 40
0.9956739092
 40
1.0
 40
1.0
 40
1.0
 40
1.0
 10
15.9894663636
 20
23.9247430668
 30
0.0
 10
16.0024099391
 20
23.9166925415
 30
0.0
 10
16.031454888
 20
23.8960296909
 30
0.0
 10
16.0788815506
 20
23.8585554415
 30
0.0
 10
16.1352726505
 20
23.8108294765
 30
0.0
 10
16.2239745665
 20
23.731921791
 30
0.0
 10
16.3425942062
 20
23.6199774004
 30
0.0
 10
16.4612934755
 20
23.5011903467
 30
0.0
 10
16.5538941904
 20
23.4041392497
 30
0.0
 10
16.6171959656
 20
23.3355025163
 30
0.0
 10
16.6732256644
 20
23.2723253101
 30
0.0
 10
16.720289129
 20
23.216473159
 30
0.0
 10
16.7529017169
 20
23.1750276833
 30
0.0
 10
16.7732477639
 20
23.1466442937
 30
0.0
 10
16.7843673468
 20
23.1296665707
 30
0.0
 10
16.7925029576
 20
23.1156450384
 30
0.0
 10
16.7974854928
 20
23.1044879492
 30
0.0
 10
16.7998958315
 20
23.0964236218
 30
0.0
 10
16.7989914154
 20
23.0915667658
 30
0.0
 10
16.7977977385
 20
23.0903731319
 30
0.0
  0
ENDSEC
  0
SECTION
  2
OBJECTS
  0
DICTIONARY
  5
C
100
AcDbDictionary
280
0
281
1
  3
ACAD_GROUP
350
D
  3
ACAD_MLINESTYLE
350
17
  3
ACAD_LAYOUT
350
1A
  3
ACAD_PLOTSETTINGS
350
19
  3
ACAD_PLOTSTYLENAME
350
E
  0
DICTIONARY
  5
D
102
{ACAD_REACTORS
330
C
102
}
100
AcDbDictionary
280
0
281
1
  0
ACDBDICTIONARYWDFLT
  5
E
102
{ACAD_REACTORS
330
C
102
}
100
AcDbDictionary
281
1
  3
Normal
350
F
100
AcDbDictionaryWithDefault
340
F
  0
DICTIONARY
  5
17
102
{ACAD_REACTORS
330
C
102
}
100
AcDbDictionary
280
0
281
1
  3
Standard
350
18
  0
DICTIONARY
  5
19
102
{ACAD_REACTORS
330
C
102
}
100
AcDbDictionary
281
1
  0
DICTIONARY
  5
1A
102
{ACAD_REACTORS
330
C
102
}
100
AcDbDictionary
281
1
  3
Model
350
255
  3
Layout1
350
256
  0
ACDBPLACEHOLDER
  5
F
102
{ACAD_REACTORS
330
E
102
}
  0
MLINESTYLE
  5
18
102
{ACAD_REACTORS
330
17
102
}
100
AcDbMlineStyle
  2
STANDARD
 70
0
  3

 62
256
 51
90.0
 52
90.0
 71
2
 49
0.5
 62
256
  6
BYLAYER
 49
-0.5
 62
256
  6
BYLAYER
  0
LAYOUT
  5
255
102
{ACAD_REACTORS
330
1A
102
}
100
AcDbPlotSettings
  1

  2
none_device
  4

  6

 40
0.0
 41
0.0
 42
0.0
 43
0.0
 44
210.0
 45
297.0
 46
0.0
 47
0.0
 48
0.0
 49
0.0
140
0.0
141
0.0
142
1.0
143
1.0
 70
1024
 72
1
 73
0
 74
0
  7

 75
0
147
1.0
148
0.0
149
0.0
100
AcDbLayout
  1
Model
 70
0
 71
0
 10
0.0
 20
0.0
 11
210.0
 21
297.0
 12
0.0
 22
0.0
 32
0.0
 14
0.0
 24
0.0
 34
0.0
 15
0.0
 25
0.0
 35
0.0
146
0.0
 13
0.0
 23
0.0
 33
0.0
 16
1.0
 26
0.0
 36
0.0
 17
0.0
 27
1.0
 37
0.0
 76
0
330
210
345
0
346
0
  0
LAYOUT
  5
256
102
{ACAD_REACTORS
330
1A
102
}
100
AcDbPlotSettings
  1

  2
none_device
  4

  6

 40
0.0
 41
0.0
 42
0.0
 43
0.0
 44
210.0
 45
297.0
 46
0.0
 47
0.0
 48
0.0
 49
0.0
140
0.0
141
0.0
142
1.0
143
1.0
 70
0
 72
1
 73
0
 74
0
  7

 75
0
147
1.0
148
0.0
149
0.0
100
AcDbLayout
  1
Layout1
 70
0
 71
1
 10
0.0
 20
0.0
 11
210.0
 21
297.0
 12
0.0
 22
0.0
 32
0.0
 14
0.0
 24
0.0
 34
0.0
 15
0.0
 25
0.0
 35
0.0
146
0.0
 13
0.0
 23
0.0
 33
0.0
 16
1.0
 26
0.0
 36
0.0
 17
0.0
 27
1.0
 37
0.0
 76
0
330
211
345
0
346
0
  0
ENDSEC
  0
EOF
