999
DXF file: C:\Users\sesa63760\Dev\_Creo\CAD\MCADID0004591_3D-CAD\drw0001_4.dxf
999
Pro/ENGINEER 2019471 by Parametric Technology Corporation
  0
SECTION
  2
HEADER
  9
$ACADVER
  1
AC1024
  9
$DWGCODEPAGE
  3
ANSI_1252
  9
$EXTMAX
 10
245.2511777255
 20
346.855237069
 30
0.0
  9
$EXTMIN
 10
0.0
 20
0.0
 30
0.0
  9
$LIMMIN
 10
0.0
 20
0.0
  9
$LIMMAX
 10
245.2511777255
 20
346.855237069
  9
$VIEWCTR
 10
122.6255888628
 20
173.4276185345
  9
$VIEWSIZE
 40
346.855237069
  9
$CLAYER
  8
0
  9
$LTSCALE
 40
22.6098228608
  9
$CELTYPE
  6
BYLAYER
  9
$DIMSCALE
 40
1.0
  9
$DIMASZ
 40
2.9196568777
  9
$DIMEXO
 40
1.0
  9
$DIMDLI
 40
15.6213321584
  9
$DIMEXE
 40
1.0
  9
$DIMCEN
 40
3.6997891954
  9
$DIMLFAC
 40
1.0
  9
$DIMBLK
  1
_FILLED
  9
$DIMALT
 70
0
  9
$DIMALTF
 40
0.0393700787
  9
$DIMTXT
 40
4.0875196288
  9
$DIMTOL
 70
1
  9
$DIMLIM
 70
0
  9
$DIMTFAC
 40
1.0
  9
$DIMTP
 40
0.01
  9
$DIMTM
 40
0.01
  9
$DIMGAP
 40
0.625
  9
$DIMDSEP
 70
46
  9
$AUNITS
 70
0
  9
$PDMODE
 70
3
  9
$PDSIZE
 40
0.3125
  9
$HANDSEED
  5
307
  9
$TILEMODE
 70
1
  9
$MEASUREMENT
 70
1
  9
$INSUNITS
 70
4
  0
ENDSEC
  0
SECTION
  2
CLASSES
  0
CLASS
  1
ACDBDICTIONARYWDFLT
  2
AcDbDictionaryWithDefault
  3
AutoCAD 2000
 90
0
 91
1
280
0
281
0
  0
CLASS
  1
ACDBPLACEHOLDER
  2
AcDbPlaceHolder
  3
AutoCAD 2000
 90
0
 91
1
280
0
281
0
  0
CLASS
  1
LAYOUT
  2
AcDbLayout
  3
AutoCAD 2000
 90
0
 91
0
280
0
281
0
  0
ENDSEC
  0
SECTION
  2
TABLES
  0
TABLE
  2
VPORT
  5
8
100
AcDbSymbolTable
 70
2
  0
VPORT
  5
1F4
100
AcDbSymbolTableRecord
100
AcDbViewportTableRecord
  2
*ACTIVE
 70
0
 10
0.0
 20
0.0
 11
1.0
 21
1.0
 12
122.6255888628
 22
173.4276185345
 13
0.0
 23
0.0
 14
1.0
 24
1.0
 15
0.0
 25
0.0
 16
0.0
 26
0.0
 36
1.0
 17
0.0
 27
0.0
 37
0.0
 40
346.855237069
 41
0.7070707071
 42
50.0
 43
0.0
 44
0.0
 50
0.0
 51
0.0
 71
0
 72
100
 73
1
 74
1
 75
0
 76
0
 77
0
 78
0
  0
ENDTAB
  0
TABLE
  2
LTYPE
  5
5
100
AcDbSymbolTable
 70
6
  0
LTYPE
  5
14
100
AcDbSymbolTableRecord
100
AcDbLinetypeTableRecord
  2
BYBLOCK
 70
0
  3

 72
65
 73
0
 40
0.0
  0
LTYPE
  5
15
100
AcDbSymbolTableRecord
100
AcDbLinetypeTableRecord
  2
BYLAYER
 70
0
  3

 72
65
 73
0
 40
0.0
  0
LTYPE
  5
16
100
AcDbSymbolTableRecord
100
AcDbLinetypeTableRecord
  2
CONTINUOUS
 70
64
  3
Solid line
 72
65
 73
0
 40
0.0
  0
LTYPE
  5
1F5
100
AcDbSymbolTableRecord
100
AcDbLinetypeTableRecord
  2
CENTER
 70
64
  3
____ _ ____ _ ____ _ ____ _ ____ _ ____ _ ____
 72
65
 73
4
 40
0.6
 49
0.375
 74
0
 49
-0.075
 74
0
 49
0.075
 74
0
 49
-0.075
 74
0
  0
LTYPE
  5
1F6
100
AcDbSymbolTableRecord
100
AcDbLinetypeTableRecord
  2
HIDDEN
 70
64
  3
- - - - - - - - - - - - - - - - - - - -
 72
65
 73
2
 40
0.2
 49
0.1
 74
0
 49
-0.1
 74
0
  0
LTYPE
  5
1F7
100
AcDbSymbolTableRecord
100
AcDbLinetypeTableRecord
  2
PHANTOM
 70
64
  3
_____ _ _ _____ _ _ _____ _ _ _____
 72
65
 73
6
 40
0.8
 49
0.45
 74
0
 49
-0.05
 74
0
 49
0.1
 74
0
 49
-0.05
 74
0
 49
0.1
 74
0
 49
-0.05
 74
0
  0
LTYPE
  5
1F8
100
AcDbSymbolTableRecord
100
AcDbLinetypeTableRecord
  2
DOT
 70
64
  3
. . . . . . . . . . . . . . . . . . . .
 72
65
 73
2
 40
0.2
 49
0.1
 74
0
 49
-0.1
 74
0
  0
LTYPE
  5
1F9
100
AcDbSymbolTableRecord
100
AcDbLinetypeTableRecord
  2
DASHED
 70
64
  3
- - - - - - - - - - - - - - - - - - - -
 72
65
 73
2
 40
0.2
 49
0.1
 74
0
 49
-0.1
 74
0
  0
ENDTAB
  0
TABLE
  2
LAYER
  5
2
100
AcDbSymbolTable
 70
36
  0
LAYER
  5
10
100
AcDbSymbolTableRecord
100
AcDbLayerTableRecord
  2
0
 70
0
 62
7
  6
CONTINUOUS
370
-3
390
F
  0
LAYER
  5
1FA
100
AcDbSymbolTableRecord
100
AcDbLayerTableRecord
  2
DEFAULT_1
 70
0
 62
7
  6
CENTER
370
-3
390
F
  0
LAYER
  5
1FB
100
AcDbSymbolTableRecord
100
AcDbLayerTableRecord
  2
DEFAULT_2
 70
0
 62
7
  6
HIDDEN
370
-3
390
F
  0
LAYER
  5
1FC
100
AcDbSymbolTableRecord
100
AcDbLayerTableRecord
  2
DEFAULT_3
 70
0
 62
7
  6
PHANTOM
370
-3
390
F
  0
LAYER
  5
1FD
100
AcDbSymbolTableRecord
100
AcDbLayerTableRecord
  2
00_COMPONENTS
 70
0
 62
7
  6
CONTINUOUS
370
-3
390
F
  0
LAYER
  5
1FE
100
AcDbSymbolTableRecord
100
AcDbLayerTableRecord
  2
01_1_DEFAULT_DATUMS
 70
0
 62
7
  6
CONTINUOUS
370
-3
390
F
  0
LAYER
  5
1FF
100
AcDbSymbolTableRecord
100
AcDbLayerTableRecord
  2
01_PLANES
 70
0
 62
7
  6
CONTINUOUS
370
-3
390
F
  0
LAYER
  5
200
100
AcDbSymbolTableRecord
100
AcDbLayerTableRecord
  2
02_COORD_SYS
 70
0
 62
7
  6
CONTINUOUS
370
-3
390
F
  0
LAYER
  5
201
100
AcDbSymbolTableRecord
100
AcDbLayerTableRecord
  2
03_AXES
 70
0
 62
7
  6
CONTINUOUS
370
-3
390
F
  0
LAYER
  5
202
100
AcDbSymbolTableRecord
100
AcDbLayerTableRecord
  2
04_POINTS
 70
0
 62
7
  6
CONTINUOUS
370
-3
390
F
  0
LAYER
  5
203
100
AcDbSymbolTableRecord
100
AcDbLayerTableRecord
  2
05_CURVES
 70
0
 62
7
  6
CONTINUOUS
370
-3
390
F
  0
LAYER
  5
204
100
AcDbSymbolTableRecord
100
AcDbLayerTableRecord
  2
06_SURFS
 70
0
 62
7
  6
CONTINUOUS
370
-3
390
F
  0
LAYER
  5
205
100
AcDbSymbolTableRecord
100
AcDbLayerTableRecord
  2
07_COSMETICS
 70
0
 62
7
  6
CONTINUOUS
370
-3
390
F
  0
LAYER
  5
206
100
AcDbSymbolTableRecord
100
AcDbLayerTableRecord
  2
10_NOTES
 70
0
 62
7
  6
CONTINUOUS
370
-3
390
F
  0
LAYER
  5
207
100
AcDbSymbolTableRecord
100
AcDbLayerTableRecord
  2
11_NOTES_PUB
 70
0
 62
7
  6
CONTINUOUS
370
-3
390
F
  0
LAYER
  5
208
100
AcDbSymbolTableRecord
100
AcDbLayerTableRecord
  2
13_REF_GTOL
 70
0
 62
7
  6
CONTINUOUS
370
-3
390
F
  0
LAYER
  5
209
100
AcDbSymbolTableRecord
100
AcDbLayerTableRecord
  2
16_MISC
 70
0
 62
7
  6
CONTINUOUS
370
-3
390
F
  0
LAYER
  5
20A
100
AcDbSymbolTableRecord
100
AcDbLayerTableRecord
  2
17_NO_PRINT
 70
0
 62
7
  6
CONTINUOUS
370
-3
390
F
  0
LAYER
  5
20B
100
AcDbSymbolTableRecord
100
AcDbLayerTableRecord
  2
18_DATUM_CAMS_JOINTS
 70
0
 62
7
  6
CONTINUOUS
370
-3
390
F
  0
LAYER
  5
20C
100
AcDbSymbolTableRecord
100
AcDbLayerTableRecord
  2
19_DATUM_FUNCTIONAL
 70
0
 62
7
  6
CONTINUOUS
370
-3
390
F
  0
LAYER
  5
20D
100
AcDbSymbolTableRecord
100
AcDbLayerTableRecord
  2
20_DATUM_KINEMATIC_SCHEME
 70
0
 62
7
  6
CONTINUOUS
370
-3
390
F
  0
ENDTAB
  0
TABLE
  2
STYLE
  5
3
100
AcDbSymbolTable
 70
1
  0
STYLE
  5
11
100
AcDbSymbolTableRecord
100
AcDbTextStyleTableRecord
  2
STANDARD
 70
0
 40
0.0
 41
1.0
 50
0.0
 71
0
 42
0.2
  3
ARIAL.TTF
  4

  0
STYLE
  5
20E
100
AcDbSymbolTableRecord
100
AcDbTextStyleTableRecord
  2
TEXTSTYLE_1
 70
0
 40
0.0
 41
0.8
 50
0.0
 71
0
 42
0.2
  3
gdt
  4

  0
ENDTAB
  0
TABLE
  2
VIEW
  5
6
100
AcDbSymbolTable
 70
0
  0
ENDTAB
  0
TABLE
  2
UCS
  5
7
100
AcDbSymbolTable
 70
0
  0
ENDTAB
  0
TABLE
  2
APPID
  5
9
100
AcDbSymbolTable
 70
1
  0
APPID
  5
20F
100
AcDbSymbolTableRecord
100
AcDbRegAppTableRecord
  2
ACAD
 70
0
  0
ENDTAB
  0
TABLE
  2
BLOCK_RECORD
  5
1
100
AcDbSymbolTable
 70
0
  0
BLOCK_RECORD
  5
210
100
AcDbSymbolTableRecord
100
AcDbBlockTableRecord
  2
*Model_Space
  0
BLOCK_RECORD
  5
211
100
AcDbSymbolTableRecord
100
AcDbBlockTableRecord
  2
*Paper_Space
  0
BLOCK_RECORD
  5
212
100
AcDbSymbolTableRecord
100
AcDbBlockTableRecord
  2
_FILLED
  0
ENDTAB
  0
TABLE
  2
DIMSTYLE
  5
A
100
AcDbSymbolTable
 70
1
100
AcDbDimStyleTable
 71
0
  0
DIMSTYLE
105
213
100
AcDbSymbolTableRecord
100
AcDbDimStyleTableRecord
  2
STANDARD
 70
0
  3

  4

 40
1.0
 41
2.9196568777
 42
1.0
 43
0.38
 44
1.0
 45
0.0
 46
0.0
 47
0.01
 48
0.01
140
4.0875196288
141
0.09
142
0.0
143
25.4
144
1.0
145
0.0
146
1.0
147
0.625
 71
1
 72
0
 73
0
 74
0
 75
0
 76
0
 77
1
 78
8
 79
2
170
0
171
1
172
0
173
0
174
0
175
0
176
0
177
0
178
0
270
2
179
2
271
2
272
2
273
2
274
2
275
0
280
0
281
0
282
0
283
1
284
8
285
0
286
0
287
3
288
0
340
11
278
46
341
212
342
212
343
212
344
212
  0
ENDTAB
  0
ENDSEC
  0
SECTION
  2
BLOCKS
  0
BLOCK
  5
20
100
AcDbEntity
  8
0
100
AcDbBlockBegin
  2
*Model_Space
 70
0
 10
0.0
 20
0.0
 30
0.0
  3
*Model_Space
  1

  0
ENDBLK
  5
21
100
AcDbEntity
  8
0
100
AcDbBlockEnd
  0
BLOCK
  5
1C
100
AcDbEntity
  8
0
100
AcDbBlockBegin
  2
*Paper_Space
 70
0
 10
0.0
 20
0.0
 30
0.0
  3
*Paper_Space
  1

  0
ENDBLK
  5
1D
100
AcDbEntity
  8
0
100
AcDbBlockEnd
  0
BLOCK
  5
214
100
AcDbEntity
  8
0
100
AcDbBlockBegin
  2
_FILLED
 70
64
 10
0.0
 20
0.0
  3
_FILLED
  1

  0
SOLID
  5
215
100
AcDbEntity
  8
0
  6
BYBLOCK
 62
0
100
AcDbTrace
 10
0.0
 20
0.0
 11
-1.0
 21
0.25
 12
-1.0
 22
-0.25
 13
-1.0
 23
-0.25
  0
ENDBLK
  5
216
100
AcDbEntity
  8
0
  6
BYBLOCK
 62
0
100
AcDbBlockEnd
  0
ENDSEC
  0
SECTION
  2
ENTITIES
  0
LINE
  5
217
100
AcDbEntity
  8
0
100
AcDbLine
 62
7
  6
BYLAYER
 10
27.3146944662
 20
161.5063541799
 11
27.3146944662
 21
186.7261458201
  0
LINE
  5
218
100
AcDbEntity
  8
0
100
AcDbLine
 62
7
  6
BYLAYER
 10
28.9096944662
 20
161.11625
 11
28.9096944662
 21
187.11625
  0
LINE
  5
219
100
AcDbEntity
  8
0
100
AcDbLine
 62
7
  6
BYLAYER
 10
34.9046944662
 20
203.11625
 11
34.9046944662
 21
145.11625
  0
LINE
  5
21A
100
AcDbEntity
  8
0
100
AcDbLine
 62
7
  6
BYLAYER
 10
38.8574341309
 20
202.8015917969
 11
38.8574341309
 21
201.3009082031
  0
LINE
  5
21B
100
AcDbEntity
  8
0
100
AcDbLine
 62
7
  6
BYLAYER
 10
38.8574341309
 20
146.9315917969
 11
38.8574341309
 21
145.4309082031
  0
LINE
  5
21C
100
AcDbEntity
  8
0
100
AcDbLine
 62
7
  6
BYLAYER
 10
40.2387451661
 20
205.4708347177
 11
40.2387451661
 21
202.8015917969
  0
LINE
  5
21D
100
AcDbEntity
  8
0
100
AcDbLine
 62
7
  6
BYLAYER
 10
40.2387451661
 20
201.3009082031
 11
40.2387451661
 21
198.6316652823
  0
LINE
  5
21E
100
AcDbEntity
  8
0
100
AcDbLine
 62
7
  6
BYLAYER
 10
40.2387451661
 20
149.6008347177
 11
40.2387451661
 21
146.9315917969
  0
LINE
  5
21F
100
AcDbEntity
  8
0
100
AcDbLine
 62
7
  6
BYLAYER
 10
40.2387451661
 20
145.4309082031
 11
40.2387451661
 21
142.7616652823
  0
LINE
  5
220
100
AcDbEntity
  8
0
100
AcDbLine
 62
7
  6
BYLAYER
 10
41.7361559191
 20
142.7628723607
 11
41.7361559191
 21
145.4309082031
  0
LINE
  5
221
100
AcDbEntity
  8
0
100
AcDbLine
 62
7
  6
BYLAYER
 10
41.7361559191
 20
146.9315917969
 11
41.7361559191
 21
149.5996276393
  0
LINE
  5
222
100
AcDbEntity
  8
0
100
AcDbLine
 62
7
  6
BYLAYER
 10
41.7361559191
 20
198.6328723607
 11
41.7361559191
 21
201.3009082031
  0
LINE
  5
223
100
AcDbEntity
  8
0
100
AcDbLine
 62
7
  6
BYLAYER
 10
41.7361559191
 20
202.8015917969
 11
41.7361559191
 21
205.4696276393
  0
LINE
  5
224
100
AcDbEntity
  8
0
100
AcDbLine
 62
7
  6
BYLAYER
 10
43.1119548015
 20
145.4309082031
 11
43.1119548015
 21
146.9315917969
  0
LINE
  5
225
100
AcDbEntity
  8
0
100
AcDbLine
 62
7
  6
BYLAYER
 10
43.1119548015
 20
201.3009082031
 11
43.1119548015
 21
202.8015917969
  0
LINE
  5
226
100
AcDbEntity
  8
0
100
AcDbLine
 62
7
  6
BYLAYER
 10
45.5546944662
 20
208.11625
 11
45.5546944662
 21
209.61625
  0
LINE
  5
227
100
AcDbEntity
  8
0
100
AcDbLine
 62
7
  6
BYLAYER
 10
45.6746944662
 20
140.11625
 11
45.6746944662
 21
138.11625
  0
LINE
  5
228
100
AcDbEntity
  8
0
100
AcDbLine
 62
7
  6
BYLAYER
 10
47.1646944662
 20
135.11625
 11
47.1646944662
 21
138.11625
  0
LINE
  5
229
100
AcDbEntity
  8
0
100
AcDbLine
 62
7
  6
BYLAYER
 10
52.6646944662
 20
135.11625
 11
52.6646944662
 21
138.11625
  0
LINE
  5
22A
100
AcDbEntity
  8
0
100
AcDbLine
 62
7
  6
BYLAYER
 10
63.6646944662
 20
135.11625
 11
63.6646944662
 21
138.11625
  0
LINE
  5
22B
100
AcDbEntity
  8
0
100
AcDbLine
 62
7
  6
BYLAYER
 10
69.1646944662
 20
135.11625
 11
69.1646944662
 21
138.11625
  0
LINE
  5
22C
100
AcDbEntity
  8
0
100
AcDbLine
 62
7
  6
BYLAYER
 10
70.6546944662
 20
138.11625
 11
70.6546944662
 21
140.11625
  0
LINE
  5
22D
100
AcDbEntity
  8
0
100
AcDbLine
 62
7
  6
BYLAYER
 10
70.7746944662
 20
209.61625
 11
70.7746944662
 21
208.11625
  0
LINE
  5
22E
100
AcDbEntity
  8
0
100
AcDbLine
 62
7
  6
BYLAYER
 10
73.8830215604
 20
200.1412710232
 11
73.8830215604
 21
148.0943295627
  0
LINE
  5
22F
100
AcDbEntity
  8
0
100
AcDbLine
 62
7
  6
BYLAYER
 10
69.1646944662
 20
135.11625
 11
47.1646944662
 21
135.11625
  0
LINE
  5
230
100
AcDbEntity
  8
0
100
AcDbLine
 62
7
  6
BYLAYER
 10
70.6546944662
 20
138.11625
 11
45.6746944662
 21
138.11625
  0
LINE
  5
231
100
AcDbEntity
  8
0
100
AcDbLine
 62
7
  6
BYLAYER
 10
39.9046944662
 20
140.11625
 11
169.8046944662
 21
140.11625
  0
LINE
  5
232
100
AcDbEntity
  8
0
100
AcDbLine
 62
7
  6
BYLAYER
 10
38.8574341309
 20
145.4309082031
 11
40.2387451661
 21
145.4309082031
  0
LINE
  5
233
100
AcDbEntity
  8
0
100
AcDbLine
 62
7
  6
BYLAYER
 10
41.7361559191
 20
145.4309082031
 11
43.1119548015
 21
145.4309082031
  0
LINE
  5
234
100
AcDbEntity
  8
0
100
AcDbLine
 62
7
  6
BYLAYER
 10
148.6274341309
 20
145.4309082031
 11
150.0087451661
 21
145.4309082031
  0
LINE
  5
235
100
AcDbEntity
  8
0
100
AcDbLine
 62
7
  6
BYLAYER
 10
151.5061559191
 20
145.4309082031
 11
152.8819548015
 21
145.4309082031
  0
LINE
  5
236
100
AcDbEntity
  8
0
100
AcDbLine
 62
7
  6
BYLAYER
 10
75.3830215604
 20
146.5943295627
 11
134.3415135851
 21
146.5943295627
  0
LINE
  5
237
100
AcDbEntity
  8
0
100
AcDbLine
 62
7
  6
BYLAYER
 10
152.8819548015
 20
146.9315917969
 11
151.5061559191
 21
146.9315917969
  0
LINE
  5
238
100
AcDbEntity
  8
0
100
AcDbLine
 62
7
  6
BYLAYER
 10
150.0087451661
 20
146.9315917969
 11
148.6274341309
 21
146.9315917969
  0
LINE
  5
239
100
AcDbEntity
  8
0
100
AcDbLine
 62
7
  6
BYLAYER
 10
43.1119548015
 20
146.9315917969
 11
41.7361559191
 21
146.9315917969
  0
LINE
  5
23A
100
AcDbEntity
  8
0
100
AcDbLine
 62
7
  6
BYLAYER
 10
40.2387451661
 20
146.9315917969
 11
38.8574341309
 21
146.9315917969
  0
LINE
  5
23B
100
AcDbEntity
  8
0
100
AcDbLine
 62
7
  6
BYLAYER
 10
174.8046944662
 20
156.7934357356
 11
161.8343358508
 21
156.7934357356
  0
LINE
  5
23C
100
AcDbEntity
  8
0
100
AcDbLine
 62
7
  6
BYLAYER
 10
28.9096944662
 20
161.11625
 11
34.9046944662
 21
161.11625
  0
LINE
  5
23D
100
AcDbEntity
  8
0
100
AcDbLine
 62
7
  6
BYLAYER
 10
27.3146944662
 20
161.50625
 11
28.9046944662
 21
161.50625
  0
LINE
  5
23E
100
AcDbEntity
  8
0
100
AcDbLine
 62
7
  6
BYLAYER
 10
194.7993396485
 20
161.61625
 11
211.8046944662
 21
161.61625
  0
LINE
  5
23F
100
AcDbEntity
  8
0
100
AcDbLine
 62
7
  6
BYLAYER
 10
209.3096944662
 20
169.7947832351
 11
214.2996944662
 21
169.7947832351
  0
LINE
  5
240
100
AcDbEntity
  8
0
100
AcDbLine
 62
7
  6
BYLAYER
 10
214.2996944662
 20
178.4377167649
 11
209.3096944662
 21
178.4377167649
  0
LINE
  5
241
100
AcDbEntity
  8
0
100
AcDbLine
 62
7
  6
BYLAYER
 10
135.8415135851
 20
148.0943295627
 11
135.8415135851
 21
200.1412710232
  0
LINE
  5
242
100
AcDbEntity
  8
0
100
AcDbLine
 62
7
  6
BYLAYER
 10
211.8046944662
 20
186.61625
 11
201.8146944662
 21
186.61625
  0
LINE
  5
243
100
AcDbEntity
  8
0
100
AcDbLine
 62
7
  6
BYLAYER
 10
200.8146944662
 20
186.61625
 11
194.7993396485
 21
186.61625
  0
LINE
  5
244
100
AcDbEntity
  8
0
100
AcDbLine
 62
7
  6
BYLAYER
 10
27.3146944662
 20
186.72625
 11
28.9046944662
 21
186.72625
  0
LINE
  5
245
100
AcDbEntity
  8
0
100
AcDbLine
 62
7
  6
BYLAYER
 10
34.9046944662
 20
187.11625
 11
28.9096944662
 21
187.11625
  0
LINE
  5
246
100
AcDbEntity
  8
0
100
AcDbLine
 62
7
  6
BYLAYER
 10
161.8343358508
 20
191.4390642644
 11
174.8046944662
 21
191.4390642644
  0
LINE
  5
247
100
AcDbEntity
  8
0
100
AcDbLine
 62
7
  6
BYLAYER
 10
148.6274341309
 20
202.8015917969
 11
148.6274341309
 21
201.3009082031
  0
LINE
  5
248
100
AcDbEntity
  8
0
100
AcDbLine
 62
7
  6
BYLAYER
 10
148.6274341309
 20
146.9315917969
 11
148.6274341309
 21
145.4309082031
  0
LINE
  5
249
100
AcDbEntity
  8
0
100
AcDbLine
 62
7
  6
BYLAYER
 10
150.0087451661
 20
205.4708347177
 11
150.0087451661
 21
202.8015917969
  0
LINE
  5
24A
100
AcDbEntity
  8
0
100
AcDbLine
 62
7
  6
BYLAYER
 10
150.0087451661
 20
201.3009082031
 11
150.0087451661
 21
198.6316652823
  0
LINE
  5
24B
100
AcDbEntity
  8
0
100
AcDbLine
 62
7
  6
BYLAYER
 10
150.0087451661
 20
149.6008347177
 11
150.0087451661
 21
146.9315917969
  0
LINE
  5
24C
100
AcDbEntity
  8
0
100
AcDbLine
 62
7
  6
BYLAYER
 10
150.0087451661
 20
145.4309082031
 11
150.0087451661
 21
142.7616652823
  0
LINE
  5
24D
100
AcDbEntity
  8
0
100
AcDbLine
 62
7
  6
BYLAYER
 10
151.5061559191
 20
142.7628723607
 11
151.5061559191
 21
145.4309082031
  0
LINE
  5
24E
100
AcDbEntity
  8
0
100
AcDbLine
 62
7
  6
BYLAYER
 10
151.5061559191
 20
146.9315917969
 11
151.5061559191
 21
149.5996276393
  0
LINE
  5
24F
100
AcDbEntity
  8
0
100
AcDbLine
 62
7
  6
BYLAYER
 10
151.5061559191
 20
198.6328723607
 11
151.5061559191
 21
201.3009082031
  0
LINE
  5
250
100
AcDbEntity
  8
0
100
AcDbLine
 62
7
  6
BYLAYER
 10
151.5061559191
 20
202.8015917969
 11
151.5061559191
 21
205.4696276393
  0
LINE
  5
251
100
AcDbEntity
  8
0
100
AcDbLine
 62
7
  6
BYLAYER
 10
152.8819548015
 20
145.4309082031
 11
152.8819548015
 21
146.9315917969
  0
LINE
  5
252
100
AcDbEntity
  8
0
100
AcDbLine
 62
7
  6
BYLAYER
 10
152.8819548015
 20
201.3009082031
 11
152.8819548015
 21
202.8015917969
  0
LINE
  5
253
100
AcDbEntity
  8
0
100
AcDbLine
 62
7
  6
BYLAYER
 10
38.8574341309
 20
201.3009082031
 11
40.2387451661
 21
201.3009082031
  0
LINE
  5
254
100
AcDbEntity
  8
0
100
AcDbLine
 62
7
  6
BYLAYER
 10
41.7361559191
 20
201.3009082031
 11
43.1119548015
 21
201.3009082031
  0
LINE
  5
255
100
AcDbEntity
  8
0
100
AcDbLine
 62
7
  6
BYLAYER
 10
148.6274341309
 20
201.3009082031
 11
150.0087451661
 21
201.3009082031
  0
LINE
  5
256
100
AcDbEntity
  8
0
100
AcDbLine
 62
7
  6
BYLAYER
 10
151.5061559191
 20
201.3009082031
 11
152.8819548015
 21
201.3009082031
  0
LINE
  5
257
100
AcDbEntity
  8
0
100
AcDbLine
 62
7
  6
BYLAYER
 10
156.8343358508
 20
203.145611301
 11
156.8343358508
 21
196.4390642644
  0
LINE
  5
258
100
AcDbEntity
  8
0
100
AcDbLine
 62
7
  6
BYLAYER
 10
156.8343358508
 20
151.7934357356
 11
156.8343358508
 21
145.086888699
  0
LINE
  5
259
100
AcDbEntity
  8
0
100
AcDbLine
 62
7
  6
BYLAYER
 10
134.3415135851
 20
201.6412710232
 11
75.3830215604
 21
201.6412710232
  0
LINE
  5
25A
100
AcDbEntity
  8
0
100
AcDbLine
 62
7
  6
BYLAYER
 10
152.8819548015
 20
202.8015917969
 11
151.5061559191
 21
202.8015917969
  0
LINE
  5
25B
100
AcDbEntity
  8
0
100
AcDbLine
 62
7
  6
BYLAYER
 10
150.0087451661
 20
202.8015917969
 11
148.6274341309
 21
202.8015917969
  0
LINE
  5
25C
100
AcDbEntity
  8
0
100
AcDbLine
 62
7
  6
BYLAYER
 10
43.1119548015
 20
202.8015917969
 11
41.7361559191
 21
202.8015917969
  0
LINE
  5
25D
100
AcDbEntity
  8
0
100
AcDbLine
 62
7
  6
BYLAYER
 10
40.2387451661
 20
202.8015917969
 11
38.8574341309
 21
202.8015917969
  0
LINE
  5
25E
100
AcDbEntity
  8
0
100
AcDbLine
 62
7
  6
BYLAYER
 10
169.8046944662
 20
208.11625
 11
39.9046944662
 21
208.11625
  0
LINE
  5
25F
100
AcDbEntity
  8
0
100
AcDbLine
 62
7
  6
BYLAYER
 10
164.3046944662
 20
202.11625
 11
164.3046944662
 21
198.11625
  0
LINE
  5
260
100
AcDbEntity
  8
0
100
AcDbLine
 62
7
  6
BYLAYER
 10
164.3046944662
 20
150.11625
 11
164.3046944662
 21
146.11625
  0
LINE
  5
261
100
AcDbEntity
  8
0
100
AcDbLine
 62
7
  6
BYLAYER
 10
45.5546944662
 20
209.61625
 11
70.7746944662
 21
209.61625
  0
LINE
  5
262
100
AcDbEntity
  8
0
100
AcDbLine
 62
7
  6
BYLAYER
 10
170.8046944662
 20
146.11625
 11
170.8046944662
 21
150.11625
  0
LINE
  5
263
100
AcDbEntity
  8
0
100
AcDbLine
 62
7
  6
BYLAYER
 10
170.8046944662
 20
198.11625
 11
170.8046944662
 21
202.11625
  0
LINE
  5
264
100
AcDbEntity
  8
0
100
AcDbLine
 62
7
  6
BYLAYER
 10
174.8046944662
 20
145.11625
 11
174.8046944662
 21
203.11625
  0
LINE
  5
265
100
AcDbEntity
  8
0
100
AcDbLine
 62
7
  6
BYLAYER
 10
178.162284527
 20
157.4320831977
 11
178.162284527
 21
190.8004168023
  0
LINE
  5
266
100
AcDbEntity
  8
0
100
AcDbLine
 62
7
  6
BYLAYER
 10
180.8646174263
 20
156.0681698947
 11
180.8646174263
 21
192.1643301053
  0
LINE
  5
267
100
AcDbEntity
  8
0
100
AcDbLine
 62
7
  6
BYLAYER
 10
182.1138090495
 20
156.0681698947
 11
182.1138090495
 21
192.1643301053
  0
LINE
  5
268
100
AcDbEntity
  8
0
100
AcDbLine
 62
7
  6
BYLAYER
 10
187.5191638673
 20
156.0681698947
 11
187.5191638673
 21
192.1643301053
  0
LINE
  5
269
100
AcDbEntity
  8
0
100
AcDbLine
 62
7
  6
BYLAYER
 10
188.7683554905
 20
156.0681698947
 11
188.7683554905
 21
192.1643301053
  0
LINE
  5
26A
100
AcDbEntity
  8
0
100
AcDbLine
 62
7
  6
BYLAYER
 10
194.1743993273
 20
156.0681698947
 11
194.1743993273
 21
192.1643301053
  0
LINE
  5
26B
100
AcDbEntity
  8
0
100
AcDbLine
 62
7
  6
BYLAYER
 10
194.7993396485
 20
155.5061025662
 11
194.7993396485
 21
192.7263974338
  0
LINE
  5
26C
100
AcDbEntity
  8
0
100
AcDbLine
 62
7
  6
BYLAYER
 10
209.3096944662
 20
178.4377167649
 11
206.8146944662
 21
174.11625
  0
LINE
  5
26D
100
AcDbEntity
  8
0
100
AcDbLine
 62
7
  6
BYLAYER
 10
206.8146944662
 20
174.11625
 11
209.3096944662
 21
169.7947832351
  0
LINE
  5
26E
100
AcDbEntity
  8
0
100
AcDbLine
 62
7
  6
BYLAYER
 10
200.8146944662
 20
186.93625
 11
200.8146944662
 21
178.93625
  0
LINE
  5
26F
100
AcDbEntity
  8
0
100
AcDbLine
 62
7
  6
BYLAYER
 10
201.8146944662
 20
186.93625
 11
201.8146944662
 21
178.93625
  0
LINE
  5
270
100
AcDbEntity
  8
0
100
AcDbLine
 62
7
  6
BYLAYER
 10
214.2996944662
 20
169.7947832351
 11
216.7946944662
 21
174.11625
  0
LINE
  5
271
100
AcDbEntity
  8
0
100
AcDbLine
 62
7
  6
BYLAYER
 10
216.7946944662
 20
174.11625
 11
214.2996944662
 21
178.4377167649
  0
ARC
  5
272
100
AcDbEntity
  8
0
100
AcDbCircle
 62
7
  6
BYLAYER
 10
39.9046944662
 20
145.11625
 40
5.0
100
AcDbArc
 50
180.0
 51
270.0
  0
CIRCLE
  5
273
100
AcDbEntity
  8
0
100
AcDbCircle
 62
7
  6
BYLAYER
 10
40.9846944662
 20
146.18125
 40
3.5
  0
ARC
  5
274
100
AcDbEntity
  8
0
100
AcDbCircle
 62
7
  6
BYLAYER
 10
75.3830215604
 20
148.0943295627
 40
1.5
100
AcDbArc
 50
180.0
 51
270.0
  0
CIRCLE
  5
275
100
AcDbEntity
  8
0
100
AcDbCircle
 62
7
  6
BYLAYER
 10
104.9046944662
 20
174.11625
 40
15.16
  0
ARC
  5
276
100
AcDbEntity
  8
0
100
AcDbCircle
 62
7
  6
BYLAYER
 10
39.9046944662
 20
203.11625
 40
5.0
100
AcDbArc
 50
90.0
 51
180.0
  0
CIRCLE
  5
277
100
AcDbEntity
  8
0
100
AcDbCircle
 62
7
  6
BYLAYER
 10
40.9846944662
 20
202.05125
 40
3.5
  0
ARC
  5
278
100
AcDbEntity
  8
0
100
AcDbCircle
 62
7
  6
BYLAYER
 10
75.3830215604
 20
200.1412710232
 40
1.5
100
AcDbArc
 50
90.0
 51
180.0
  0
ARC
  5
279
100
AcDbEntity
  8
0
100
AcDbCircle
 62
7
  6
BYLAYER
 10
169.8046944662
 20
145.11625
 40
5.0
100
AcDbArc
 50
270.0
 51
360.0
  0
ARC
  5
27A
100
AcDbEntity
  8
0
100
AcDbCircle
 62
7
  6
BYLAYER
 10
151.8343358508
 20
145.086888699
 40
5.0
100
AcDbArc
 50
276.2123087091
 51
360.0
  0
ARC
  5
27B
100
AcDbEntity
  8
0
100
AcDbCircle
 62
7
  6
BYLAYER
 10
161.8343358508
 20
151.7934357356
 40
5.0
100
AcDbArc
 50
90.0
 51
180.0
  0
ARC
  5
27C
100
AcDbEntity
  8
0
100
AcDbCircle
 62
7
  6
BYLAYER
 10
178.0665698253
 20
153.6074680798
 40
3.825812607
100
AcDbArc
 50
88.5664167983
 51
148.4952385986
  0
CIRCLE
  5
27D
100
AcDbEntity
  8
0
100
AcDbCircle
 62
7
  6
BYLAYER
 10
150.7546944662
 20
146.18125
 40
3.5
  0
ARC
  5
27E
100
AcDbEntity
  8
0
100
AcDbCircle
 62
7
  6
BYLAYER
 10
167.5546944662
 20
150.11625
 40
3.25
100
AcDbArc
 50
0.0
 51
180.0
  0
ARC
  5
27F
100
AcDbEntity
  8
0
100
AcDbCircle
 62
7
  6
BYLAYER
 10
167.5546944662
 20
146.11625
 40
3.25
100
AcDbArc
 50
180.0
 51
360.0
  0
ARC
  5
280
100
AcDbEntity
  8
0
100
AcDbCircle
 62
7
  6
BYLAYER
 10
178.2429474767
 20
154.2328672753
 40
3.2002326524
100
AcDbArc
 50
34.9939805424
 51
91.4443125191
  0
ARC
  5
281
100
AcDbEntity
  8
0
100
AcDbCircle
 62
7
  6
BYLAYER
 10
134.3415135851
 20
148.0943295627
 40
1.5
100
AcDbArc
 50
270.0
 51
360.0
  0
ARC
  5
282
100
AcDbEntity
  8
0
100
AcDbCircle
 62
7
  6
BYLAYER
 10
191.4713774089
 20
154.0716844574
 40
3.3603990229
100
AcDbArc
 50
36.4500338755
 51
143.5499661245
  0
ARC
  5
283
100
AcDbEntity
  8
0
100
AcDbCircle
 62
7
  6
BYLAYER
 10
184.8164864584
 20
154.072366863
 40
3.3597164937
100
AcDbArc
 50
36.4441634672
 51
143.5558365329
  0
ARC
  5
284
100
AcDbEntity
  8
0
100
AcDbCircle
 62
7
  6
BYLAYER
 10
194.9880843053
 20
156.3444170633
 40
0.8592995645
100
AcDbArc
 50
198.7524205761
 51
257.3115570129
  0
ARC
  5
285
100
AcDbEntity
  8
0
100
AcDbCircle
 62
7
  6
BYLAYER
 10
181.4892132379
 20
156.239806945
 40
0.647749338
100
AcDbArc
 50
195.365436972
 51
344.634563028
  0
ARC
  5
286
100
AcDbEntity
  8
0
100
AcDbCircle
 62
7
  6
BYLAYER
 10
188.1437596789
 20
156.239806945
 40
0.647749338
100
AcDbArc
 50
195.365436972
 51
344.634563028
  0
ARC
  5
287
100
AcDbEntity
  8
0
100
AcDbCircle
 62
7
  6
BYLAYER
 10
202.1554202374
 20
166.533985248
 40
1.5218273278
100
AcDbArc
 50
61.3904748974
 51
119.6360201855
  0
ARC
  5
288
100
AcDbEntity
  8
0
100
AcDbCircle
 62
7
  6
BYLAYER
 10
201.3794500752
 20
167.6421854885
 40
1.5218273278
100
AcDbArc
 50
310.363038358
 51
8.6095251027
  0
ARC
  5
289
100
AcDbEntity
  8
0
100
AcDbCircle
 62
7
  6
BYLAYER
 10
203.6186608515
 20
164.9735980012
 40
1.5218273278
100
AcDbArc
 50
71.3904748973
 51
129.636961642
  0
ARC
  5
28A
100
AcDbEntity
  8
0
100
AcDbCircle
 62
7
  6
BYLAYER
 10
202.6620424674
 20
165.9302163853
 40
1.5218273278
100
AcDbArc
 50
320.3638003576
 51
18.6095251027
  0
ARC
  5
28B
100
AcDbEntity
  8
0
100
AcDbCircle
 62
7
  6
BYLAYER
 10
205.3306299547
 20
163.691005609
 40
1.5218273278
100
AcDbArc
 50
81.3904748973
 51
139.6358280639
  0
ARC
  5
28C
100
AcDbEntity
  8
0
100
AcDbCircle
 62
7
  6
BYLAYER
 10
204.2224297142
 20
164.4669757712
 40
1.5218273278
100
AcDbArc
 50
330.363038358
 51
28.6095251027
  0
ARC
  5
28D
100
AcDbEntity
  8
0
100
AcDbCircle
 62
7
  6
BYLAYER
 10
207.239310232
 20
162.7251789922
 40
1.5218273278
100
AcDbArc
 50
91.3904748973
 51
149.636961642
  0
ARC
  5
28E
100
AcDbEntity
  8
0
100
AcDbCircle
 62
7
  6
BYLAYER
 10
206.0132002387
 20
163.2969234718
 40
1.5218273278
100
AcDbArc
 50
340.3634070115
 51
38.6095251027
  0
ARC
  5
28F
100
AcDbEntity
  8
0
100
AcDbCircle
 62
7
  6
BYLAYER
 10
209.286707399
 20
162.1054643038
 40
1.5218273278
100
AcDbArc
 50
101.3904748973
 51
159.6358280639
  0
ARC
  5
290
100
AcDbEntity
  8
0
100
AcDbCircle
 62
7
  6
BYLAYER
 10
207.9799423847
 20
162.4556109341
 40
1.5218273278
100
AcDbArc
 50
350.363038358
 51
48.6095251027
  0
ARC
  5
291
100
AcDbEntity
  8
0
100
AcDbCircle
 62
7
  6
BYLAYER
 10
211.410612329
 20
161.850691261
 40
1.5218273278
100
AcDbArc
 50
111.3904748974
 51
169.636961642
  0
ARC
  5
292
100
AcDbEntity
  8
0
100
AcDbCircle
 62
7
  6
BYLAYER
 10
210.0628976872
 20
161.9686010138
 40
1.5218273278
100
AcDbArc
 50
0.3641719361
 51
58.6095251026
  0
ARC
  5
293
100
AcDbEntity
  8
0
100
AcDbCircle
 62
7
  6
BYLAYER
 10
199.65704548
 20
172.374453221
 40
1.5218273278
100
AcDbArc
 50
31.3904748974
 51
89.6369616421
  0
ARC
  5
294
100
AcDbEntity
  8
0
100
AcDbCircle
 62
7
  6
BYLAYER
 10
199.5391357272
 20
173.7221678628
 40
1.5218273278
100
AcDbArc
 50
280.3641719361
 51
338.6095251027
  0
ARC
  5
295
100
AcDbEntity
  8
0
100
AcDbCircle
 62
7
  6
BYLAYER
 10
200.1440554003
 20
170.2914979185
 40
1.5218273278
100
AcDbArc
 50
41.3904748974
 51
99.6358280639
  0
ARC
  5
296
100
AcDbEntity
  8
0
100
AcDbCircle
 62
7
  6
BYLAYER
 10
199.79390877
 20
171.5982629328
 40
1.5218273278
100
AcDbArc
 50
290.363038358
 51
348.6095251027
  0
ARC
  5
297
100
AcDbEntity
  8
0
100
AcDbCircle
 62
7
  6
BYLAYER
 10
200.985367938
 20
168.3247557725
 40
1.5218273278
100
AcDbArc
 50
51.3904748973
 51
109.636961642
  0
ARC
  5
298
100
AcDbEntity
  8
0
100
AcDbCircle
 62
7
  6
BYLAYER
 10
200.4136234584
 20
169.5508657658
 40
1.5218273278
100
AcDbArc
 50
300.3641726336
 51
358.6095251026
  0
ARC
  5
299
100
AcDbEntity
  8
0
100
AcDbCircle
 62
7
  6
BYLAYER
 10
213.5464912452
 20
161.9686010138
 40
1.5218273278
100
AcDbArc
 50
121.3904748974
 51
179.6358280639
  0
ARC
  5
29A
100
AcDbEntity
  8
0
100
AcDbCircle
 62
7
  6
BYLAYER
 10
212.1987766034
 20
161.850691261
 40
1.5218273278
100
AcDbArc
 50
10.363038358
 51
68.6095251026
  0
ARC
  5
29B
100
AcDbEntity
  8
0
100
AcDbCircle
 62
7
  6
BYLAYER
 10
215.6294465478
 20
162.4556109341
 40
1.5218273278
100
AcDbArc
 50
131.3904748973
 51
189.6370488804
  0
ARC
  5
29C
100
AcDbEntity
  8
0
100
AcDbCircle
 62
7
  6
BYLAYER
 10
214.3226815334
 20
162.1054643038
 40
1.5218273278
100
AcDbArc
 50
20.3641719361
 51
78.6095251027
  0
ARC
  5
29D
100
AcDbEntity
  8
0
100
AcDbCircle
 62
7
  6
BYLAYER
 10
217.5961886937
 20
163.2969234718
 40
1.5218273278
100
AcDbArc
 50
141.3904748973
 51
199.6365929885
  0
ARC
  5
29E
100
AcDbEntity
  8
0
100
AcDbCircle
 62
7
  6
BYLAYER
 10
216.3700787004
 20
162.7251789922
 40
1.5218273278
100
AcDbArc
 50
30.363038358
 51
88.6095251027
  0
ARC
  5
29F
100
AcDbEntity
  8
0
100
AcDbCircle
 62
7
  6
BYLAYER
 10
219.3869592182
 20
164.4669757712
 40
1.5218273278
100
AcDbArc
 50
151.3983942518
 51
209.636961642
  0
ARC
  5
2A0
100
AcDbEntity
  8
0
100
AcDbCircle
 62
7
  6
BYLAYER
 10
218.2787589777
 20
163.691005609
 40
1.5218273278
100
AcDbArc
 50
40.3641719361
 51
98.6264589767
  0
ARC
  5
2A1
100
AcDbEntity
  8
0
100
AcDbCircle
 62
7
  6
BYLAYER
 10
220.947346465
 20
165.9302163853
 40
1.5218273278
100
AcDbArc
 50
161.3904748973
 51
219.6361996424
  0
ARC
  5
2A2
100
AcDbEntity
  8
0
100
AcDbCircle
 62
7
  6
BYLAYER
 10
219.9907280809
 20
164.9735980012
 40
1.5218273278
100
AcDbArc
 50
50.363038358
 51
108.6095251027
  0
ARC
  5
2A3
100
AcDbEntity
  8
0
100
AcDbCircle
 62
7
  6
BYLAYER
 10
222.2299388572
 20
167.6421854885
 40
1.5218273278
100
AcDbArc
 50
171.3904748973
 51
229.636961642
  0
ARC
  5
2A4
100
AcDbEntity
  8
0
100
AcDbCircle
 62
7
  6
BYLAYER
 10
221.453968695
 20
166.533985248
 40
1.5218273278
100
AcDbArc
 50
60.3641719361
 51
118.6095251026
  0
ARC
  5
2A5
100
AcDbEntity
  8
0
100
AcDbCircle
 62
7
  6
BYLAYER
 10
223.195765474
 20
169.5508657658
 40
1.5218273278
100
AcDbArc
 50
181.3904748974
 51
239.6358280639
  0
ARC
  5
2A6
100
AcDbEntity
  8
0
100
AcDbCircle
 62
7
  6
BYLAYER
 10
222.6240209944
 20
168.3247557725
 40
1.5218273278
100
AcDbArc
 50
70.363038358
 51
128.6095251027
  0
ARC
  5
2A7
100
AcDbEntity
  8
0
100
AcDbCircle
 62
7
  6
BYLAYER
 10
223.8154801624
 20
171.5982629328
 40
1.5218273278
100
AcDbArc
 50
191.3904748973
 51
249.636961642
  0
ARC
  5
2A8
100
AcDbEntity
  8
0
100
AcDbCircle
 62
7
  6
BYLAYER
 10
223.4653335321
 20
170.2914979185
 40
1.5218273278
100
AcDbArc
 50
80.3641719361
 51
138.6095251026
  0
ARC
  5
2A9
100
AcDbEntity
  8
0
100
AcDbCircle
 62
7
  6
BYLAYER
 10
224.0702532052
 20
173.7221678628
 40
1.5218273278
100
AcDbArc
 50
201.3904748973
 51
259.6358280639
  0
ARC
  5
2AA
100
AcDbEntity
  8
0
100
AcDbCircle
 62
7
  6
BYLAYER
 10
223.9523434524
 20
172.374453221
 40
1.5218273278
100
AcDbArc
 50
90.3630383579
 51
148.6095251026
  0
ARC
  5
2AB
100
AcDbEntity
  8
0
100
AcDbCircle
 62
7
  6
BYLAYER
 10
151.8343358508
 20
203.145611301
 40
5.0
100
AcDbArc
 50
0.0
 51
83.7876912909
  0
ARC
  5
2AC
100
AcDbEntity
  8
0
100
AcDbCircle
 62
7
  6
BYLAYER
 10
161.8343358508
 20
196.4390642644
 40
5.0
100
AcDbArc
 50
180.0
 51
270.0
  0
ARC
  5
2AD
100
AcDbEntity
  8
0
100
AcDbCircle
 62
7
  6
BYLAYER
 10
169.8046944662
 20
203.11625
 40
5.0
100
AcDbArc
 50
0.0
 51
90.0
  0
ARC
  5
2AE
100
AcDbEntity
  8
0
100
AcDbCircle
 62
7
  6
BYLAYER
 10
178.0665698253
 20
194.6250319202
 40
3.825812607
100
AcDbArc
 50
211.5047614014
 51
271.4335832017
  0
CIRCLE
  5
2AF
100
AcDbEntity
  8
0
100
AcDbCircle
 62
7
  6
BYLAYER
 10
150.7546944662
 20
202.05125
 40
3.5
  0
ARC
  5
2B0
100
AcDbEntity
  8
0
100
AcDbCircle
 62
7
  6
BYLAYER
 10
167.5546944662
 20
202.11625
 40
3.25
100
AcDbArc
 50
0.0
 51
180.0
  0
ARC
  5
2B1
100
AcDbEntity
  8
0
100
AcDbCircle
 62
7
  6
BYLAYER
 10
167.5546944662
 20
198.11625
 40
3.25
100
AcDbArc
 50
180.0
 51
360.0
  0
ARC
  5
2B2
100
AcDbEntity
  8
0
100
AcDbCircle
 62
7
  6
BYLAYER
 10
178.2429474767
 20
193.9996327247
 40
3.2002326524
100
AcDbArc
 50
268.5556874809
 51
325.0060194576
  0
ARC
  5
2B3
100
AcDbEntity
  8
0
100
AcDbCircle
 62
7
  6
BYLAYER
 10
134.3415135851
 20
200.1412710232
 40
1.5
100
AcDbArc
 50
0.0
 51
90.0
  0
ARC
  5
2B4
100
AcDbEntity
  8
0
100
AcDbCircle
 62
7
  6
BYLAYER
 10
200.985367938
 20
179.9077442275
 40
1.5218273278
100
AcDbArc
 50
250.363038358
 51
285.8427429204
  0
ARC
  5
2B5
100
AcDbEntity
  8
0
100
AcDbCircle
 62
7
  6
BYLAYER
 10
199.79390877
 20
176.6342370672
 40
1.5218273278
100
AcDbArc
 50
11.3904748973
 51
69.636961642
  0
ARC
  5
2B6
100
AcDbEntity
  8
0
100
AcDbCircle
 62
7
  6
BYLAYER
 10
200.1440554003
 20
177.9410020815
 40
1.5218273278
100
AcDbArc
 50
260.3641719361
 51
318.6095251026
  0
ARC
  5
2B7
100
AcDbEntity
  8
0
100
AcDbCircle
 62
7
  6
BYLAYER
 10
199.5391357272
 20
174.5103321372
 40
1.5218273278
100
AcDbArc
 50
21.3904748973
 51
79.6358280639
  0
ARC
  5
2B8
100
AcDbEntity
  8
0
100
AcDbCircle
 62
7
  6
BYLAYER
 10
199.65704548
 20
175.858046779
 40
1.5218273278
100
AcDbArc
 50
270.3630383579
 51
328.6095251026
  0
ARC
  5
2B9
100
AcDbEntity
  8
0
100
AcDbCircle
 62
7
  6
BYLAYER
 10
200.4136234584
 20
178.6816342342
 40
1.5218273278
100
AcDbArc
 50
1.3904748974
 51
22.4130995738
  0
ARC
  5
2BA
100
AcDbEntity
  8
0
100
AcDbCircle
 62
7
  6
BYLAYER
 10
200.985367938
 20
179.9077442275
 40
1.5218273278
100
AcDbArc
 50
291.6095152782
 51
308.6095251027
  0
ARC
  5
2BB
100
AcDbEntity
  8
0
100
AcDbCircle
 62
7
  6
BYLAYER
 10
201.3146944662
 20
178.93625
 40
0.5
100
AcDbArc
 50
180.0
 51
360.0
  0
ARC
  5
2BC
100
AcDbEntity
  8
0
100
AcDbCircle
 62
7
  6
BYLAYER
 10
210.0628976872
 20
186.2638989862
 40
1.5218273278
100
AcDbArc
 50
301.3904748974
 51
359.6358280639
  0
ARC
  5
2BD
100
AcDbEntity
  8
0
100
AcDbCircle
 62
7
  6
BYLAYER
 10
211.410612329
 20
186.381808739
 40
1.5218273278
100
AcDbArc
 50
190.363038358
 51
248.6095251026
  0
ARC
  5
2BE
100
AcDbEntity
  8
0
100
AcDbCircle
 62
7
  6
BYLAYER
 10
207.9799423847
 20
185.7768890659
 40
1.5218273278
100
AcDbArc
 50
311.3904748973
 51
9.636961642
  0
ARC
  5
2BF
100
AcDbEntity
  8
0
100
AcDbCircle
 62
7
  6
BYLAYER
 10
209.286707399
 20
186.1270356962
 40
1.5218273278
100
AcDbArc
 50
200.3641719361
 51
258.6095251027
  0
ARC
  5
2C0
100
AcDbEntity
  8
0
100
AcDbCircle
 62
7
  6
BYLAYER
 10
206.0132002387
 20
184.9355765282
 40
1.5218273278
100
AcDbArc
 50
321.3904748973
 51
19.6365929885
  0
ARC
  5
2C1
100
AcDbEntity
  8
0
100
AcDbCircle
 62
7
  6
BYLAYER
 10
207.239310232
 20
185.5073210078
 40
1.5218273278
100
AcDbArc
 50
210.363038358
 51
268.6095251027
  0
ARC
  5
2C2
100
AcDbEntity
  8
0
100
AcDbCircle
 62
7
  6
BYLAYER
 10
204.2224297142
 20
183.7655242288
 40
1.5218273278
100
AcDbArc
 50
331.3904748973
 51
29.636961642
  0
ARC
  5
2C3
100
AcDbEntity
  8
0
100
AcDbCircle
 62
7
  6
BYLAYER
 10
205.3306299547
 20
184.541494391
 40
1.5218273278
100
AcDbArc
 50
220.3641719361
 51
278.6095251027
  0
ARC
  5
2C4
100
AcDbEntity
  8
0
100
AcDbCircle
 62
7
  6
BYLAYER
 10
202.6620424674
 20
182.3022836147
 40
1.5218273278
100
AcDbArc
 50
341.3904748973
 51
39.6361996424
  0
ARC
  5
2C5
100
AcDbEntity
  8
0
100
AcDbCircle
 62
7
  6
BYLAYER
 10
203.6186608515
 20
183.2589019988
 40
1.5218273278
100
AcDbArc
 50
230.363038358
 51
288.6095251027
  0
ARC
  5
2C6
100
AcDbEntity
  8
0
100
AcDbCircle
 62
7
  6
BYLAYER
 10
201.3794500752
 20
180.5903145115
 40
1.5218273278
100
AcDbArc
 50
351.3904748973
 51
49.636961642
  0
ARC
  5
2C7
100
AcDbEntity
  8
0
100
AcDbCircle
 62
7
  6
BYLAYER
 10
202.1554202374
 20
181.698514752
 40
1.5218273278
100
AcDbArc
 50
256.9695253609
 51
298.6095251026
  0
ARC
  5
2C8
100
AcDbEntity
  8
0
100
AcDbCircle
 62
7
  6
BYLAYER
 10
201.3146944662
 20
186.93625
 40
0.5
100
AcDbArc
 50
0.0
 51
180.0
  0
ARC
  5
2C9
100
AcDbEntity
  8
0
100
AcDbCircle
 62
7
  6
BYLAYER
 10
211.8046944662
 20
174.11625
 40
12.5
100
AcDbArc
 50
270.0
 51
90.0
  0
ARC
  5
2CA
100
AcDbEntity
  8
0
100
AcDbCircle
 62
7
  6
BYLAYER
 10
211.8046944662
 20
174.11625
 40
12.14
100
AcDbArc
 50
158.9616341417
 51
161.0383658583
  0
ARC
  5
2CB
100
AcDbEntity
  8
0
100
AcDbCircle
 62
7
  6
BYLAYER
 10
211.8046944662
 20
174.11625
 40
12.14
100
AcDbArc
 50
168.9539268426
 51
171.0460731574
  0
ARC
  5
2CC
100
AcDbEntity
  8
0
100
AcDbCircle
 62
7
  6
BYLAYER
 10
211.8046944662
 20
174.11625
 40
12.14
100
AcDbArc
 50
178.9616341417
 51
181.0383658583
  0
ARC
  5
2CD
100
AcDbEntity
  8
0
100
AcDbCircle
 62
7
  6
BYLAYER
 10
211.8046944662
 20
174.11625
 40
12.14
100
AcDbArc
 50
188.9539268426
 51
191.0460731574
  0
ARC
  5
2CE
100
AcDbEntity
  8
0
100
AcDbCircle
 62
7
  6
BYLAYER
 10
211.8046944662
 20
174.11625
 40
12.14
100
AcDbArc
 50
198.9616341417
 51
201.0383658583
  0
ARC
  5
2CF
100
AcDbEntity
  8
0
100
AcDbCircle
 62
7
  6
BYLAYER
 10
211.8046944662
 20
174.11625
 40
12.14
100
AcDbArc
 50
208.953926826
 51
211.0460685819
  0
ARC
  5
2D0
100
AcDbEntity
  8
0
100
AcDbCircle
 62
7
  6
BYLAYER
 10
211.8046944662
 20
174.11625
 40
12.14
100
AcDbArc
 50
218.9616341417
 51
221.0383658583
  0
ARC
  5
2D1
100
AcDbEntity
  8
0
100
AcDbCircle
 62
7
  6
BYLAYER
 10
211.8046944662
 20
174.11625
 40
12.14
100
AcDbArc
 50
228.9564514138
 51
231.0460731574
  0
ARC
  5
2D2
100
AcDbEntity
  8
0
100
AcDbCircle
 62
7
  6
BYLAYER
 10
211.8046944662
 20
174.11625
 40
12.14
100
AcDbArc
 50
238.9616341417
 51
241.0383658583
  0
ARC
  5
2D3
100
AcDbEntity
  8
0
100
AcDbCircle
 62
7
  6
BYLAYER
 10
211.8046944662
 20
174.11625
 40
12.14
100
AcDbArc
 50
248.9591258162
 51
251.0460731574
  0
ARC
  5
2D4
100
AcDbEntity
  8
0
100
AcDbCircle
 62
7
  6
BYLAYER
 10
211.8046944662
 20
174.11625
 40
12.14
100
AcDbArc
 50
258.9616341417
 51
261.0383658583
  0
ARC
  5
2D5
100
AcDbEntity
  8
0
100
AcDbCircle
 62
7
  6
BYLAYER
 10
211.8046944662
 20
174.11625
 40
12.14
100
AcDbArc
 50
268.9539268426
 51
271.0460731574
  0
ARC
  5
2D6
100
AcDbEntity
  8
0
100
AcDbCircle
 62
7
  6
BYLAYER
 10
211.8046944662
 20
174.11625
 40
12.14
100
AcDbArc
 50
278.9616341417
 51
281.0377720304
  0
ARC
  5
2D7
100
AcDbEntity
  8
0
100
AcDbCircle
 62
7
  6
BYLAYER
 10
211.8046944662
 20
174.11625
 40
12.14
100
AcDbArc
 50
288.9539268426
 51
291.0408741838
  0
ARC
  5
2D8
100
AcDbEntity
  8
0
100
AcDbCircle
 62
7
  6
BYLAYER
 10
211.8046944662
 20
174.11625
 40
12.14
100
AcDbArc
 50
298.9616341417
 51
301.0383658583
  0
ARC
  5
2D9
100
AcDbEntity
  8
0
100
AcDbCircle
 62
7
  6
BYLAYER
 10
211.8046944662
 20
174.11625
 40
12.14
100
AcDbArc
 50
308.9539268426
 51
311.0435485862
  0
ARC
  5
2DA
100
AcDbEntity
  8
0
100
AcDbCircle
 62
7
  6
BYLAYER
 10
211.8046944662
 20
174.11625
 40
12.14
100
AcDbArc
 50
318.9616341417
 51
321.0383658583
  0
ARC
  5
2DB
100
AcDbEntity
  8
0
100
AcDbCircle
 62
7
  6
BYLAYER
 10
211.8046944662
 20
174.11625
 40
12.14
100
AcDbArc
 50
328.9539268426
 51
331.0460731574
  0
ARC
  5
2DC
100
AcDbEntity
  8
0
100
AcDbCircle
 62
7
  6
BYLAYER
 10
211.8046944662
 20
174.11625
 40
12.14
100
AcDbArc
 50
338.9616341417
 51
341.0383658583
  0
ARC
  5
2DD
100
AcDbEntity
  8
0
100
AcDbCircle
 62
7
  6
BYLAYER
 10
211.8046944662
 20
174.11625
 40
12.14
100
AcDbArc
 50
348.9539268426
 51
351.0460731574
  0
ARC
  5
2DE
100
AcDbEntity
  8
0
100
AcDbCircle
 62
7
  6
BYLAYER
 10
211.8046944662
 20
174.11625
 40
12.14
100
AcDbArc
 50
358.9616341417
 51
1.0383658583
  0
ARC
  5
2DF
100
AcDbEntity
  8
0
100
AcDbCircle
 62
7
  6
BYLAYER
 10
211.8046944662
 20
174.11625
 40
12.14
100
AcDbArc
 50
8.9539268426
 51
11.0460731574
  0
ARC
  5
2E0
100
AcDbEntity
  8
0
100
AcDbCircle
 62
7
  6
BYLAYER
 10
211.8046944662
 20
174.11625
 40
12.14
100
AcDbArc
 50
18.9616341417
 51
21.0383658583
  0
ARC
  5
2E1
100
AcDbEntity
  8
0
100
AcDbCircle
 62
7
  6
BYLAYER
 10
211.8046944662
 20
174.11625
 40
12.14
100
AcDbArc
 50
28.9539268426
 51
31.0460731574
  0
ARC
  5
2E2
100
AcDbEntity
  8
0
100
AcDbCircle
 62
7
  6
BYLAYER
 10
211.8046944662
 20
174.11625
 40
12.14
100
AcDbArc
 50
38.9616341417
 51
41.0383658583
  0
ARC
  5
2E3
100
AcDbEntity
  8
0
100
AcDbCircle
 62
7
  6
BYLAYER
 10
211.8046944662
 20
174.11625
 40
12.14
100
AcDbArc
 50
48.9564514138
 51
51.0460731574
  0
ARC
  5
2E4
100
AcDbEntity
  8
0
100
AcDbCircle
 62
7
  6
BYLAYER
 10
211.8046944662
 20
174.11625
 40
12.14
100
AcDbArc
 50
58.9616341417
 51
61.0383658583
  0
ARC
  5
2E5
100
AcDbEntity
  8
0
100
AcDbCircle
 62
7
  6
BYLAYER
 10
211.8046944662
 20
174.11625
 40
12.14
100
AcDbArc
 50
68.9591258162
 51
71.0460731574
  0
ARC
  5
2E6
100
AcDbEntity
  8
0
100
AcDbCircle
 62
7
  6
BYLAYER
 10
211.8046944662
 20
174.11625
 40
12.14
100
AcDbArc
 50
78.9622279696
 51
81.0383658583
  0
ARC
  5
2E7
100
AcDbEntity
  8
0
100
AcDbCircle
 62
7
  6
BYLAYER
 10
211.8046944662
 20
174.11625
 40
12.14
100
AcDbArc
 50
88.9539268426
 51
91.0460731574
  0
ARC
  5
2E8
100
AcDbEntity
  8
0
100
AcDbCircle
 62
7
  6
BYLAYER
 10
211.8046944662
 20
174.11625
 40
12.14
100
AcDbArc
 50
98.9616341417
 51
101.0383658583
  0
ARC
  5
2E9
100
AcDbEntity
  8
0
100
AcDbCircle
 62
7
  6
BYLAYER
 10
211.8046944662
 20
174.11625
 40
12.14
100
AcDbArc
 50
108.9539268426
 51
111.0408741838
  0
ARC
  5
2EA
100
AcDbEntity
  8
0
100
AcDbCircle
 62
7
  6
BYLAYER
 10
211.8046944662
 20
174.11625
 40
12.14
100
AcDbArc
 50
118.9616341417
 51
121.0383658583
  0
ARC
  5
2EB
100
AcDbEntity
  8
0
100
AcDbCircle
 62
7
  6
BYLAYER
 10
211.8046944662
 20
174.11625
 40
12.14
100
AcDbArc
 50
128.9539268426
 51
131.0435485862
  0
ARC
  5
2EC
100
AcDbEntity
  8
0
100
AcDbCircle
 62
7
  6
BYLAYER
 10
211.8046944662
 20
174.11625
 40
12.14
100
AcDbArc
 50
138.9616341417
 51
141.0383658583
  0
ARC
  5
2ED
100
AcDbEntity
  8
0
100
AcDbCircle
 62
7
  6
BYLAYER
 10
211.8046944662
 20
174.11625
 40
5.0
100
AcDbArc
 50
240.0992405826
 51
239.9474692647
  0
ARC
  5
2EE
100
AcDbEntity
  8
0
100
AcDbCircle
 62
7
  6
BYLAYER
 10
223.9523434524
 20
175.858046779
 40
1.5218273278
100
AcDbArc
 50
211.3904748974
 51
269.6369616421
  0
ARC
  5
2EF
100
AcDbEntity
  8
0
100
AcDbCircle
 62
7
  6
BYLAYER
 10
224.0702532052
 20
174.5103321372
 40
1.5218273278
100
AcDbArc
 50
100.3641719361
 51
158.6095251027
  0
ARC
  5
2F0
100
AcDbEntity
  8
0
100
AcDbCircle
 62
7
  6
BYLAYER
 10
223.8154801624
 20
176.6342370672
 40
1.5218273278
100
AcDbArc
 50
110.363038358
 51
168.6095251027
  0
ARC
  5
2F1
100
AcDbEntity
  8
0
100
AcDbCircle
 62
7
  6
BYLAYER
 10
223.4653335321
 20
177.9410020815
 40
1.5218273278
100
AcDbArc
 50
221.3904748974
 51
279.6358280639
  0
ARC
  5
2F2
100
AcDbEntity
  8
0
100
AcDbCircle
 62
7
  6
BYLAYER
 10
222.6240209944
 20
179.9077442275
 40
1.5218273278
100
AcDbArc
 50
231.3904748973
 51
289.636961642
  0
ARC
  5
2F3
100
AcDbEntity
  8
0
100
AcDbCircle
 62
7
  6
BYLAYER
 10
223.195765474
 20
178.6816342342
 40
1.5218273278
100
AcDbArc
 50
120.3641719361
 51
178.6095251026
  0
ARC
  5
2F4
100
AcDbEntity
  8
0
100
AcDbCircle
 62
7
  6
BYLAYER
 10
221.453968695
 20
181.698514752
 40
1.5218273278
100
AcDbArc
 50
241.3904748974
 51
299.6358280639
  0
ARC
  5
2F5
100
AcDbEntity
  8
0
100
AcDbCircle
 62
7
  6
BYLAYER
 10
222.2299388572
 20
180.5903145115
 40
1.5218273278
100
AcDbArc
 50
130.363038358
 51
188.6095251027
  0
ARC
  5
2F6
100
AcDbEntity
  8
0
100
AcDbCircle
 62
7
  6
BYLAYER
 10
219.9907280809
 20
183.2589019988
 40
1.5218273278
100
AcDbArc
 50
251.3904748973
 51
309.636961642
  0
ARC
  5
2F7
100
AcDbEntity
  8
0
100
AcDbCircle
 62
7
  6
BYLAYER
 10
220.947346465
 20
182.3022836147
 40
1.5218273278
100
AcDbArc
 50
140.3638003576
 51
198.6095251027
  0
ARC
  5
2F8
100
AcDbEntity
  8
0
100
AcDbCircle
 62
7
  6
BYLAYER
 10
218.2787589777
 20
184.541494391
 40
1.5218273278
100
AcDbArc
 50
261.3735410233
 51
319.6358280639
  0
ARC
  5
2F9
100
AcDbEntity
  8
0
100
AcDbCircle
 62
7
  6
BYLAYER
 10
219.3869592182
 20
183.7655242288
 40
1.5218273278
100
AcDbArc
 50
150.363038358
 51
208.6016057482
  0
ARC
  5
2FA
100
AcDbEntity
  8
0
100
AcDbCircle
 62
7
  6
BYLAYER
 10
216.3700787004
 20
185.5073210078
 40
1.5218273278
100
AcDbArc
 50
271.3904748973
 51
329.636961642
  0
ARC
  5
2FB
100
AcDbEntity
  8
0
100
AcDbCircle
 62
7
  6
BYLAYER
 10
217.5961886937
 20
184.9355765282
 40
1.5218273278
100
AcDbArc
 50
160.3634070115
 51
218.6095251027
  0
ARC
  5
2FC
100
AcDbEntity
  8
0
100
AcDbCircle
 62
7
  6
BYLAYER
 10
214.3226815334
 20
186.1270356962
 40
1.5218273278
100
AcDbArc
 50
281.3904748973
 51
339.6358280639
  0
ARC
  5
2FD
100
AcDbEntity
  8
0
100
AcDbCircle
 62
7
  6
BYLAYER
 10
215.6294465478
 20
185.7768890659
 40
1.5218273278
100
AcDbArc
 50
170.3629511196
 51
228.6095251027
  0
ARC
  5
2FE
100
AcDbEntity
  8
0
100
AcDbCircle
 62
7
  6
BYLAYER
 10
212.1987766034
 20
186.381808739
 40
1.5218273278
100
AcDbArc
 50
291.3904748973
 51
349.636961642
  0
ARC
  5
2FF
100
AcDbEntity
  8
0
100
AcDbCircle
 62
7
  6
BYLAYER
 10
213.5464912452
 20
186.2638989862
 40
1.5218273278
100
AcDbArc
 50
180.3641719361
 51
238.6095251027
  0
ARC
  5
300
100
AcDbEntity
  8
0
100
AcDbCircle
 62
7
  6
BYLAYER
 10
191.4713774089
 20
194.1608155426
 40
3.3603990229
100
AcDbArc
 50
216.4500338755
 51
323.5499661245
  0
ARC
  5
301
100
AcDbEntity
  8
0
100
AcDbCircle
 62
7
  6
BYLAYER
 10
184.8164864584
 20
194.160133137
 40
3.3597164937
100
AcDbArc
 50
216.4441634671
 51
323.5558365328
  0
ARC
  5
302
100
AcDbEntity
  8
0
100
AcDbCircle
 62
7
  6
BYLAYER
 10
194.9880843053
 20
191.8880829367
 40
0.8592995645
100
AcDbArc
 50
102.6884429871
 51
161.2475794239
  0
ARC
  5
303
100
AcDbEntity
  8
0
100
AcDbCircle
 62
7
  6
BYLAYER
 10
188.1437596789
 20
191.992693055
 40
0.647749338
100
AcDbArc
 50
15.365436972
 51
164.634563028
  0
ARC
  5
304
100
AcDbEntity
  8
0
100
AcDbCircle
 62
7
  6
BYLAYER
 10
181.4892132379
 20
191.992693055
 40
0.647749338
100
AcDbArc
 50
15.365436972
 51
164.634563028
  0
ENDSEC
  0
SECTION
  2
OBJECTS
  0
DICTIONARY
  5
C
100
AcDbDictionary
280
0
281
1
  3
ACAD_GROUP
350
D
  3
ACAD_MLINESTYLE
350
17
  3
ACAD_LAYOUT
350
1A
  3
ACAD_PLOTSETTINGS
350
19
  3
ACAD_PLOTSTYLENAME
350
E
  0
DICTIONARY
  5
D
102
{ACAD_REACTORS
330
C
102
}
100
AcDbDictionary
280
0
281
1
  0
ACDBDICTIONARYWDFLT
  5
E
102
{ACAD_REACTORS
330
C
102
}
100
AcDbDictionary
281
1
  3
Normal
350
F
100
AcDbDictionaryWithDefault
340
F
  0
DICTIONARY
  5
17
102
{ACAD_REACTORS
330
C
102
}
100
AcDbDictionary
280
0
281
1
  3
Standard
350
18
  0
DICTIONARY
  5
19
102
{ACAD_REACTORS
330
C
102
}
100
AcDbDictionary
281
1
  0
DICTIONARY
  5
1A
102
{ACAD_REACTORS
330
C
102
}
100
AcDbDictionary
281
1
  3
Model
350
305
  3
Layout1
350
306
  0
ACDBPLACEHOLDER
  5
F
102
{ACAD_REACTORS
330
E
102
}
  0
MLINESTYLE
  5
18
102
{ACAD_REACTORS
330
17
102
}
100
AcDbMlineStyle
  2
STANDARD
 70
0
  3

 62
256
 51
90.0
 52
90.0
 71
2
 49
0.5
 62
256
  6
BYLAYER
 49
-0.5
 62
256
  6
BYLAYER
  0
LAYOUT
  5
305
102
{ACAD_REACTORS
330
1A
102
}
100
AcDbPlotSettings
  1

  2
none_device
  4

  6

 40
0.0
 41
0.0
 42
0.0
 43
0.0
 44
210.0
 45
297.0
 46
0.0
 47
0.0
 48
0.0
 49
0.0
140
0.0
141
0.0
142
1.0
143
1.0
 70
1024
 72
1
 73
0
 74
0
  7

 75
0
147
1.0
148
0.0
149
0.0
100
AcDbLayout
  1
Model
 70
0
 71
0
 10
0.0
 20
0.0
 11
210.0
 21
297.0
 12
0.0
 22
0.0
 32
0.0
 14
0.0
 24
0.0
 34
0.0
 15
0.0
 25
0.0
 35
0.0
146
0.0
 13
0.0
 23
0.0
 33
0.0
 16
1.0
 26
0.0
 36
0.0
 17
0.0
 27
1.0
 37
0.0
 76
0
330
210
345
0
346
0
  0
LAYOUT
  5
306
102
{ACAD_REACTORS
330
1A
102
}
100
AcDbPlotSettings
  1

  2
none_device
  4

  6

 40
0.0
 41
0.0
 42
0.0
 43
0.0
 44
210.0
 45
297.0
 46
0.0
 47
0.0
 48
0.0
 49
0.0
140
0.0
141
0.0
142
1.0
143
1.0
 70
0
 72
1
 73
0
 74
0
  7

 75
0
147
1.0
148
0.0
149
0.0
100
AcDbLayout
  1
Layout1
 70
0
 71
1
 10
0.0
 20
0.0
 11
210.0
 21
297.0
 12
0.0
 22
0.0
 32
0.0
 14
0.0
 24
0.0
 34
0.0
 15
0.0
 25
0.0
 35
0.0
146
0.0
 13
0.0
 23
0.0
 33
0.0
 16
1.0
 26
0.0
 36
0.0
 17
0.0
 27
1.0
 37
0.0
 76
0
330
211
345
0
346
0
  0
ENDSEC
  0
EOF
