999
DXF file: C:\Users\sesa63760\Dev\_Creo\CAD\MCADID0003471_3D-CAD\drw0001_5.dxf
999
Pro/ENGINEER 2019471 by Parametric Technology Corporation
  0
SECTION
  2
HEADER
  9
$ACADVER
  1
AC1024
  9
$DWGCODEPAGE
  3
ANSI_1252
  9
$EXTMAX
 10
100.1512201401
 20
141.6424399124
 30
0.0
  9
$EXTMIN
 10
0.0
 20
0.0
 30
0.0
  9
$LIMMIN
 10
0.0
 20
0.0
  9
$LIMMAX
 10
100.1512201401
 20
141.6424399124
  9
$VIEWCTR
 10
50.07561007
 20
70.8212199562
  9
$VIEWSIZE
 40
141.6424399124
  9
$CLAYER
  8
0
  9
$LTSCALE
 40
9.2329886758
  9
$CELTYPE
  6
BYLAYER
  9
$DIMSCALE
 40
1.0
  9
$DIMASZ
 40
1.1922764302
  9
$DIMEXO
 40
1.0
  9
$DIMDLI
 40
6.3791558124
  9
$DIMEXE
 40
1.0
  9
$DIMCEN
 40
1.5108526924
  9
$DIMLFAC
 40
1.0
  9
$DIMBLK
  1
_FILLED
  9
$DIMALT
 70
0
  9
$DIMALTF
 40
0.0393700787
  9
$DIMTXT
 40
1.6691870023
  9
$DIMTOL
 70
1
  9
$DIMLIM
 70
0
  9
$DIMTFAC
 40
1.0
  9
$DIMTP
 40
0.01
  9
$DIMTM
 40
0.01
  9
$DIMGAP
 40
0.625
  9
$DIMDSEP
 70
46
  9
$AUNITS
 70
0
  9
$PDMODE
 70
3
  9
$PDSIZE
 40
0.3125
  9
$HANDSEED
  5
2A0
  9
$TILEMODE
 70
1
  9
$MEASUREMENT
 70
1
  9
$INSUNITS
 70
4
  0
ENDSEC
  0
SECTION
  2
CLASSES
  0
CLASS
  1
ACDBDICTIONARYWDFLT
  2
AcDbDictionaryWithDefault
  3
AutoCAD 2000
 90
0
 91
1
280
0
281
0
  0
CLASS
  1
ACDBPLACEHOLDER
  2
AcDbPlaceHolder
  3
AutoCAD 2000
 90
0
 91
1
280
0
281
0
  0
CLASS
  1
LAYOUT
  2
AcDbLayout
  3
AutoCAD 2000
 90
0
 91
0
280
0
281
0
  0
ENDSEC
  0
SECTION
  2
TABLES
  0
TABLE
  2
VPORT
  5
8
100
AcDbSymbolTable
 70
2
  0
VPORT
  5
1F4
100
AcDbSymbolTableRecord
100
AcDbViewportTableRecord
  2
*ACTIVE
 70
0
 10
0.0
 20
0.0
 11
1.0
 21
1.0
 12
50.07561007
 22
70.8212199562
 13
0.0
 23
0.0
 14
1.0
 24
1.0
 15
0.0
 25
0.0
 16
0.0
 26
0.0
 36
1.0
 17
0.0
 27
0.0
 37
0.0
 40
141.6424399124
 41
0.7070707071
 42
50.0
 43
0.0
 44
0.0
 50
0.0
 51
0.0
 71
0
 72
100
 73
1
 74
1
 75
0
 76
0
 77
0
 78
0
  0
ENDTAB
  0
TABLE
  2
LTYPE
  5
5
100
AcDbSymbolTable
 70
6
  0
LTYPE
  5
14
100
AcDbSymbolTableRecord
100
AcDbLinetypeTableRecord
  2
BYBLOCK
 70
0
  3

 72
65
 73
0
 40
0.0
  0
LTYPE
  5
15
100
AcDbSymbolTableRecord
100
AcDbLinetypeTableRecord
  2
BYLAYER
 70
0
  3

 72
65
 73
0
 40
0.0
  0
LTYPE
  5
16
100
AcDbSymbolTableRecord
100
AcDbLinetypeTableRecord
  2
CONTINUOUS
 70
64
  3
Solid line
 72
65
 73
0
 40
0.0
  0
LTYPE
  5
1F5
100
AcDbSymbolTableRecord
100
AcDbLinetypeTableRecord
  2
CENTER
 70
64
  3
____ _ ____ _ ____ _ ____ _ ____ _ ____ _ ____
 72
65
 73
4
 40
0.6
 49
0.375
 74
0
 49
-0.075
 74
0
 49
0.075
 74
0
 49
-0.075
 74
0
  0
LTYPE
  5
1F6
100
AcDbSymbolTableRecord
100
AcDbLinetypeTableRecord
  2
HIDDEN
 70
64
  3
- - - - - - - - - - - - - - - - - - - -
 72
65
 73
2
 40
0.2
 49
0.1
 74
0
 49
-0.1
 74
0
  0
LTYPE
  5
1F7
100
AcDbSymbolTableRecord
100
AcDbLinetypeTableRecord
  2
PHANTOM
 70
64
  3
_____ _ _ _____ _ _ _____ _ _ _____
 72
65
 73
6
 40
0.8
 49
0.45
 74
0
 49
-0.05
 74
0
 49
0.1
 74
0
 49
-0.05
 74
0
 49
0.1
 74
0
 49
-0.05
 74
0
  0
LTYPE
  5
1F8
100
AcDbSymbolTableRecord
100
AcDbLinetypeTableRecord
  2
DOT
 70
64
  3
. . . . . . . . . . . . . . . . . . . .
 72
65
 73
2
 40
0.2
 49
0.1
 74
0
 49
-0.1
 74
0
  0
LTYPE
  5
1F9
100
AcDbSymbolTableRecord
100
AcDbLinetypeTableRecord
  2
DASHED
 70
64
  3
- - - - - - - - - - - - - - - - - - - -
 72
65
 73
2
 40
0.2
 49
0.1
 74
0
 49
-0.1
 74
0
  0
ENDTAB
  0
TABLE
  2
LAYER
  5
2
100
AcDbSymbolTable
 70
36
  0
LAYER
  5
10
100
AcDbSymbolTableRecord
100
AcDbLayerTableRecord
  2
0
 70
0
 62
7
  6
CONTINUOUS
370
-3
390
F
  0
LAYER
  5
1FA
100
AcDbSymbolTableRecord
100
AcDbLayerTableRecord
  2
DEFAULT_1
 70
0
 62
7
  6
CENTER
370
-3
390
F
  0
LAYER
  5
1FB
100
AcDbSymbolTableRecord
100
AcDbLayerTableRecord
  2
DEFAULT_2
 70
0
 62
7
  6
HIDDEN
370
-3
390
F
  0
LAYER
  5
1FC
100
AcDbSymbolTableRecord
100
AcDbLayerTableRecord
  2
DEFAULT_3
 70
0
 62
7
  6
PHANTOM
370
-3
390
F
  0
LAYER
  5
1FD
100
AcDbSymbolTableRecord
100
AcDbLayerTableRecord
  2
00_COMPONENTS
 70
0
 62
7
  6
CONTINUOUS
370
-3
390
F
  0
LAYER
  5
1FE
100
AcDbSymbolTableRecord
100
AcDbLayerTableRecord
  2
01_1_DEFAULT_DATUMS
 70
0
 62
7
  6
CONTINUOUS
370
-3
390
F
  0
LAYER
  5
1FF
100
AcDbSymbolTableRecord
100
AcDbLayerTableRecord
  2
01_PLANES
 70
0
 62
7
  6
CONTINUOUS
370
-3
390
F
  0
LAYER
  5
200
100
AcDbSymbolTableRecord
100
AcDbLayerTableRecord
  2
02_COORD_SYS
 70
0
 62
7
  6
CONTINUOUS
370
-3
390
F
  0
LAYER
  5
201
100
AcDbSymbolTableRecord
100
AcDbLayerTableRecord
  2
03_AXES
 70
0
 62
7
  6
CONTINUOUS
370
-3
390
F
  0
LAYER
  5
202
100
AcDbSymbolTableRecord
100
AcDbLayerTableRecord
  2
04_POINTS
 70
0
 62
7
  6
CONTINUOUS
370
-3
390
F
  0
LAYER
  5
203
100
AcDbSymbolTableRecord
100
AcDbLayerTableRecord
  2
05_CURVES
 70
0
 62
7
  6
CONTINUOUS
370
-3
390
F
  0
LAYER
  5
204
100
AcDbSymbolTableRecord
100
AcDbLayerTableRecord
  2
06_SURFS
 70
0
 62
7
  6
CONTINUOUS
370
-3
390
F
  0
LAYER
  5
205
100
AcDbSymbolTableRecord
100
AcDbLayerTableRecord
  2
07_COSMETICS
 70
0
 62
7
  6
CONTINUOUS
370
-3
390
F
  0
LAYER
  5
206
100
AcDbSymbolTableRecord
100
AcDbLayerTableRecord
  2
10_NOTES
 70
0
 62
7
  6
CONTINUOUS
370
-3
390
F
  0
LAYER
  5
207
100
AcDbSymbolTableRecord
100
AcDbLayerTableRecord
  2
11_NOTES_PUB
 70
0
 62
7
  6
CONTINUOUS
370
-3
390
F
  0
LAYER
  5
208
100
AcDbSymbolTableRecord
100
AcDbLayerTableRecord
  2
13_REF_GTOL
 70
0
 62
7
  6
CONTINUOUS
370
-3
390
F
  0
LAYER
  5
209
100
AcDbSymbolTableRecord
100
AcDbLayerTableRecord
  2
16_MISC
 70
0
 62
7
  6
CONTINUOUS
370
-3
390
F
  0
LAYER
  5
20A
100
AcDbSymbolTableRecord
100
AcDbLayerTableRecord
  2
17_NO_PRINT
 70
0
 62
7
  6
CONTINUOUS
370
-3
390
F
  0
LAYER
  5
20B
100
AcDbSymbolTableRecord
100
AcDbLayerTableRecord
  2
18_DATUM_CAMS_JOINTS
 70
0
 62
7
  6
CONTINUOUS
370
-3
390
F
  0
LAYER
  5
20C
100
AcDbSymbolTableRecord
100
AcDbLayerTableRecord
  2
19_DATUM_FUNCTIONAL
 70
0
 62
7
  6
CONTINUOUS
370
-3
390
F
  0
LAYER
  5
20D
100
AcDbSymbolTableRecord
100
AcDbLayerTableRecord
  2
20_DATUM_KINEMATIC_SCHEME
 70
0
 62
7
  6
CONTINUOUS
370
-3
390
F
  0
ENDTAB
  0
TABLE
  2
STYLE
  5
3
100
AcDbSymbolTable
 70
1
  0
STYLE
  5
11
100
AcDbSymbolTableRecord
100
AcDbTextStyleTableRecord
  2
STANDARD
 70
0
 40
0.0
 41
1.0
 50
0.0
 71
0
 42
0.2
  3
ARIAL.TTF
  4

  0
STYLE
  5
20E
100
AcDbSymbolTableRecord
100
AcDbTextStyleTableRecord
  2
TEXTSTYLE_1
 70
0
 40
0.0
 41
0.8
 50
0.0
 71
0
 42
0.2
  3
gdt
  4

  0
ENDTAB
  0
TABLE
  2
VIEW
  5
6
100
AcDbSymbolTable
 70
0
  0
ENDTAB
  0
TABLE
  2
UCS
  5
7
100
AcDbSymbolTable
 70
0
  0
ENDTAB
  0
TABLE
  2
APPID
  5
9
100
AcDbSymbolTable
 70
1
  0
APPID
  5
20F
100
AcDbSymbolTableRecord
100
AcDbRegAppTableRecord
  2
ACAD
 70
0
  0
ENDTAB
  0
TABLE
  2
BLOCK_RECORD
  5
1
100
AcDbSymbolTable
 70
0
  0
BLOCK_RECORD
  5
210
100
AcDbSymbolTableRecord
100
AcDbBlockTableRecord
  2
*Model_Space
  0
BLOCK_RECORD
  5
211
100
AcDbSymbolTableRecord
100
AcDbBlockTableRecord
  2
*Paper_Space
  0
BLOCK_RECORD
  5
212
100
AcDbSymbolTableRecord
100
AcDbBlockTableRecord
  2
_FILLED
  0
ENDTAB
  0
TABLE
  2
DIMSTYLE
  5
A
100
AcDbSymbolTable
 70
1
100
AcDbDimStyleTable
 71
0
  0
DIMSTYLE
105
213
100
AcDbSymbolTableRecord
100
AcDbDimStyleTableRecord
  2
STANDARD
 70
0
  3

  4

 40
1.0
 41
1.1922764302
 42
1.0
 43
0.38
 44
1.0
 45
0.0
 46
0.0
 47
0.01
 48
0.01
140
1.6691870023
141
0.09
142
0.0
143
25.4
144
1.0
145
0.0
146
1.0
147
0.625
 71
1
 72
0
 73
0
 74
0
 75
0
 76
0
 77
1
 78
8
 79
2
170
0
171
1
172
0
173
0
174
0
175
0
176
0
177
0
178
0
270
2
179
2
271
2
272
2
273
2
274
2
275
0
280
0
281
0
282
0
283
1
284
8
285
0
286
0
287
3
288
0
340
11
278
46
341
212
342
212
343
212
344
212
  0
ENDTAB
  0
ENDSEC
  0
SECTION
  2
BLOCKS
  0
BLOCK
  5
20
100
AcDbEntity
  8
0
100
AcDbBlockBegin
  2
*Model_Space
 70
0
 10
0.0
 20
0.0
 30
0.0
  3
*Model_Space
  1

  0
ENDBLK
  5
21
100
AcDbEntity
  8
0
100
AcDbBlockEnd
  0
BLOCK
  5
1C
100
AcDbEntity
  8
0
100
AcDbBlockBegin
  2
*Paper_Space
 70
0
 10
0.0
 20
0.0
 30
0.0
  3
*Paper_Space
  1

  0
ENDBLK
  5
1D
100
AcDbEntity
  8
0
100
AcDbBlockEnd
  0
BLOCK
  5
214
100
AcDbEntity
  8
0
100
AcDbBlockBegin
  2
_FILLED
 70
64
 10
0.0
 20
0.0
  3
_FILLED
  1

  0
SOLID
  5
215
100
AcDbEntity
  8
0
  6
BYBLOCK
 62
0
100
AcDbTrace
 10
0.0
 20
0.0
 11
-1.0
 21
0.25
 12
-1.0
 22
-0.25
 13
-1.0
 23
-0.25
  0
ENDBLK
  5
216
100
AcDbEntity
  8
0
  6
BYBLOCK
 62
0
100
AcDbBlockEnd
  0
ENDSEC
  0
SECTION
  2
ENTITIES
  0
LINE
  5
217
100
AcDbEntity
  8
0
100
AcDbLine
 62
7
  6
BYLAYER
 10
34.412561746
 20
11.5290358068
 11
61.712561746
 21
11.5290358068
  0
LINE
  5
218
100
AcDbEntity
  8
0
100
AcDbLine
 62
7
  6
BYLAYER
 10
61.712561746
 20
17.8903522236
 11
62.212561746
 21
17.8903522236
  0
LINE
  5
219
100
AcDbEntity
  8
0
100
AcDbLine
 62
7
  6
BYLAYER
 10
61.712561746
 20
18.1290358068
 11
59.412561746
 21
18.1290358068
  0
LINE
  5
21A
100
AcDbEntity
  8
0
100
AcDbLine
 62
7
  6
BYLAYER
 10
59.412561746
 20
19.2290358068
 11
59.712561746
 21
19.2290358068
  0
LINE
  5
21B
100
AcDbEntity
  8
0
100
AcDbLine
 62
7
  6
BYLAYER
 10
33.912561746
 20
21.8290358068
 11
34.412561746
 21
21.8290358068
  0
LINE
  5
21C
100
AcDbEntity
  8
0
100
AcDbLine
 62
7
  6
BYLAYER
 10
52.6677460785
 20
25.7790358068
 11
47.662561746
 21
25.7790358068
  0
LINE
  5
21D
100
AcDbEntity
  8
0
100
AcDbLine
 62
7
  6
BYLAYER
 10
46.162561746
 20
25.7790358068
 11
41.1573774136
 21
25.7790358068
  0
LINE
  5
21E
100
AcDbEntity
  8
0
100
AcDbLine
 62
7
  6
BYLAYER
 10
45.912561746
 20
125.4821280408
 11
46.412561746
 21
125.9821280408
  0
LINE
  5
21F
100
AcDbEntity
  8
0
100
AcDbLine
 62
7
  6
BYLAYER
 10
41.1573774136
 20
27.2790358068
 11
46.162561746
 21
27.2790358068
  0
LINE
  5
220
100
AcDbEntity
  8
0
100
AcDbLine
 62
7
  6
BYLAYER
 10
47.662561746
 20
27.2790358068
 11
52.6677460785
 21
27.2790358068
  0
LINE
  5
221
100
AcDbEntity
  8
0
100
AcDbLine
 62
7
  6
BYLAYER
 10
33.912561746
 20
31.8290358068
 11
34.412561746
 21
31.8290358068
  0
LINE
  5
222
100
AcDbEntity
  8
0
100
AcDbLine
 62
7
  6
BYLAYER
 10
33.912561746
 20
21.8292430461
 11
33.912561746
 21
31.8288285676
  0
LINE
  5
223
100
AcDbEntity
  8
0
100
AcDbLine
 62
7
  6
BYLAYER
 10
33.912561746
 20
65.0292430461
 11
33.912561746
 21
75.0288285676
  0
LINE
  5
224
100
AcDbEntity
  8
0
100
AcDbLine
 62
7
  6
BYLAYER
 10
34.412561746
 20
75.1290358068
 11
34.412561746
 21
11.5290358068
  0
LINE
  5
225
100
AcDbEntity
  8
0
100
AcDbLine
 62
7
  6
BYLAYER
 10
34.912561746
 20
75.0290358068
 11
34.912561746
 21
81.6290358068
  0
LINE
  5
226
100
AcDbEntity
  8
0
100
AcDbLine
 62
7
  6
BYLAYER
 10
34.962561746
 20
103.5290358068
 11
34.962561746
 21
81.6290358068
  0
LINE
  5
227
100
AcDbEntity
  8
0
100
AcDbLine
 62
7
  6
BYLAYER
 10
38.912561746
 20
75.0290358068
 11
38.912561746
 21
64.0290358068
  0
LINE
  5
228
100
AcDbEntity
  8
0
100
AcDbLine
 62
7
  6
BYLAYER
 10
59.412561746
 20
56.0790358068
 11
59.712561746
 21
56.0790358068
  0
LINE
  5
229
100
AcDbEntity
  8
0
100
AcDbLine
 62
7
  6
BYLAYER
 10
59.712561746
 20
56.6125372762
 11
59.412561746
 21
56.6125372762
  0
LINE
  5
22A
100
AcDbEntity
  8
0
100
AcDbLine
 62
7
  6
BYLAYER
 10
59.412561746
 20
57.3290358068
 11
60.712561746
 21
57.3290358068
  0
LINE
  5
22B
100
AcDbEntity
  8
0
100
AcDbLine
 62
7
  6
BYLAYER
 10
41.662561746
 20
103.5290358068
 11
41.662561746
 21
101.0290358068
  0
LINE
  5
22C
100
AcDbEntity
  8
0
100
AcDbLine
 62
7
  6
BYLAYER
 10
58.3125610323
 20
91.7040380721
 11
58.0125593131
 21
91.4040365595
  0
LINE
  5
22D
100
AcDbEntity
  8
0
100
AcDbLine
 62
7
  6
BYLAYER
 10
45.912561746
 20
116.4821854221
 11
45.912561746
 21
125.4820706594
  0
LINE
  5
22E
100
AcDbEntity
  8
0
100
AcDbLine
 62
7
  6
BYLAYER
 10
46.162561746
 20
20.7738514744
 11
46.162561746
 21
25.7790358068
  0
LINE
  5
22F
100
AcDbEntity
  8
0
100
AcDbLine
 62
7
  6
BYLAYER
 10
46.162561746
 20
27.2790358068
 11
46.162561746
 21
32.2842201393
  0
LINE
  5
230
100
AcDbEntity
  8
0
100
AcDbLine
 62
7
  6
BYLAYER
 10
46.412561746
 20
115.9821280408
 11
46.412561746
 21
125.9821280408
  0
LINE
  5
231
100
AcDbEntity
  8
0
100
AcDbLine
 62
7
  6
BYLAYER
 10
47.412561746
 20
125.9821252812
 11
47.412561746
 21
115.9821308003
  0
LINE
  5
232
100
AcDbEntity
  8
0
100
AcDbLine
 62
7
  6
BYLAYER
 10
47.662561746
 20
32.2842201393
 11
47.662561746
 21
27.2790358068
  0
LINE
  5
233
100
AcDbEntity
  8
0
100
AcDbLine
 62
7
  6
BYLAYER
 10
47.662561746
 20
25.7790358068
 11
47.662561746
 21
20.7738514744
  0
LINE
  5
234
100
AcDbEntity
  8
0
100
AcDbLine
 62
7
  6
BYLAYER
 10
62.612561746
 20
99.2290358068
 11
63.0744419614
 21
100.0290358068
  0
LINE
  5
235
100
AcDbEntity
  8
0
100
AcDbLine
 62
7
  6
BYLAYER
 10
69.0125497486
 20
93.9290499967
 11
68.6125448316
 21
93.5290500678
  0
LINE
  5
236
100
AcDbEntity
  8
0
100
AcDbLine
 62
7
  6
BYLAYER
 10
60.712561746
 20
63.9888770944
 11
62.212561746
 21
63.9888770944
  0
LINE
  5
237
100
AcDbEntity
  8
0
100
AcDbLine
 62
7
  6
BYLAYER
 10
60.712561746
 20
64.0290358068
 11
38.912561746
 21
64.0290358068
  0
LINE
  5
238
100
AcDbEntity
  8
0
100
AcDbLine
 62
7
  6
BYLAYER
 10
61.912561746
 20
64.2790358068
 11
59.412561746
 21
64.2790358068
  0
LINE
  5
239
100
AcDbEntity
  8
0
100
AcDbLine
 62
7
  6
BYLAYER
 10
61.912561746
 20
64.4688617352
 11
62.212561746
 21
64.4688617352
  0
LINE
  5
23A
100
AcDbEntity
  8
0
100
AcDbLine
 62
7
  6
BYLAYER
 10
59.412561746
 20
64.6290358068
 11
62.212561746
 21
64.6290358068
  0
LINE
  5
23B
100
AcDbEntity
  8
0
100
AcDbLine
 62
7
  6
BYLAYER
 10
33.912561746
 20
65.0290358068
 11
34.412561746
 21
65.0290358068
  0
LINE
  5
23C
100
AcDbEntity
  8
0
100
AcDbLine
 62
7
  6
BYLAYER
 10
53.712561746
 20
65.4290358068
 11
60.512561746
 21
65.4290358068
  0
LINE
  5
23D
100
AcDbEntity
  8
0
100
AcDbLine
 62
7
  6
BYLAYER
 10
48.112561746
 20
116.4821669044
 11
48.112561746
 21
125.4820891771
  0
LINE
  5
23E
100
AcDbEntity
  8
0
100
AcDbLine
 62
7
  6
BYLAYER
 10
48.612561746
 20
111.4822071948
 11
48.612561746
 21
130.4820488868
  0
LINE
  5
23F
100
AcDbEntity
  8
0
100
AcDbLine
 62
7
  6
BYLAYER
 10
53.712561746
 20
70.0290358068
 11
38.912561746
 21
70.0290358068
  0
LINE
  5
240
100
AcDbEntity
  8
0
100
AcDbLine
 62
7
  6
BYLAYER
 10
53.712561746
 20
70.8290358068
 11
60.512561746
 21
70.8290358068
  0
LINE
  5
241
100
AcDbEntity
  8
0
100
AcDbLine
 62
7
  6
BYLAYER
 10
53.612561746
 20
130.4820488868
 11
53.612561746
 21
111.4822071948
  0
LINE
  5
242
100
AcDbEntity
  8
0
100
AcDbLine
 62
7
  6
BYLAYER
 10
53.712561746
 20
65.4290358068
 11
53.712561746
 21
70.8290358068
  0
LINE
  5
243
100
AcDbEntity
  8
0
100
AcDbLine
 62
7
  6
BYLAYER
 10
55.162561746
 20
103.5290358068
 11
55.162561746
 21
83.6290358068
  0
LINE
  5
244
100
AcDbEntity
  8
0
100
AcDbLine
 62
7
  6
BYLAYER
 10
55.612561746
 20
125.9820501108
 11
55.612561746
 21
116.525171879
  0
LINE
  5
245
100
AcDbEntity
  8
0
100
AcDbLine
 62
7
  6
BYLAYER
 10
65.312561746
 20
92.8290358068
 11
64.8506815307
 21
92.0290358068
  0
LINE
  5
246
100
AcDbEntity
  8
0
100
AcDbLine
 62
7
  6
BYLAYER
 10
33.912561746
 20
75.0290358068
 11
38.912561746
 21
75.0290358068
  0
LINE
  5
247
100
AcDbEntity
  8
0
100
AcDbLine
 62
7
  6
BYLAYER
 10
62.212561746
 20
75.1290358068
 11
34.412561746
 21
75.1290358068
  0
LINE
  5
248
100
AcDbEntity
  8
0
100
AcDbLine
 62
7
  6
BYLAYER
 10
56.662561746
 20
103.5290358068
 11
56.662561746
 21
83.6290358068
  0
LINE
  5
249
100
AcDbEntity
  8
0
100
AcDbLine
 62
7
  6
BYLAYER
 10
57.112561746
 20
123.0321253088
 11
57.112561746
 21
118.9321307727
  0
LINE
  5
24A
100
AcDbEntity
  8
0
100
AcDbLine
 62
7
  6
BYLAYER
 10
58.0125593131
 20
100.6540358068
 11
58.0125593131
 21
91.4040358068
  0
LINE
  5
24B
100
AcDbEntity
  8
0
100
AcDbLine
 62
7
  6
BYLAYER
 10
58.312561746
 20
100.35388107
 11
58.312561746
 21
91.7041905437
  0
LINE
  5
24C
100
AcDbEntity
  8
0
100
AcDbLine
 62
7
  6
BYLAYER
 10
59.412561746
 20
65.4290358068
 11
59.412561746
 21
64.0290358068
  0
LINE
  5
24D
100
AcDbEntity
  8
0
100
AcDbLine
 62
7
  6
BYLAYER
 10
59.412561746
 20
57.3290358068
 11
59.412561746
 21
18.1290358068
  0
LINE
  5
24E
100
AcDbEntity
  8
0
100
AcDbLine
 62
7
  6
BYLAYER
 10
59.712561746
 20
57.3290358068
 11
59.712561746
 21
19.2290358068
  0
LINE
  5
24F
100
AcDbEntity
  8
0
100
AcDbLine
 62
7
  6
BYLAYER
 10
59.8125600476
 20
100.0290358068
 11
59.8125600476
 21
92.8726657372
  0
LINE
  5
250
100
AcDbEntity
  8
0
100
AcDbLine
 62
7
  6
BYLAYER
 10
60.112561746
 20
91.029077108
 11
60.112561746
 21
101.0289945057
  0
LINE
  5
251
100
AcDbEntity
  8
0
100
AcDbLine
 62
7
  6
BYLAYER
 10
60.512561746
 20
65.4290358068
 11
60.512561746
 21
70.8290358068
  0
LINE
  5
252
100
AcDbEntity
  8
0
100
AcDbLine
 62
7
  6
BYLAYER
 10
60.612561746
 20
97.4208753886
 11
60.612561746
 21
95.8392231146
  0
LINE
  5
253
100
AcDbEntity
  8
0
100
AcDbLine
 62
7
  6
BYLAYER
 10
60.612561746
 20
88.0525366938
 11
60.612561746
 21
95.4162863473
  0
LINE
  5
254
100
AcDbEntity
  8
0
100
AcDbLine
 62
7
  6
BYLAYER
 10
60.612561746
 20
97.4227022277
 11
60.612561746
 21
107.4719748044
  0
LINE
  5
255
100
AcDbEntity
  8
0
100
AcDbLine
 62
7
  6
BYLAYER
 10
60.712561746
 20
64.2790358068
 11
60.712561746
 21
18.1290358068
  0
LINE
  5
256
100
AcDbEntity
  8
0
100
AcDbLine
 62
7
  6
BYLAYER
 10
61.712561746
 20
18.1290358068
 11
61.712561746
 21
11.5290358068
  0
LINE
  5
257
100
AcDbEntity
  8
0
100
AcDbLine
 62
7
  6
BYLAYER
 10
61.862561746
 20
83.6290358068
 11
61.862561746
 21
81.6290358068
  0
LINE
  5
258
100
AcDbEntity
  8
0
100
AcDbLine
 62
7
  6
BYLAYER
 10
61.912561746
 20
64.2790358068
 11
61.912561746
 21
81.6290358068
  0
LINE
  5
259
100
AcDbEntity
  8
0
100
AcDbLine
 62
7
  6
BYLAYER
 10
62.212561746
 20
75.1290358068
 11
62.212561746
 21
64.6290358068
  0
LINE
  5
25A
100
AcDbEntity
  8
0
100
AcDbLine
 62
7
  6
BYLAYER
 10
62.212561746
 20
64.4688617352
 11
62.212561746
 21
17.8903522236
  0
LINE
  5
25B
100
AcDbEntity
  8
0
100
AcDbLine
 62
7
  6
BYLAYER
 10
62.612561746
 20
88.0525366938
 11
62.612561746
 21
108.1985494305
  0
LINE
  5
25C
100
AcDbEntity
  8
0
100
AcDbLine
 62
7
  6
BYLAYER
 10
61.912561746
 20
81.6290358068
 11
34.912561746
 21
81.6290358068
  0
LINE
  5
25D
100
AcDbEntity
  8
0
100
AcDbLine
 62
7
  6
BYLAYER
 10
61.862561746
 20
83.6290358068
 11
55.162561746
 21
83.6290358068
  0
LINE
  5
25E
100
AcDbEntity
  8
0
100
AcDbLine
 62
7
  6
BYLAYER
 10
65.312561746
 20
99.2290340365
 11
65.312561746
 21
92.8290375771
  0
LINE
  5
25F
100
AcDbEntity
  8
0
100
AcDbLine
 62
7
  6
BYLAYER
 10
62.612561746
 20
88.0525366938
 11
60.612561746
 21
88.0525366938
  0
LINE
  5
260
100
AcDbEntity
  8
0
100
AcDbLine
 62
7
  6
BYLAYER
 10
68.6125448316
 20
98.5290358068
 11
68.6125448316
 21
93.5290358068
  0
LINE
  5
261
100
AcDbEntity
  8
0
100
AcDbLine
 62
7
  6
BYLAYER
 10
69.012561746
 20
98.1289003412
 11
69.012561746
 21
93.9291712725
  0
LINE
  5
262
100
AcDbEntity
  8
0
100
AcDbLine
 62
7
  6
BYLAYER
 10
60.612561746
 20
88.1872424754
 11
62.612561746
 21
88.1872424754
  0
LINE
  5
263
100
AcDbEntity
  8
0
100
AcDbLine
 62
7
  6
BYLAYER
 10
60.112561746
 20
91.0290358068
 11
60.612561746
 21
91.0290358068
  0
LINE
  5
264
100
AcDbEntity
  8
0
100
AcDbLine
 62
7
  6
BYLAYER
 10
58.0125585604
 20
91.4040358068
 11
56.662561746
 21
91.4040358068
  0
LINE
  5
265
100
AcDbEntity
  8
0
100
AcDbLine
 62
7
  6
BYLAYER
 10
64.8506815307
 20
92.0290358068
 11
63.0744419614
 21
92.0290358068
  0
LINE
  5
266
100
AcDbEntity
  8
0
100
AcDbLine
 62
7
  6
BYLAYER
 10
62.612561746
 20
92.8290358068
 11
63.0744419614
 21
92.0290358068
  0
LINE
  5
267
100
AcDbEntity
  8
0
100
AcDbLine
 62
7
  6
BYLAYER
 10
58.312561746
 20
92.8726656506
 11
59.8125604992
 21
92.8726656352
  0
LINE
  5
268
100
AcDbEntity
  8
0
100
AcDbLine
 62
7
  6
BYLAYER
 10
68.6125305705
 20
93.5290358068
 11
65.312561746
 21
93.5290358068
  0
LINE
  5
269
100
AcDbEntity
  8
0
100
AcDbLine
 62
7
  6
BYLAYER
 10
64.8506815307
 20
94.0290358068
 11
63.0744419614
 21
94.0290358068
  0
LINE
  5
26A
100
AcDbEntity
  8
0
100
AcDbLine
 62
7
  6
BYLAYER
 10
62.612561746
 20
95.4162863473
 11
60.612561746
 21
95.4162863473
  0
LINE
  5
26B
100
AcDbEntity
  8
0
100
AcDbLine
 62
7
  6
BYLAYER
 10
60.612561746
 20
97.4208753886
 11
62.612561746
 21
97.4208753886
  0
LINE
  5
26C
100
AcDbEntity
  8
0
100
AcDbLine
 62
7
  6
BYLAYER
 10
60.612561746
 20
97.6121584639
 11
62.612561746
 21
97.6121584639
  0
LINE
  5
26D
100
AcDbEntity
  8
0
100
AcDbLine
 62
7
  6
BYLAYER
 10
64.8506815307
 20
98.0290358068
 11
63.0744419614
 21
98.0290358068
  0
LINE
  5
26E
100
AcDbEntity
  8
0
100
AcDbLine
 62
7
  6
BYLAYER
 10
68.6125305705
 20
98.5290358068
 11
65.312561746
 21
98.5290358068
  0
LINE
  5
26F
100
AcDbEntity
  8
0
100
AcDbLine
 62
7
  6
BYLAYER
 10
64.8506815307
 20
100.0290358068
 11
63.0744419614
 21
100.0290358068
  0
LINE
  5
270
100
AcDbEntity
  8
0
100
AcDbLine
 62
7
  6
BYLAYER
 10
59.8125600476
 20
100.0290358068
 11
58.312561746
 21
100.0290358068
  0
LINE
  5
271
100
AcDbEntity
  8
0
100
AcDbLine
 62
7
  6
BYLAYER
 10
58.3125610323
 20
100.3540335416
 11
58.0125593131
 21
100.6540350541
  0
LINE
  5
272
100
AcDbEntity
  8
0
100
AcDbLine
 62
7
  6
BYLAYER
 10
60.112561746
 20
99.7290342358
 11
59.8125600476
 21
100.0290358068
  0
LINE
  5
273
100
AcDbEntity
  8
0
100
AcDbLine
 62
7
  6
BYLAYER
 10
45.912561746
 20
116.4821280408
 11
46.412561746
 21
115.9821280408
  0
LINE
  5
274
100
AcDbEntity
  8
0
100
AcDbLine
 62
7
  6
BYLAYER
 10
65.312561746
 20
99.2290358068
 11
64.8506815307
 21
100.0290358068
  0
LINE
  5
275
100
AcDbEntity
  8
0
100
AcDbLine
 62
7
  6
BYLAYER
 10
58.0125585604
 20
100.6540358068
 11
56.662561746
 21
100.6540358068
  0
LINE
  5
276
100
AcDbEntity
  8
0
100
AcDbLine
 62
7
  6
BYLAYER
 10
60.612561746
 20
100.8511041743
 11
62.612561746
 21
100.8511041743
  0
LINE
  5
277
100
AcDbEntity
  8
0
100
AcDbLine
 62
7
  6
BYLAYER
 10
34.962561746
 20
101.0290358068
 11
41.662561746
 21
101.0290358068
  0
LINE
  5
278
100
AcDbEntity
  8
0
100
AcDbLine
 62
7
  6
BYLAYER
 10
60.112561746
 20
101.0290358068
 11
60.612561746
 21
101.0290358068
  0
LINE
  5
279
100
AcDbEntity
  8
0
100
AcDbLine
 62
7
  6
BYLAYER
 10
34.962561746
 20
103.5290358068
 11
56.662561746
 21
103.5290358068
  0
LINE
  5
27A
100
AcDbEntity
  8
0
100
AcDbLine
 62
7
  6
BYLAYER
 10
69.0125497486
 20
98.129021617
 11
68.6125448316
 21
98.5290215459
  0
LINE
  5
27B
100
AcDbEntity
  8
0
100
AcDbLine
 62
7
  6
BYLAYER
 10
60.612561746
 20
106.8596757972
 11
53.612561746
 21
115.1862982457
  0
LINE
  5
27C
100
AcDbEntity
  8
0
100
AcDbLine
 62
7
  6
BYLAYER
 10
53.612561746
 20
115.7985972529
 11
60.612561746
 21
107.4719748044
  0
LINE
  5
27D
100
AcDbEntity
  8
0
100
AcDbLine
 62
7
  6
BYLAYER
 10
62.612561746
 20
108.1985494305
 11
55.612561746
 21
116.525171879
  0
LINE
  5
27E
100
AcDbEntity
  8
0
100
AcDbLine
 62
7
  6
BYLAYER
 10
62.612561746
 20
106.2663906263
 11
60.612561746
 21
106.2663906263
  0
LINE
  5
27F
100
AcDbEntity
  8
0
100
AcDbLine
 62
7
  6
BYLAYER
 10
53.612561746
 20
111.4821280408
 11
48.612561746
 21
111.4821280408
  0
LINE
  5
280
100
AcDbEntity
  8
0
100
AcDbLine
 62
7
  6
BYLAYER
 10
46.412561746
 20
115.9821280408
 11
47.412561746
 21
115.9821280408
  0
LINE
  5
281
100
AcDbEntity
  8
0
100
AcDbLine
 62
7
  6
BYLAYER
 10
48.612561746
 20
116.4821280408
 11
48.112561746
 21
116.4821280408
  0
LINE
  5
282
100
AcDbEntity
  8
0
100
AcDbLine
 62
7
  6
BYLAYER
 10
47.412561746
 20
117.9921280408
 11
48.112561746
 21
117.9921280408
  0
LINE
  5
283
100
AcDbEntity
  8
0
100
AcDbLine
 62
7
  6
BYLAYER
 10
55.612561746
 20
118.9321280408
 11
57.112561746
 21
118.9321280408
  0
LINE
  5
284
100
AcDbEntity
  8
0
100
AcDbLine
 62
7
  6
BYLAYER
 10
53.612561746
 20
121.2882775444
 11
55.612561746
 21
121.2882775444
  0
LINE
  5
285
100
AcDbEntity
  8
0
100
AcDbLine
 62
7
  6
BYLAYER
 10
55.612561746
 20
123.0321280408
 11
57.112561746
 21
123.0321280408
  0
LINE
  5
286
100
AcDbEntity
  8
0
100
AcDbLine
 62
7
  6
BYLAYER
 10
47.412561746
 20
123.9721280408
 11
48.112561746
 21
123.9721280408
  0
LINE
  5
287
100
AcDbEntity
  8
0
100
AcDbLine
 62
7
  6
BYLAYER
 10
48.612561746
 20
125.4821280408
 11
48.112561746
 21
125.4821280408
  0
LINE
  5
288
100
AcDbEntity
  8
0
100
AcDbLine
 62
7
  6
BYLAYER
 10
46.412561746
 20
125.9821280408
 11
47.412561746
 21
125.9821280408
  0
LINE
  5
289
100
AcDbEntity
  8
0
100
AcDbLine
 62
7
  6
BYLAYER
 10
53.612561746
 20
125.9821280408
 11
55.612561746
 21
125.9821280408
  0
LINE
  5
28A
100
AcDbEntity
  8
0
100
AcDbLine
 62
7
  6
BYLAYER
 10
53.612561746
 20
130.4821280408
 11
48.612561746
 21
130.4821280408
  0
ARC
  5
28B
100
AcDbEntity
  8
0
100
AcDbCircle
 62
7
  6
BYLAYER
 10
57.598043025
 20
117.0174750517
 40
24.246152466
100
AcDbArc
 50
275.2404017745
 51
275.9527309275
  0
CIRCLE
  5
28C
100
AcDbEntity
  8
0
100
AcDbCircle
 62
7
  6
BYLAYER
 10
46.912561746
 20
26.5290358068
 40
11.4999994918
  0
CIRCLE
  5
28D
100
AcDbEntity
  8
0
100
AcDbCircle
 62
7
  6
BYLAYER
 10
46.912561746
 20
26.5290358068
 40
10.9999986041
  0
ARC
  5
28E
100
AcDbEntity
  8
0
100
AcDbCircle
 62
7
  6
BYLAYER
 10
46.912561746
 20
26.5290358068
 40
5.8038475773
100
AcDbArc
 50
352.575211596
 51
7.424788404
  0
ARC
  5
28F
100
AcDbEntity
  8
0
100
AcDbCircle
 62
7
  6
BYLAYER
 10
46.912561746
 20
26.5290358068
 40
5.8038475773
100
AcDbArc
 50
262.575211596
 51
277.424788404
  0
ARC
  5
290
100
AcDbEntity
  8
0
100
AcDbCircle
 62
7
  6
BYLAYER
 10
46.912561746
 20
26.5290358068
 40
5.8038475773
100
AcDbArc
 50
82.575211596
 51
97.424788404
  0
ARC
  5
291
100
AcDbEntity
  8
0
100
AcDbCircle
 62
7
  6
BYLAYER
 10
46.912561746
 20
26.5290358068
 40
5.8038475773
100
AcDbArc
 50
172.575211596
 51
187.424788404
  0
ARC
  5
292
100
AcDbEntity
  8
0
100
AcDbCircle
 62
7
  6
BYLAYER
 10
46.912561746
 20
26.5290358068
 40
5.0
100
AcDbArc
 50
81.3730734413
 51
98.6269265587
  0
ARC
  5
293
100
AcDbEntity
  8
0
100
AcDbCircle
 62
7
  6
BYLAYER
 10
46.912561746
 20
26.5290358068
 40
5.0
100
AcDbArc
 50
171.3730734413
 51
188.6269265587
  0
ARC
  5
294
100
AcDbEntity
  8
0
100
AcDbCircle
 62
7
  6
BYLAYER
 10
46.912561746
 20
26.5290358068
 40
5.0
100
AcDbArc
 50
261.3730734413
 51
278.6269265587
  0
ARC
  5
295
100
AcDbEntity
  8
0
100
AcDbCircle
 62
7
  6
BYLAYER
 10
46.912561746
 20
26.5290358068
 40
5.0
100
AcDbArc
 50
351.3730734413
 51
8.6269265587
  0
SPLINE
  5
296
100
AcDbEntity
  8
0
100
AcDbSpline
 62
7
  6
BYLAYER
 70
0
 71
3
 72
11
 73
7
 74
0
 42
0.0000001
 43
0.0000001
 44
0.0000000001
 40
0.0
 40
0.0
 40
0.0
 40
0.0
 40
0.2500119043
 40
0.5000143386
 40
0.7500092666
 40
1.0
 40
1.0
 40
1.0
 40
1.0
 10
64.8506815307
 20
98.0290358068
 30
0.0
 10
64.897607003
 20
97.8664812023
 30
0.0
 10
64.9835862299
 20
97.5390137279
 30
0.0
 10
65.0827041554
 20
97.0408507671
 30
0.0
 10
65.1456423005
 20
96.5367373711
 30
0.0
 10
65.1600826075
 20
96.1982136763
 30
0.0
 10
65.1600826075
 20
96.0290358068
 30
0.0
  0
SPLINE
  5
297
100
AcDbEntity
  8
0
100
AcDbSpline
 62
7
  6
BYLAYER
 70
0
 71
3
 72
19
 73
15
 74
0
 42
0.0000001
 43
0.0000001
 44
0.0000000001
 40
0.0
 40
0.0
 40
0.0
 40
0.0
 40
0.1307723507
 40
0.2571515726
 40
0.3188539744
 40
0.3797373382
 40
0.4400263652
 40
0.5000007526
 40
0.5599757181
 40
0.620264208
 40
0.6811468007
 40
0.7428501263
 40
0.8692282214
 40
1.0
 40
1.0
 40
1.0
 40
1.0
 10
64.8506815307
 20
100.0290358068
 30
0.0
 10
64.8968339813
 20
99.9490974174
 30
0.0
 10
64.9815903376
 20
99.7882988283
 30
0.0
 10
65.0654585522
 20
99.5788078725
 30
0.0
 10
65.1139736006
 20
99.4097644771
 30
0.0
 10
65.1403606744
 20
99.2832783591
 30
0.0
 10
65.1564833724
 20
99.1562931033
 30
0.0
 10
65.1618657388
 20
99.0290340304
 30
0.0
 10
65.1564623063
 20
98.901777224
 30
0.0
 10
65.140362899
 20
98.7747902656
 30
0.0
 10
65.1139875781
 20
98.6483008369
 30
0.0
 10
65.0654400715
 20
98.4792675712
 30
0.0
 10
64.9815943856
 20
98.2697701478
 30
0.0
 10
64.8968337794
 20
98.1089738465
 30
0.0
 10
64.8506815307
 20
98.0290358068
 30
0.0
  0
SPLINE
  5
298
100
AcDbEntity
  8
0
100
AcDbSpline
 62
7
  6
BYLAYER
 70
0
 71
3
 72
19
 73
15
 74
0
 42
0.0000001
 43
0.0000001
 44
0.0000000001
 40
0.0
 40
0.0
 40
0.0
 40
0.0
 40
0.1307723645
 40
0.2571515558
 40
0.3188539668
 40
0.3797373368
 40
0.4400263627
 40
0.5000007488
 40
0.5599757157
 40
0.6202642058
 40
0.6811467943
 40
0.7428501181
 40
0.8692282273
 40
1.0
 40
1.0
 40
1.0
 40
1.0
 10
63.0744419614
 20
98.0290358068
 30
0.0
 10
63.028289506
 20
98.1089742045
 30
0.0
 10
62.9435329492
 20
98.269772689
 30
0.0
 10
62.8596651249
 20
98.4792637924
 30
0.0
 10
62.8111499265
 20
98.6483071255
 30
0.0
 10
62.7847627637
 20
98.7747932381
 30
0.0
 10
62.7686400637
 20
98.9017784985
 30
0.0
 10
62.7632577869
 20
99.0290375755
 30
0.0
 10
62.768661271
 20
99.1562943766
 30
0.0
 10
62.7847606082
 20
99.2832813398
 30
0.0
 10
62.8111358629
 20
99.4097707795
 30
0.0
 10
62.8596833802
 20
99.5788040505
 30
0.0
 10
62.9435291733
 20
99.7883014325
 30
0.0
 10
63.0282897148
 20
99.9490977708
 30
0.0
 10
63.0744419614
 20
100.0290358068
 30
0.0
  0
SPLINE
  5
299
100
AcDbEntity
  8
0
100
AcDbSpline
 62
7
  6
BYLAYER
 70
0
 71
3
 72
11
 73
7
 74
0
 42
0.0000001
 43
0.0000001
 44
0.0000000001
 40
0.0
 40
0.0
 40
0.0
 40
0.0
 40
0.249990778
 40
0.4999857227
 40
0.7499881269
 40
1.0
 40
1.0
 40
1.0
 40
1.0
 10
62.7650408846
 20
96.0290358068
 30
0.0
 10
62.7650408846
 20
96.1982137055
 30
0.0
 10
62.7794813836
 20
96.5367374307
 30
0.0
 10
62.8424193733
 20
97.0408508569
 30
0.0
 10
62.9415372553
 20
97.5390137982
 30
0.0
 10
63.0275164952
 20
97.8664812235
 30
0.0
 10
63.0744419614
 20
98.0290358068
 30
0.0
  0
SPLINE
  5
29A
100
AcDbEntity
  8
0
100
AcDbSpline
 62
7
  6
BYLAYER
 70
0
 71
3
 72
11
 73
7
 74
0
 42
0.0000001
 43
0.0000001
 44
0.0000000001
 40
0.0
 40
0.0
 40
0.0
 40
0.0
 40
0.2500118062
 40
0.5000143479
 40
0.7500092637
 40
1.0
 40
1.0
 40
1.0
 40
1.0
 10
63.0744419614
 20
94.0290358068
 30
0.0
 10
63.0275165087
 20
94.1915903435
 30
0.0
 10
62.9415385641
 20
94.5190581507
 30
0.0
 10
62.8424197302
 20
95.0172208549
 30
0.0
 10
62.7794805143
 20
95.521334223
 30
0.0
 10
62.7650408846
 20
95.8598579396
 30
0.0
 10
62.7650408846
 20
96.0290358068
 30
0.0
  0
SPLINE
  5
29B
100
AcDbEntity
  8
0
100
AcDbSpline
 62
7
  6
BYLAYER
 70
0
 71
3
 72
19
 73
15
 74
0
 42
0.0000001
 43
0.0000001
 44
0.0000000001
 40
0.0
 40
0.0
 40
0.0
 40
0.0
 40
0.1307723645
 40
0.2571515558
 40
0.3188539668
 40
0.3797373368
 40
0.4400263627
 40
0.5000007488
 40
0.5599757157
 40
0.6202642058
 40
0.6811467943
 40
0.7428501181
 40
0.8692282273
 40
1.0
 40
1.0
 40
1.0
 40
1.0
 10
63.0744419614
 20
92.0290358068
 30
0.0
 10
63.028289506
 20
92.1089742045
 30
0.0
 10
62.9435329492
 20
92.269772689
 30
0.0
 10
62.8596651249
 20
92.4792637924
 30
0.0
 10
62.8111499265
 20
92.6483071255
 30
0.0
 10
62.7847627637
 20
92.7747932381
 30
0.0
 10
62.7686400637
 20
92.9017784985
 30
0.0
 10
62.7632577869
 20
93.0290375755
 30
0.0
 10
62.768661271
 20
93.1562943766
 30
0.0
 10
62.7847606082
 20
93.2832813398
 30
0.0
 10
62.8111358629
 20
93.4097707795
 30
0.0
 10
62.8596833802
 20
93.5788040505
 30
0.0
 10
62.9435291733
 20
93.7883014325
 30
0.0
 10
63.0282897148
 20
93.9490977708
 30
0.0
 10
63.0744419614
 20
94.0290358068
 30
0.0
  0
SPLINE
  5
29C
100
AcDbEntity
  8
0
100
AcDbSpline
 62
7
  6
BYLAYER
 70
0
 71
3
 72
19
 73
15
 74
0
 42
0.0000001
 43
0.0000001
 44
0.0000000001
 40
0.0
 40
0.0
 40
0.0
 40
0.0
 40
0.1307723507
 40
0.2571515726
 40
0.3188539744
 40
0.3797373382
 40
0.4400263652
 40
0.5000007526
 40
0.5599757181
 40
0.620264208
 40
0.6811468007
 40
0.7428501263
 40
0.8692282214
 40
1.0
 40
1.0
 40
1.0
 40
1.0
 10
64.8506815307
 20
94.0290358068
 30
0.0
 10
64.8968339813
 20
93.9490974174
 30
0.0
 10
64.9815903376
 20
93.7882988283
 30
0.0
 10
65.0654585522
 20
93.5788078725
 30
0.0
 10
65.1139736006
 20
93.4097644771
 30
0.0
 10
65.1403606744
 20
93.2832783591
 30
0.0
 10
65.1564833724
 20
93.1562931033
 30
0.0
 10
65.1618657388
 20
93.0290340304
 30
0.0
 10
65.1564623063
 20
92.901777224
 30
0.0
 10
65.140362899
 20
92.7747902656
 30
0.0
 10
65.1139875781
 20
92.6483008369
 30
0.0
 10
65.0654400715
 20
92.4792675712
 30
0.0
 10
64.9815943856
 20
92.2697701478
 30
0.0
 10
64.8968337794
 20
92.1089738465
 30
0.0
 10
64.8506815307
 20
92.0290358068
 30
0.0
  0
SPLINE
  5
29D
100
AcDbEntity
  8
0
100
AcDbSpline
 62
7
  6
BYLAYER
 70
0
 71
3
 72
11
 73
7
 74
0
 42
0.0000001
 43
0.0000001
 44
0.0000000001
 40
0.0
 40
0.0
 40
0.0
 40
0.0
 40
0.2499907822
 40
0.4999857134
 40
0.7499882259
 40
1.0
 40
1.0
 40
1.0
 40
1.0
 10
65.1600826075
 20
96.0290358068
 30
0.0
 10
65.1600826075
 20
95.8598579093
 30
0.0
 10
65.1456428139
 20
95.5213341607
 30
0.0
 10
65.0827037317
 20
95.0172207628
 30
0.0
 10
64.9835849289
 20
94.5190580819
 30
0.0
 10
64.8976069772
 20
94.1915903219
 30
0.0
 10
64.8506815307
 20
94.0290358068
 30
0.0
  0
ENDSEC
  0
SECTION
  2
OBJECTS
  0
DICTIONARY
  5
C
100
AcDbDictionary
280
0
281
1
  3
ACAD_GROUP
350
D
  3
ACAD_MLINESTYLE
350
17
  3
ACAD_LAYOUT
350
1A
  3
ACAD_PLOTSETTINGS
350
19
  3
ACAD_PLOTSTYLENAME
350
E
  0
DICTIONARY
  5
D
102
{ACAD_REACTORS
330
C
102
}
100
AcDbDictionary
280
0
281
1
  0
ACDBDICTIONARYWDFLT
  5
E
102
{ACAD_REACTORS
330
C
102
}
100
AcDbDictionary
281
1
  3
Normal
350
F
100
AcDbDictionaryWithDefault
340
F
  0
DICTIONARY
  5
17
102
{ACAD_REACTORS
330
C
102
}
100
AcDbDictionary
280
0
281
1
  3
Standard
350
18
  0
DICTIONARY
  5
19
102
{ACAD_REACTORS
330
C
102
}
100
AcDbDictionary
281
1
  0
DICTIONARY
  5
1A
102
{ACAD_REACTORS
330
C
102
}
100
AcDbDictionary
281
1
  3
Model
350
29E
  3
Layout1
350
29F
  0
ACDBPLACEHOLDER
  5
F
102
{ACAD_REACTORS
330
E
102
}
  0
MLINESTYLE
  5
18
102
{ACAD_REACTORS
330
17
102
}
100
AcDbMlineStyle
  2
STANDARD
 70
0
  3

 62
256
 51
90.0
 52
90.0
 71
2
 49
0.5
 62
256
  6
BYLAYER
 49
-0.5
 62
256
  6
BYLAYER
  0
LAYOUT
  5
29E
102
{ACAD_REACTORS
330
1A
102
}
100
AcDbPlotSettings
  1

  2
none_device
  4

  6

 40
0.0
 41
0.0
 42
0.0
 43
0.0
 44
210.0
 45
297.0
 46
0.0
 47
0.0
 48
0.0
 49
0.0
140
0.0
141
0.0
142
1.0
143
1.0
 70
1024
 72
1
 73
0
 74
0
  7

 75
0
147
1.0
148
0.0
149
0.0
100
AcDbLayout
  1
Model
 70
0
 71
0
 10
0.0
 20
0.0
 11
210.0
 21
297.0
 12
0.0
 22
0.0
 32
0.0
 14
0.0
 24
0.0
 34
0.0
 15
0.0
 25
0.0
 35
0.0
146
0.0
 13
0.0
 23
0.0
 33
0.0
 16
1.0
 26
0.0
 36
0.0
 17
0.0
 27
1.0
 37
0.0
 76
0
330
210
345
0
346
0
  0
LAYOUT
  5
29F
102
{ACAD_REACTORS
330
1A
102
}
100
AcDbPlotSettings
  1

  2
none_device
  4

  6

 40
0.0
 41
0.0
 42
0.0
 43
0.0
 44
210.0
 45
297.0
 46
0.0
 47
0.0
 48
0.0
 49
0.0
140
0.0
141
0.0
142
1.0
143
1.0
 70
0
 72
1
 73
0
 74
0
  7

 75
0
147
1.0
148
0.0
149
0.0
100
AcDbLayout
  1
Layout1
 70
0
 71
1
 10
0.0
 20
0.0
 11
210.0
 21
297.0
 12
0.0
 22
0.0
 32
0.0
 14
0.0
 24
0.0
 34
0.0
 15
0.0
 25
0.0
 35
0.0
146
0.0
 13
0.0
 23
0.0
 33
0.0
 16
1.0
 26
0.0
 36
0.0
 17
0.0
 27
1.0
 37
0.0
 76
0
330
211
345
0
346
0
  0
ENDSEC
  0
EOF
