999
DXF file: C:\Users\sesa63760\Dev\_Creo\CAD\MCADID0004599_3D-CAD\drw0001_6.dxf
999
Pro/ENGINEER 2019471 by Parametric Technology Corporation
  0
SECTION
  2
HEADER
  9
$ACADVER
  1
AC1024
  9
$DWGCODEPAGE
  3
ANSI_1252
  9
$EXTMAX
 10
162.3762996534
 20
229.6464809384
 30
0.0
  9
$EXTMIN
 10
0.0
 20
0.0
 30
0.0
  9
$LIMMIN
 10
0.0
 20
0.0
  9
$LIMMAX
 10
162.3762996534
 20
229.6464809384
  9
$VIEWCTR
 10
81.1881498267
 20
114.8232404692
  9
$VIEWSIZE
 40
229.6464809384
  9
$CLAYER
  8
0
  9
$LTSCALE
 40
14.9695483871
  9
$CELTYPE
  6
BYLAYER
  9
$DIMSCALE
 40
1.0
  9
$DIMASZ
 40
1.9330511864
  9
$DIMEXO
 40
1.0
  9
$DIMDLI
 40
10.3425970674
  9
$DIMEXE
 40
1.0
  9
$DIMCEN
 40
2.4495624633
  9
$DIMLFAC
 40
1.0
  9
$DIMBLK
  1
_FILLED
  9
$DIMALT
 70
0
  9
$DIMALTF
 40
0.0393700787
  9
$DIMTXT
 40
2.7062716609
  9
$DIMTOL
 70
1
  9
$DIMLIM
 70
0
  9
$DIMTFAC
 40
1.0
  9
$DIMTP
 40
0.01
  9
$DIMTM
 40
0.01
  9
$DIMGAP
 40
0.625
  9
$DIMDSEP
 70
46
  9
$AUNITS
 70
0
  9
$PDMODE
 70
3
  9
$PDSIZE
 40
0.3125
  9
$HANDSEED
  5
380
  9
$TILEMODE
 70
1
  9
$MEASUREMENT
 70
1
  9
$INSUNITS
 70
4
  0
ENDSEC
  0
SECTION
  2
CLASSES
  0
CLASS
  1
ACDBDICTIONARYWDFLT
  2
AcDbDictionaryWithDefault
  3
AutoCAD 2000
 90
0
 91
1
280
0
281
0
  0
CLASS
  1
ACDBPLACEHOLDER
  2
AcDbPlaceHolder
  3
AutoCAD 2000
 90
0
 91
1
280
0
281
0
  0
CLASS
  1
LAYOUT
  2
AcDbLayout
  3
AutoCAD 2000
 90
0
 91
0
280
0
281
0
  0
ENDSEC
  0
SECTION
  2
TABLES
  0
TABLE
  2
VPORT
  5
8
100
AcDbSymbolTable
 70
2
  0
VPORT
  5
1F4
100
AcDbSymbolTableRecord
100
AcDbViewportTableRecord
  2
*ACTIVE
 70
0
 10
0.0
 20
0.0
 11
1.0
 21
1.0
 12
81.1881498267
 22
114.8232404692
 13
0.0
 23
0.0
 14
1.0
 24
1.0
 15
0.0
 25
0.0
 16
0.0
 26
0.0
 36
1.0
 17
0.0
 27
0.0
 37
0.0
 40
229.6464809384
 41
0.7070707071
 42
50.0
 43
0.0
 44
0.0
 50
0.0
 51
0.0
 71
0
 72
100
 73
1
 74
1
 75
0
 76
0
 77
0
 78
0
  0
ENDTAB
  0
TABLE
  2
LTYPE
  5
5
100
AcDbSymbolTable
 70
6
  0
LTYPE
  5
14
100
AcDbSymbolTableRecord
100
AcDbLinetypeTableRecord
  2
BYBLOCK
 70
0
  3

 72
65
 73
0
 40
0.0
  0
LTYPE
  5
15
100
AcDbSymbolTableRecord
100
AcDbLinetypeTableRecord
  2
BYLAYER
 70
0
  3

 72
65
 73
0
 40
0.0
  0
LTYPE
  5
16
100
AcDbSymbolTableRecord
100
AcDbLinetypeTableRecord
  2
CONTINUOUS
 70
64
  3
Solid line
 72
65
 73
0
 40
0.0
  0
LTYPE
  5
1F5
100
AcDbSymbolTableRecord
100
AcDbLinetypeTableRecord
  2
CENTER
 70
64
  3
____ _ ____ _ ____ _ ____ _ ____ _ ____ _ ____
 72
65
 73
4
 40
0.6
 49
0.375
 74
0
 49
-0.075
 74
0
 49
0.075
 74
0
 49
-0.075
 74
0
  0
LTYPE
  5
1F6
100
AcDbSymbolTableRecord
100
AcDbLinetypeTableRecord
  2
HIDDEN
 70
64
  3
- - - - - - - - - - - - - - - - - - - -
 72
65
 73
2
 40
0.2
 49
0.1
 74
0
 49
-0.1
 74
0
  0
LTYPE
  5
1F7
100
AcDbSymbolTableRecord
100
AcDbLinetypeTableRecord
  2
PHANTOM
 70
64
  3
_____ _ _ _____ _ _ _____ _ _ _____
 72
65
 73
6
 40
0.8
 49
0.45
 74
0
 49
-0.05
 74
0
 49
0.1
 74
0
 49
-0.05
 74
0
 49
0.1
 74
0
 49
-0.05
 74
0
  0
LTYPE
  5
1F8
100
AcDbSymbolTableRecord
100
AcDbLinetypeTableRecord
  2
DOT
 70
64
  3
. . . . . . . . . . . . . . . . . . . .
 72
65
 73
2
 40
0.2
 49
0.1
 74
0
 49
-0.1
 74
0
  0
LTYPE
  5
1F9
100
AcDbSymbolTableRecord
100
AcDbLinetypeTableRecord
  2
DASHED
 70
64
  3
- - - - - - - - - - - - - - - - - - - -
 72
65
 73
2
 40
0.2
 49
0.1
 74
0
 49
-0.1
 74
0
  0
ENDTAB
  0
TABLE
  2
LAYER
  5
2
100
AcDbSymbolTable
 70
36
  0
LAYER
  5
10
100
AcDbSymbolTableRecord
100
AcDbLayerTableRecord
  2
0
 70
0
 62
7
  6
CONTINUOUS
370
-3
390
F
  0
LAYER
  5
1FA
100
AcDbSymbolTableRecord
100
AcDbLayerTableRecord
  2
DEFAULT_1
 70
0
 62
7
  6
CENTER
370
-3
390
F
  0
LAYER
  5
1FB
100
AcDbSymbolTableRecord
100
AcDbLayerTableRecord
  2
DEFAULT_2
 70
0
 62
7
  6
HIDDEN
370
-3
390
F
  0
LAYER
  5
1FC
100
AcDbSymbolTableRecord
100
AcDbLayerTableRecord
  2
DEFAULT_3
 70
0
 62
7
  6
PHANTOM
370
-3
390
F
  0
LAYER
  5
1FD
100
AcDbSymbolTableRecord
100
AcDbLayerTableRecord
  2
00_COMPONENTS
 70
0
 62
7
  6
CONTINUOUS
370
-3
390
F
  0
LAYER
  5
1FE
100
AcDbSymbolTableRecord
100
AcDbLayerTableRecord
  2
01_1_DEFAULT_DATUMS
 70
0
 62
7
  6
CONTINUOUS
370
-3
390
F
  0
LAYER
  5
1FF
100
AcDbSymbolTableRecord
100
AcDbLayerTableRecord
  2
01_PLANES
 70
0
 62
7
  6
CONTINUOUS
370
-3
390
F
  0
LAYER
  5
200
100
AcDbSymbolTableRecord
100
AcDbLayerTableRecord
  2
02_COORD_SYS
 70
0
 62
7
  6
CONTINUOUS
370
-3
390
F
  0
LAYER
  5
201
100
AcDbSymbolTableRecord
100
AcDbLayerTableRecord
  2
03_AXES
 70
0
 62
7
  6
CONTINUOUS
370
-3
390
F
  0
LAYER
  5
202
100
AcDbSymbolTableRecord
100
AcDbLayerTableRecord
  2
04_POINTS
 70
0
 62
7
  6
CONTINUOUS
370
-3
390
F
  0
LAYER
  5
203
100
AcDbSymbolTableRecord
100
AcDbLayerTableRecord
  2
05_CURVES
 70
0
 62
7
  6
CONTINUOUS
370
-3
390
F
  0
LAYER
  5
204
100
AcDbSymbolTableRecord
100
AcDbLayerTableRecord
  2
06_SURFS
 70
0
 62
7
  6
CONTINUOUS
370
-3
390
F
  0
LAYER
  5
205
100
AcDbSymbolTableRecord
100
AcDbLayerTableRecord
  2
07_COSMETICS
 70
0
 62
7
  6
CONTINUOUS
370
-3
390
F
  0
LAYER
  5
206
100
AcDbSymbolTableRecord
100
AcDbLayerTableRecord
  2
10_NOTES
 70
0
 62
7
  6
CONTINUOUS
370
-3
390
F
  0
LAYER
  5
207
100
AcDbSymbolTableRecord
100
AcDbLayerTableRecord
  2
11_NOTES_PUB
 70
0
 62
7
  6
CONTINUOUS
370
-3
390
F
  0
LAYER
  5
208
100
AcDbSymbolTableRecord
100
AcDbLayerTableRecord
  2
13_REF_GTOL
 70
0
 62
7
  6
CONTINUOUS
370
-3
390
F
  0
LAYER
  5
209
100
AcDbSymbolTableRecord
100
AcDbLayerTableRecord
  2
16_MISC
 70
0
 62
7
  6
CONTINUOUS
370
-3
390
F
  0
LAYER
  5
20A
100
AcDbSymbolTableRecord
100
AcDbLayerTableRecord
  2
17_NO_PRINT
 70
0
 62
7
  6
CONTINUOUS
370
-3
390
F
  0
LAYER
  5
20B
100
AcDbSymbolTableRecord
100
AcDbLayerTableRecord
  2
18_DATUM_CAMS_JOINTS
 70
0
 62
7
  6
CONTINUOUS
370
-3
390
F
  0
LAYER
  5
20C
100
AcDbSymbolTableRecord
100
AcDbLayerTableRecord
  2
19_DATUM_FUNCTIONAL
 70
0
 62
7
  6
CONTINUOUS
370
-3
390
F
  0
LAYER
  5
20D
100
AcDbSymbolTableRecord
100
AcDbLayerTableRecord
  2
20_DATUM_KINEMATIC_SCHEME
 70
0
 62
7
  6
CONTINUOUS
370
-3
390
F
  0
ENDTAB
  0
TABLE
  2
STYLE
  5
3
100
AcDbSymbolTable
 70
1
  0
STYLE
  5
11
100
AcDbSymbolTableRecord
100
AcDbTextStyleTableRecord
  2
STANDARD
 70
0
 40
0.0
 41
1.0
 50
0.0
 71
0
 42
0.2
  3
ARIAL.TTF
  4

  0
STYLE
  5
20E
100
AcDbSymbolTableRecord
100
AcDbTextStyleTableRecord
  2
TEXTSTYLE_1
 70
0
 40
0.0
 41
0.8
 50
0.0
 71
0
 42
0.2
  3
gdt
  4

  0
ENDTAB
  0
TABLE
  2
VIEW
  5
6
100
AcDbSymbolTable
 70
0
  0
ENDTAB
  0
TABLE
  2
UCS
  5
7
100
AcDbSymbolTable
 70
0
  0
ENDTAB
  0
TABLE
  2
APPID
  5
9
100
AcDbSymbolTable
 70
1
  0
APPID
  5
20F
100
AcDbSymbolTableRecord
100
AcDbRegAppTableRecord
  2
ACAD
 70
0
  0
ENDTAB
  0
TABLE
  2
BLOCK_RECORD
  5
1
100
AcDbSymbolTable
 70
0
  0
BLOCK_RECORD
  5
210
100
AcDbSymbolTableRecord
100
AcDbBlockTableRecord
  2
*Model_Space
  0
BLOCK_RECORD
  5
211
100
AcDbSymbolTableRecord
100
AcDbBlockTableRecord
  2
*Paper_Space
  0
BLOCK_RECORD
  5
212
100
AcDbSymbolTableRecord
100
AcDbBlockTableRecord
  2
_FILLED
  0
ENDTAB
  0
TABLE
  2
DIMSTYLE
  5
A
100
AcDbSymbolTable
 70
1
100
AcDbDimStyleTable
 71
0
  0
DIMSTYLE
105
213
100
AcDbSymbolTableRecord
100
AcDbDimStyleTableRecord
  2
STANDARD
 70
0
  3

  4

 40
1.0
 41
1.9330511864
 42
1.0
 43
0.38
 44
1.0
 45
0.0
 46
0.0
 47
0.01
 48
0.01
140
2.7062716609
141
0.09
142
0.0
143
25.4
144
1.0
145
0.0
146
1.0
147
0.625
 71
1
 72
0
 73
0
 74
0
 75
0
 76
0
 77
1
 78
8
 79
2
170
0
171
1
172
0
173
0
174
0
175
0
176
0
177
0
178
0
270
2
179
2
271
2
272
2
273
2
274
2
275
0
280
0
281
0
282
0
283
1
284
8
285
0
286
0
287
3
288
0
340
11
278
46
341
212
342
212
343
212
344
212
  0
ENDTAB
  0
ENDSEC
  0
SECTION
  2
BLOCKS
  0
BLOCK
  5
20
100
AcDbEntity
  8
0
100
AcDbBlockBegin
  2
*Model_Space
 70
0
 10
0.0
 20
0.0
 30
0.0
  3
*Model_Space
  1

  0
ENDBLK
  5
21
100
AcDbEntity
  8
0
100
AcDbBlockEnd
  0
BLOCK
  5
1C
100
AcDbEntity
  8
0
100
AcDbBlockBegin
  2
*Paper_Space
 70
0
 10
0.0
 20
0.0
 30
0.0
  3
*Paper_Space
  1

  0
ENDBLK
  5
1D
100
AcDbEntity
  8
0
100
AcDbBlockEnd
  0
BLOCK
  5
214
100
AcDbEntity
  8
0
100
AcDbBlockBegin
  2
_FILLED
 70
64
 10
0.0
 20
0.0
  3
_FILLED
  1

  0
SOLID
  5
215
100
AcDbEntity
  8
0
  6
BYBLOCK
 62
0
100
AcDbTrace
 10
0.0
 20
0.0
 11
-1.0
 21
0.25
 12
-1.0
 22
-0.25
 13
-1.0
 23
-0.25
  0
ENDBLK
  5
216
100
AcDbEntity
  8
0
  6
BYBLOCK
 62
0
100
AcDbBlockEnd
  0
ENDSEC
  0
SECTION
  2
ENTITIES
  0
LINE
  5
217
100
AcDbEntity
  8
0
100
AcDbLine
 62
7
  6
BYLAYER
 10
74.5935750467
 20
18.9732404692
 11
114.2935750467
 21
18.9732404692
  0
LINE
  5
218
100
AcDbEntity
  8
0
100
AcDbLine
 62
7
  6
BYLAYER
 10
73.5935750467
 20
19.0732404692
 11
74.5935750467
 21
19.0732404692
  0
LINE
  5
219
100
AcDbEntity
  8
0
100
AcDbLine
 62
7
  6
BYLAYER
 10
74.5935750467
 20
19.5732404692
 11
73.5935750467
 21
19.5732404692
  0
LINE
  5
21A
100
AcDbEntity
  8
0
100
AcDbLine
 62
7
  6
BYLAYER
 10
114.2935750467
 20
20.4732404692
 11
81.2935750467
 21
20.4732404692
  0
LINE
  5
21B
100
AcDbEntity
  8
0
100
AcDbLine
 62
7
  6
BYLAYER
 10
70.8635750467
 20
20.0520845206
 11
73.5935750467
 21
19.8132404692
  0
LINE
  5
21C
100
AcDbEntity
  8
0
100
AcDbLine
 62
7
  6
BYLAYER
 10
70.8635750467
 20
26.6943964178
 11
73.5935750467
 21
26.9332404692
  0
LINE
  5
21D
100
AcDbEntity
  8
0
100
AcDbLine
 62
7
  6
BYLAYER
 10
74.5935750467
 20
21.7732404692
 11
78.3935750467
 21
21.7732404692
  0
LINE
  5
21E
100
AcDbEntity
  8
0
100
AcDbLine
 62
7
  6
BYLAYER
 10
73.5935750467
 20
21.8732404692
 11
77.5935750467
 21
21.8732404692
  0
LINE
  5
21F
100
AcDbEntity
  8
0
100
AcDbLine
 62
7
  6
BYLAYER
 10
73.5935750467
 20
22.3732404692
 11
77.5935750467
 21
22.3732404692
  0
LINE
  5
220
100
AcDbEntity
  8
0
100
AcDbLine
 62
7
  6
BYLAYER
 10
72.1635750467
 20
22.7482404692
 11
70.8635750467
 21
22.7482404692
  0
LINE
  5
221
100
AcDbEntity
  8
0
100
AcDbLine
 62
7
  6
BYLAYER
 10
77.5935750467
 20
22.8732404692
 11
73.5935750467
 21
22.8732404692
  0
LINE
  5
222
100
AcDbEntity
  8
0
100
AcDbLine
 62
7
  6
BYLAYER
 10
114.6935750467
 20
23.9732404692
 11
114.2935750467
 21
23.9732404692
  0
LINE
  5
223
100
AcDbEntity
  8
0
100
AcDbLine
 62
7
  6
BYLAYER
 10
70.8635750467
 20
23.9982404692
 11
72.1635750467
 21
23.9982404692
  0
LINE
  5
224
100
AcDbEntity
  8
0
100
AcDbLine
 62
7
  6
BYLAYER
 10
73.5935750467
 20
29.9732404692
 11
81.2935750467
 21
29.9732404692
  0
LINE
  5
225
100
AcDbEntity
  8
0
100
AcDbLine
 62
7
  6
BYLAYER
 10
114.6935750467
 20
33.9732404692
 11
114.2935750467
 21
33.9732404692
  0
LINE
  5
226
100
AcDbEntity
  8
0
100
AcDbLine
 62
7
  6
BYLAYER
 10
73.5935750467
 20
34.9732404692
 11
77.5935750467
 21
34.9732404692
  0
LINE
  5
227
100
AcDbEntity
  8
0
100
AcDbLine
 62
7
  6
BYLAYER
 10
78.3935750467
 20
34.9732404692
 11
81.2935750467
 21
34.9732404692
  0
LINE
  5
228
100
AcDbEntity
  8
0
100
AcDbLine
 62
7
  6
BYLAYER
 10
77.5935750467
 20
35.7732404692
 11
78.3935750467
 21
35.7732404692
  0
LINE
  5
229
100
AcDbEntity
  8
0
100
AcDbLine
 62
7
  6
BYLAYER
 10
114.6935750467
 20
36.2732404692
 11
114.2935750467
 21
36.2732404692
  0
LINE
  5
22A
100
AcDbEntity
  8
0
100
AcDbLine
 62
7
  6
BYLAYER
 10
81.2935750467
 20
36.4732404692
 11
78.3935750467
 21
36.4732404692
  0
LINE
  5
22B
100
AcDbEntity
  8
0
100
AcDbLine
 62
7
  6
BYLAYER
 10
77.5935750467
 20
36.4732404692
 11
73.5935750467
 21
36.4732404692
  0
LINE
  5
22C
100
AcDbEntity
  8
0
100
AcDbLine
 62
7
  6
BYLAYER
 10
78.3935750467
 20
37.5732404692
 11
77.5935750467
 21
37.5732404692
  0
LINE
  5
22D
100
AcDbEntity
  8
0
100
AcDbLine
 62
7
  6
BYLAYER
 10
114.6935750467
 20
42.2732404692
 11
114.2935750467
 21
42.2732404692
  0
LINE
  5
22E
100
AcDbEntity
  8
0
100
AcDbLine
 62
7
  6
BYLAYER
 10
114.6935750467
 20
43.4732404692
 11
114.2935750467
 21
43.4732404692
  0
LINE
  5
22F
100
AcDbEntity
  8
0
100
AcDbLine
 62
7
  6
BYLAYER
 10
114.6935750467
 20
51.4732404692
 11
114.2935750467
 21
51.4732404692
  0
LINE
  5
230
100
AcDbEntity
  8
0
100
AcDbLine
 62
7
  6
BYLAYER
 10
101.2117863716
 20
186.9880936229
 11
102.7773820549
 21
188.3231425681
  0
LINE
  5
231
100
AcDbEntity
  8
0
100
AcDbLine
 62
7
  6
BYLAYER
 10
91.2019093199
 20
163.651944904
 11
88.0156938196
 21
161.1737772926
  0
LINE
  5
232
100
AcDbEntity
  8
0
100
AcDbLine
 62
7
  6
BYLAYER
 10
77.5935750467
 20
80.3732404692
 11
78.3935750467
 21
80.3732404692
  0
LINE
  5
233
100
AcDbEntity
  8
0
100
AcDbLine
 62
7
  6
BYLAYER
 10
73.5935750467
 20
81.4732404692
 11
77.5935750467
 21
81.4732404692
  0
LINE
  5
234
100
AcDbEntity
  8
0
100
AcDbLine
 62
7
  6
BYLAYER
 10
78.3935750467
 20
81.4732404692
 11
81.2935750467
 21
81.4732404692
  0
LINE
  5
235
100
AcDbEntity
  8
0
100
AcDbLine
 62
7
  6
BYLAYER
 10
50.4935750467
 20
100.7732404692
 11
50.4935750467
 21
108.7732404692
  0
LINE
  5
236
100
AcDbEntity
  8
0
100
AcDbLine
 62
7
  6
BYLAYER
 10
51.2516003608
 20
95.965570692
 11
51.2516002311
 21
113.5806704421
  0
LINE
  5
237
100
AcDbEntity
  8
0
100
AcDbLine
 62
7
  6
BYLAYER
 10
52.2030935439
 20
95.2732404692
 11
52.2030935439
 21
114.2732404692
  0
LINE
  5
238
100
AcDbEntity
  8
0
100
AcDbLine
 62
7
  6
BYLAYER
 10
52.8722547081
 20
114.2732404692
 11
52.8722547081
 21
95.2732404692
  0
LINE
  5
239
100
AcDbEntity
  8
0
100
AcDbLine
 62
7
  6
BYLAYER
 10
53.932914879
 20
95.7125803015
 11
53.932914879
 21
113.8337748538
  0
LINE
  5
23A
100
AcDbEntity
  8
0
100
AcDbLine
 62
7
  6
BYLAYER
 10
55.5352059553
 20
112.2316095605
 11
55.5352059553
 21
97.3150457595
  0
LINE
  5
23B
100
AcDbEntity
  8
0
100
AcDbLine
 62
7
  6
BYLAYER
 10
51.2516002311
 20
113.5806704421
 11
51.2516016101
 21
113.5809141099
  0
LINE
  5
23C
100
AcDbEntity
  8
0
100
AcDbLine
 62
7
  6
BYLAYER
 10
78.3935750467
 20
82.1732404692
 11
77.5935750467
 21
82.1732404692
  0
LINE
  5
23D
100
AcDbEntity
  8
0
100
AcDbLine
 62
7
  6
BYLAYER
 10
81.2935750467
 20
82.9732404692
 11
78.3935750467
 21
82.9732404692
  0
LINE
  5
23E
100
AcDbEntity
  8
0
100
AcDbLine
 62
7
  6
BYLAYER
 10
77.5935750467
 20
82.9732404692
 11
73.5935750467
 21
82.9732404692
  0
LINE
  5
23F
100
AcDbEntity
  8
0
100
AcDbLine
 62
7
  6
BYLAYER
 10
114.6935750467
 20
83.9732404692
 11
114.2935750467
 21
83.9732404692
  0
LINE
  5
240
100
AcDbEntity
  8
0
100
AcDbLine
 62
7
  6
BYLAYER
 10
73.5935750467
 20
87.5186950147
 11
77.5935750467
 21
87.5186950147
  0
LINE
  5
241
100
AcDbEntity
  8
0
100
AcDbLine
 62
7
  6
BYLAYER
 10
81.2935750467
 20
87.9732404692
 11
73.5935750467
 21
87.9732404692
  0
LINE
  5
242
100
AcDbEntity
  8
0
100
AcDbLine
 62
7
  6
BYLAYER
 10
78.3935750467
 20
88.4732404692
 11
73.5935750467
 21
88.4732404692
  0
LINE
  5
243
100
AcDbEntity
  8
0
100
AcDbLine
 62
7
  6
BYLAYER
 10
72.1635750467
 20
88.7482404692
 11
70.8635750467
 21
88.7482404692
  0
LINE
  5
244
100
AcDbEntity
  8
0
100
AcDbLine
 62
7
  6
BYLAYER
 10
70.8635750467
 20
86.0520845206
 11
73.5935750467
 21
85.8132404692
  0
LINE
  5
245
100
AcDbEntity
  8
0
100
AcDbLine
 62
7
  6
BYLAYER
 10
56.8827898571
 20
97.8995476296
 11
56.8827898571
 21
111.6469333089
  0
LINE
  5
246
100
AcDbEntity
  8
0
100
AcDbLine
 62
7
  6
BYLAYER
 10
70.8635750467
 20
92.6943964178
 11
73.5935750467
 21
92.9332404692
  0
LINE
  5
247
100
AcDbEntity
  8
0
100
AcDbLine
 62
7
  6
BYLAYER
 10
70.8635750467
 20
89.9982404692
 11
72.1635750467
 21
89.9982404692
  0
LINE
  5
248
100
AcDbEntity
  8
0
100
AcDbLine
 62
7
  6
BYLAYER
 10
81.2935750467
 20
93.9732404692
 11
114.6935750467
 21
93.9732404692
  0
LINE
  5
249
100
AcDbEntity
  8
0
100
AcDbLine
 62
7
  6
BYLAYER
 10
73.5935750467
 20
94.8732404692
 11
74.5935750467
 21
94.8732404692
  0
LINE
  5
24A
100
AcDbEntity
  8
0
100
AcDbLine
 62
7
  6
BYLAYER
 10
52.2030935439
 20
95.2732404692
 11
52.8722547081
 21
95.2732404692
  0
LINE
  5
24B
100
AcDbEntity
  8
0
100
AcDbLine
 62
7
  6
BYLAYER
 10
74.5935750467
 20
95.3732404692
 11
73.5935750467
 21
95.3732404692
  0
LINE
  5
24C
100
AcDbEntity
  8
0
100
AcDbLine
 62
7
  6
BYLAYER
 10
114.2935750467
 20
95.4732404692
 11
74.5935750467
 21
95.4732404692
  0
LINE
  5
24D
100
AcDbEntity
  8
0
100
AcDbLine
 62
7
  6
BYLAYER
 10
53.932914879
 20
113.8339006369
 11
55.5352059553
 21
112.2316095605
  0
LINE
  5
24E
100
AcDbEntity
  8
0
100
AcDbLine
 62
7
  6
BYLAYER
 10
56.8827898571
 20
97.8995476296
 11
71.0935750467
 21
98.3732404692
  0
LINE
  5
24F
100
AcDbEntity
  8
0
100
AcDbLine
 62
7
  6
BYLAYER
 10
89.2935750467
 20
95.8732404692
 11
106.2935750467
 21
95.8732404692
  0
LINE
  5
250
100
AcDbEntity
  8
0
100
AcDbLine
 62
7
  6
BYLAYER
 10
77.2935750494
 20
98.2732404692
 11
81.2935750467
 21
98.2732404692
  0
LINE
  5
251
100
AcDbEntity
  8
0
100
AcDbLine
 62
7
  6
BYLAYER
 10
76.0935750467
 20
100.1732404692
 11
71.0985750467
 21
100.1732404692
  0
LINE
  5
252
100
AcDbEntity
  8
0
100
AcDbLine
 62
7
  6
BYLAYER
 10
76.0935750467
 20
100.2732404692
 11
76.2935750467
 21
100.2732404692
  0
LINE
  5
253
100
AcDbEntity
  8
0
100
AcDbLine
 62
7
  6
BYLAYER
 10
81.2935750467
 20
100.4732404692
 11
89.3935750467
 21
100.4732404692
  0
LINE
  5
254
100
AcDbEntity
  8
0
100
AcDbLine
 62
7
  6
BYLAYER
 10
106.1935750467
 20
100.4732404692
 11
114.2935750467
 21
100.4732404692
  0
LINE
  5
255
100
AcDbEntity
  8
0
100
AcDbLine
 62
7
  6
BYLAYER
 10
76.2935750467
 20
99.8732404692
 11
77.2935750469
 21
98.2732404688
  0
LINE
  5
256
100
AcDbEntity
  8
0
100
AcDbLine
 62
7
  6
BYLAYER
 10
70.8635750467
 20
20.0520871313
 11
70.8635750467
 21
22.7482404692
  0
LINE
  5
257
100
AcDbEntity
  8
0
100
AcDbLine
 62
7
  6
BYLAYER
 10
70.8635750467
 20
23.9982404692
 11
70.8635750467
 21
26.6943938071
  0
LINE
  5
258
100
AcDbEntity
  8
0
100
AcDbLine
 62
7
  6
BYLAYER
 10
70.8635750467
 20
86.0520871313
 11
70.8635750467
 21
88.7482404692
  0
LINE
  5
259
100
AcDbEntity
  8
0
100
AcDbLine
 62
7
  6
BYLAYER
 10
70.8635750467
 20
89.9982404692
 11
70.8635750467
 21
92.6943938071
  0
LINE
  5
25A
100
AcDbEntity
  8
0
100
AcDbLine
 62
7
  6
BYLAYER
 10
71.0935750467
 20
111.1732404692
 11
71.0935750467
 21
98.3732404692
  0
LINE
  5
25B
100
AcDbEntity
  8
0
100
AcDbLine
 62
7
  6
BYLAYER
 10
71.0985750467
 20
100.1732430089
 11
71.0985750467
 21
109.3732379295
  0
LINE
  5
25C
100
AcDbEntity
  8
0
100
AcDbLine
 62
7
  6
BYLAYER
 10
72.1635750467
 20
22.7482404692
 11
72.1635750467
 21
23.9982404692
  0
LINE
  5
25D
100
AcDbEntity
  8
0
100
AcDbLine
 62
7
  6
BYLAYER
 10
72.1635750467
 20
88.7482404692
 11
72.1635750467
 21
89.9982404692
  0
LINE
  5
25E
100
AcDbEntity
  8
0
100
AcDbLine
 62
7
  6
BYLAYER
 10
73.5935750467
 20
19.0732404692
 11
73.5935750467
 21
95.3732404692
  0
LINE
  5
25F
100
AcDbEntity
  8
0
100
AcDbLine
 62
7
  6
BYLAYER
 10
74.5935750467
 20
95.4732404692
 11
74.5935750467
 21
88.4732404692
  0
LINE
  5
260
100
AcDbEntity
  8
0
100
AcDbLine
 62
7
  6
BYLAYER
 10
74.5935750467
 20
21.7732404692
 11
74.5935750467
 21
18.9732404692
  0
LINE
  5
261
100
AcDbEntity
  8
0
100
AcDbLine
 62
7
  6
BYLAYER
 10
76.0935750467
 20
109.3732379295
 11
76.0935750467
 21
100.1732430089
  0
LINE
  5
262
100
AcDbEntity
  8
0
100
AcDbLine
 62
7
  6
BYLAYER
 10
76.0935750467
 20
88.4732404692
 11
76.0935750467
 21
21.7732404692
  0
LINE
  5
263
100
AcDbEntity
  8
0
100
AcDbLine
 62
7
  6
BYLAYER
 10
76.2935750467
 20
99.8732404692
 11
76.2935750467
 21
109.6732404692
  0
LINE
  5
264
100
AcDbEntity
  8
0
100
AcDbLine
 62
7
  6
BYLAYER
 10
53.932914879
 20
95.7125803015
 11
55.5352059553
 21
97.3148713779
  0
LINE
  5
265
100
AcDbEntity
  8
0
100
AcDbLine
 62
7
  6
BYLAYER
 10
77.9220459838
 20
104.7732404692
 11
81.2935750467
 21
104.7732404692
  0
LINE
  5
266
100
AcDbEntity
  8
0
100
AcDbLine
 62
7
  6
BYLAYER
 10
77.5935750467
 20
21.7732404692
 11
77.5935750467
 21
88.4732404692
  0
LINE
  5
267
100
AcDbEntity
  8
0
100
AcDbLine
 62
7
  6
BYLAYER
 10
78.3935750467
 20
21.7732404692
 11
78.3935750467
 21
88.4732404692
  0
LINE
  5
268
100
AcDbEntity
  8
0
100
AcDbLine
 62
7
  6
BYLAYER
 10
81.2935750467
 20
18.9732404692
 11
81.2935750467
 21
36.4732404692
  0
LINE
  5
269
100
AcDbEntity
  8
0
100
AcDbLine
 62
7
  6
BYLAYER
 10
81.2935750467
 20
81.4732404692
 11
81.2935750467
 21
117.9757641703
  0
LINE
  5
26A
100
AcDbEntity
  8
0
100
AcDbLine
 62
7
  6
BYLAYER
 10
82.2685750467
 20
119.2732404692
 11
82.2685750467
 21
121.0528064269
  0
LINE
  5
26B
100
AcDbEntity
  8
0
100
AcDbLine
 62
7
  6
BYLAYER
 10
82.2935750467
 20
143.2732404692
 11
82.2935750467
 21
164.0732404692
  0
LINE
  5
26C
100
AcDbEntity
  8
0
100
AcDbLine
 62
7
  6
BYLAYER
 10
82.329022406
 20
121.3344102157
 11
82.329022406
 21
121.0528064269
  0
LINE
  5
26D
100
AcDbEntity
  8
0
100
AcDbLine
 62
7
  6
BYLAYER
 10
82.7935750467
 20
95.4732404692
 11
82.7935750467
 21
100.4732404692
  0
LINE
  5
26E
100
AcDbEntity
  8
0
100
AcDbLine
 62
7
  6
BYLAYER
 10
76.2935750467
 20
109.6732404692
 11
77.2935750466
 21
111.2732404692
  0
LINE
  5
26F
100
AcDbEntity
  8
0
100
AcDbLine
 62
7
  6
BYLAYER
 10
87.0980108668
 20
121.7732404692
 11
86.9796030226
 21
121.6032404692
  0
LINE
  5
270
100
AcDbEntity
  8
0
100
AcDbLine
 62
7
  6
BYLAYER
 10
87.0979986902
 20
121.7732607713
 11
86.9790381462
 21
121.6036514136
  0
LINE
  5
271
100
AcDbEntity
  8
0
100
AcDbLine
 62
7
  6
BYLAYER
 10
82.6690509943
 20
119.2732404692
 11
82.559764521
 21
119.160529907
  0
LINE
  5
272
100
AcDbEntity
  8
0
100
AcDbLine
 62
7
  6
BYLAYER
 10
82.559764521
 20
119.160529907
 11
82.1184301239
 21
118.9603089196
  0
LINE
  5
273
100
AcDbEntity
  8
0
100
AcDbLine
 62
7
  6
BYLAYER
 10
76.0935750467
 20
109.2732404692
 11
76.2935750467
 21
109.2732404692
  0
LINE
  5
274
100
AcDbEntity
  8
0
100
AcDbLine
 62
7
  6
BYLAYER
 10
76.0935750467
 20
109.3732404692
 11
71.0985750467
 21
109.3732404692
  0
LINE
  5
275
100
AcDbEntity
  8
0
100
AcDbLine
 62
7
  6
BYLAYER
 10
77.2935750494
 20
111.2732404692
 11
81.2935750467
 21
111.2732404692
  0
LINE
  5
276
100
AcDbEntity
  8
0
100
AcDbLine
 62
7
  6
BYLAYER
 10
52.2030935439
 20
114.2732404692
 11
52.8722547081
 21
114.2732404692
  0
LINE
  5
277
100
AcDbEntity
  8
0
100
AcDbLine
 62
7
  6
BYLAYER
 10
56.8827898571
 20
111.6469333089
 11
71.0935750467
 21
111.1732404692
  0
LINE
  5
278
100
AcDbEntity
  8
0
100
AcDbLine
 62
7
  6
BYLAYER
 10
85.166907813
 20
118.1263491597
 11
85.1145718568
 21
119.1249786944
  0
LINE
  5
279
100
AcDbEntity
  8
0
100
AcDbLine
 62
7
  6
BYLAYER
 10
83.7935750467
 20
164.0732404692
 11
83.7935750467
 21
143.2732404692
  0
LINE
  5
27A
100
AcDbEntity
  8
0
100
AcDbLine
 62
7
  6
BYLAYER
 10
84.0435750467
 20
119.06885013
 11
84.0435750467
 21
119.2732404692
  0
LINE
  5
27B
100
AcDbEntity
  8
0
100
AcDbLine
 62
7
  6
BYLAYER
 10
87.2435750467
 20
155.0732404692
 11
87.2435750467
 21
159.5950728579
  0
LINE
  5
27C
100
AcDbEntity
  8
0
100
AcDbLine
 62
7
  6
BYLAYER
 10
87.5435750467
 20
119.2522773575
 11
87.5435750467
 21
119.2732404692
  0
LINE
  5
27D
100
AcDbEntity
  8
0
100
AcDbLine
 62
7
  6
BYLAYER
 10
87.6030575793
 20
145.7732404692
 11
87.6030575793
 21
146.2732404692
  0
LINE
  5
27E
100
AcDbEntity
  8
0
100
AcDbLine
 62
7
  6
BYLAYER
 10
87.6030575793
 20
150.2732404692
 11
87.6030575793
 21
150.7732404692
  0
LINE
  5
27F
100
AcDbEntity
  8
0
100
AcDbLine
 62
7
  6
BYLAYER
 10
87.7962427446
 20
150.7732404692
 11
87.7962427446
 21
150.2732404692
  0
LINE
  5
280
100
AcDbEntity
  8
0
100
AcDbLine
 62
7
  6
BYLAYER
 10
87.7962427446
 20
146.2732404692
 11
87.7962427446
 21
145.7732404692
  0
LINE
  5
281
100
AcDbEntity
  8
0
100
AcDbLine
 62
7
  6
BYLAYER
 10
89.2935750467
 20
100.4732404692
 11
89.2935750467
 21
95.4732404692
  0
LINE
  5
282
100
AcDbEntity
  8
0
100
AcDbLine
 62
7
  6
BYLAYER
 10
89.3185750467
 20
119.2732404692
 11
89.3185750467
 21
120.4032404692
  0
LINE
  5
283
100
AcDbEntity
  8
0
100
AcDbLine
 62
7
  6
BYLAYER
 10
89.3935750467
 20
100.4732404692
 11
89.3935750467
 21
95.8732404692
  0
LINE
  5
284
100
AcDbEntity
  8
0
100
AcDbLine
 62
7
  6
BYLAYER
 10
84.7935750467
 20
115.7732404692
 11
82.7935750467
 21
100.4732404692
  0
LINE
  5
285
100
AcDbEntity
  8
0
100
AcDbLine
 62
7
  6
BYLAYER
 10
85.1669079771
 20
118.1263491683
 11
84.7935750467
 21
115.7732404692
  0
LINE
  5
286
100
AcDbEntity
  8
0
100
AcDbLine
 62
7
  6
BYLAYER
 10
82.119504124
 20
118.9606609357
 11
82.1344159273
 21
118.9634135242
  0
LINE
  5
287
100
AcDbEntity
  8
0
100
AcDbLine
 62
7
  6
BYLAYER
 10
82.1199474544
 20
118.9605755528
 11
82.11795445
 21
118.9602244209
  0
LINE
  5
288
100
AcDbEntity
  8
0
100
AcDbLine
 62
7
  6
BYLAYER
 10
97.7935750467
 20
118.7880847491
 11
85.1669079771
 21
118.1263491683
  0
LINE
  5
289
100
AcDbEntity
  8
0
100
AcDbLine
 62
7
  6
BYLAYER
 10
82.2412390904
 20
118.974393705
 11
87.9435750467
 21
119.2732404692
  0
LINE
  5
28A
100
AcDbEntity
  8
0
100
AcDbLine
 62
7
  6
BYLAYER
 10
114.2935750467
 20
115.7732404692
 11
81.2935750467
 21
115.7732404692
  0
LINE
  5
28B
100
AcDbEntity
  8
0
100
AcDbLine
 62
7
  6
BYLAYER
 10
82.2685797856
 20
119.2732404692
 11
113.3185703362
 21
119.2732404692
  0
LINE
  5
28C
100
AcDbEntity
  8
0
100
AcDbLine
 62
7
  6
BYLAYER
 10
106.2685750467
 20
119.7632404692
 11
101.7935400496
 21
119.7632404692
  0
LINE
  5
28D
100
AcDbEntity
  8
0
100
AcDbLine
 62
7
  6
BYLAYER
 10
93.7937245481
 20
119.7632404692
 11
89.3185750467
 21
119.7632404692
  0
LINE
  5
28E
100
AcDbEntity
  8
0
100
AcDbLine
 62
7
  6
BYLAYER
 10
97.5423721295
 20
120.0183117125
 11
98.0447618887
 21
120.0183117125
  0
LINE
  5
28F
100
AcDbEntity
  8
0
100
AcDbLine
 62
7
  6
BYLAYER
 10
95.7939104754
 20
120.167823239
 11
95.8509666503
 21
120.1678290718
  0
LINE
  5
290
100
AcDbEntity
  8
0
100
AcDbLine
 62
7
  6
BYLAYER
 10
82.2685948455
 20
120.4032404692
 11
89.3185552478
 21
120.4032404692
  0
LINE
  5
291
100
AcDbEntity
  8
0
100
AcDbLine
 62
7
  6
BYLAYER
 10
82.2685953559
 20
121.0528064269
 11
82.329022406
 21
121.0528064269
  0
LINE
  5
292
100
AcDbEntity
  8
0
100
AcDbLine
 62
7
  6
BYLAYER
 10
106.2685953559
 20
121.0528064269
 11
106.329022406
 21
121.0528064269
  0
LINE
  5
293
100
AcDbEntity
  8
0
100
AcDbLine
 62
7
  6
BYLAYER
 10
113.2581276873
 20
121.0528064269
 11
113.3185547374
 21
121.0528064269
  0
LINE
  5
294
100
AcDbEntity
  8
0
100
AcDbLine
 62
7
  6
BYLAYER
 10
82.329022406
 20
121.3344102157
 11
82.7913059052
 21
121.3344102157
  0
LINE
  5
295
100
AcDbEntity
  8
0
100
AcDbLine
 62
7
  6
BYLAYER
 10
106.329022406
 20
121.3344102157
 11
113.2581276873
 21
121.3344102157
  0
LINE
  5
296
100
AcDbEntity
  8
0
100
AcDbLine
 62
7
  6
BYLAYER
 10
83.5741001651
 20
121.6032404692
 11
84.6581593962
 21
121.6032404692
  0
LINE
  5
297
100
AcDbEntity
  8
0
100
AcDbLine
 62
7
  6
BYLAYER
 10
86.9289906971
 20
121.6032404692
 11
88.0130499282
 21
121.6032404692
  0
LINE
  5
298
100
AcDbEntity
  8
0
100
AcDbLine
 62
7
  6
BYLAYER
 10
87.0980108668
 20
121.7732404692
 11
93.4124371941
 21
121.7732404692
  0
LINE
  5
299
100
AcDbEntity
  8
0
100
AcDbLine
 62
7
  6
BYLAYER
 10
102.1748215296
 20
121.7732404692
 11
107.196184266
 21
121.7732404692
  0
LINE
  5
29A
100
AcDbEntity
  8
0
100
AcDbLine
 62
7
  6
BYLAYER
 10
99.7361353644
 20
120.1678292338
 11
99.793243533
 21
120.1678236441
  0
LINE
  5
29B
100
AcDbEntity
  8
0
100
AcDbLine
 62
7
  6
BYLAYER
 10
110.4202421162
 20
118.1263491683
 11
97.7935750467
 21
118.7880847491
  0
LINE
  5
29C
100
AcDbEntity
  8
0
100
AcDbLine
 62
7
  6
BYLAYER
 10
107.6435750467
 20
119.2732404692
 11
113.3459110029
 21
118.974393705
  0
LINE
  5
29D
100
AcDbEntity
  8
0
100
AcDbLine
 62
7
  6
BYLAYER
 10
90.3659638335
 20
176.1158113719
 11
90.3659638335
 21
172.8306695665
  0
LINE
  5
29E
100
AcDbEntity
  8
0
100
AcDbLine
 62
7
  6
BYLAYER
 10
90.7935750467
 20
170.7132404692
 11
90.7935750467
 21
169.7132404692
  0
LINE
  5
29F
100
AcDbEntity
  8
0
100
AcDbLine
 62
7
  6
BYLAYER
 10
91.2435750467
 20
178.4732404692
 11
91.2435750467
 21
182.9962271514
  0
LINE
  5
2A0
100
AcDbEntity
  8
0
100
AcDbLine
 62
7
  6
BYLAYER
 10
91.7935750467
 20
171.4132404692
 11
91.7935750467
 21
170.7132404692
  0
LINE
  5
2A1
100
AcDbEntity
  8
0
100
AcDbLine
 62
7
  6
BYLAYER
 10
93.0435750467
 20
167.0732404692
 11
93.0435750467
 21
164.0732404692
  0
LINE
  5
2A2
100
AcDbEntity
  8
0
100
AcDbLine
 62
7
  6
BYLAYER
 10
93.7935750467
 20
172.4732404692
 11
93.7935750467
 21
171.4132404692
  0
LINE
  5
2A3
100
AcDbEntity
  8
0
100
AcDbLine
 62
7
  6
BYLAYER
 10
94.0797694401
 20
176.1158113719
 11
94.0797694401
 21
172.8306695665
  0
LINE
  5
2A4
100
AcDbEntity
  8
0
100
AcDbLine
 62
7
  6
BYLAYER
 10
95.0630341208
 20
150.7732404692
 11
95.0630341208
 21
150.2732404692
  0
LINE
  5
2A5
100
AcDbEntity
  8
0
100
AcDbLine
 62
7
  6
BYLAYER
 10
95.0630341208
 20
146.2732404692
 11
95.0630341208
 21
145.7732404692
  0
LWPOLYLINE
  5
2A6
100
AcDbEntity
  8
0
100
AcDbPolyline
 62
7
  6
BYLAYER
 90
4
 70
0
 10
104.3435714656
 20
182.9962271513
 10
104.5611287934
 20
184.1178443323
 10
104.843386747
 20
184.6542695423
 10
105.6407537478
 20
185.4661416849
  0
LINE
  5
2A7
100
AcDbEntity
  8
0
100
AcDbLine
 62
7
  6
BYLAYER
 10
107.4335286818
 20
125.5300136018
 11
102.0826121638
 21
125.5300136018
  0
LINE
  5
2A8
100
AcDbEntity
  8
0
100
AcDbLine
 62
7
  6
BYLAYER
 10
93.504537926
 20
125.5300136018
 11
88.15362141
 21
125.5300136018
  0
LINE
  5
2A9
100
AcDbEntity
  8
0
100
AcDbLine
 62
7
  6
BYLAYER
 10
113.4676180147
 20
118.9605022295
 11
113.4656860486
 21
118.9608553633
  0
LINE
  5
2AA
100
AcDbEntity
  8
0
100
AcDbLine
 62
7
  6
BYLAYER
 10
113.4670816021
 20
118.9607641081
 11
113.4524980617
 21
118.9634590291
  0
LINE
  5
2AB
100
AcDbEntity
  8
0
100
AcDbLine
 62
7
  6
BYLAYER
 10
113.4676459678
 20
118.9606609359
 11
113.4524980617
 21
118.9634590291
  0
LINE
  5
2AC
100
AcDbEntity
  8
0
100
AcDbLine
 62
7
  6
BYLAYER
 10
97.7935750467
 20
168.5732404692
 11
97.7935750467
 21
167.0732404692
  0
LINE
  5
2AD
100
AcDbEntity
  8
0
100
AcDbLine
 62
7
  6
BYLAYER
 10
97.7935750467
 20
118.7880847491
 11
97.7935750788
 21
119.2732404692
  0
LINE
  5
2AE
100
AcDbEntity
  8
0
100
AcDbLine
 62
7
  6
BYLAYER
 10
100.5241159725
 20
145.7732404692
 11
100.5241159725
 21
146.2732404692
  0
LINE
  5
2AF
100
AcDbEntity
  8
0
100
AcDbLine
 62
7
  6
BYLAYER
 10
100.5241159725
 20
150.2732404692
 11
100.5241159725
 21
150.7732404692
  0
LINE
  5
2B0
100
AcDbEntity
  8
0
100
AcDbLine
 62
7
  6
BYLAYER
 10
101.3341957505
 20
170.7132404692
 11
101.3341957505
 21
171.4132404692
  0
LINE
  5
2B1
100
AcDbEntity
  8
0
100
AcDbLine
 62
7
  6
BYLAYER
 10
101.5073806532
 20
176.1158113719
 11
101.5073806532
 21
172.8306695665
  0
LINE
  5
2B2
100
AcDbEntity
  8
0
100
AcDbLine
 62
7
  6
BYLAYER
 10
101.7440922999
 20
170.7132404692
 11
101.7440922999
 21
171.4132404692
  0
LINE
  5
2B3
100
AcDbEntity
  8
0
100
AcDbLine
 62
7
  6
BYLAYER
 10
101.7935750467
 20
172.4732404692
 11
101.7935750467
 21
170.7132404692
  0
LINE
  5
2B4
100
AcDbEntity
  8
0
100
AcDbLine
 62
7
  6
BYLAYER
 10
102.5435750467
 20
167.0732404692
 11
102.5435750467
 21
164.0732404692
  0
LINE
  5
2B5
100
AcDbEntity
  8
0
100
AcDbLine
 62
7
  6
BYLAYER
 10
97.7935635401
 20
190.140771081
 11
97.793591567
 21
190.3529476328
  0
LWPOLYLINE
  5
2B6
100
AcDbEntity
  8
0
100
AcDbPolyline
 62
7
  6
BYLAYER
 90
3
 70
0
 10
113.4668218868
 20
118.9606480946
 10
113.0260331295
 20
119.1616157004
 10
112.9181288504
 20
119.2732404692
  0
LINE
  5
2B7
100
AcDbEntity
  8
0
100
AcDbLine
 62
7
  6
BYLAYER
 10
104.3435750467
 20
178.4732404692
 11
104.3435750467
 21
182.9962271513
  0
LINE
  5
2B8
100
AcDbEntity
  8
0
100
AcDbLine
 62
7
  6
BYLAYER
 10
104.7935750467
 20
170.7132404692
 11
104.7935750467
 21
169.7132404692
  0
LINE
  5
2B9
100
AcDbEntity
  8
0
100
AcDbLine
 62
7
  6
BYLAYER
 10
104.7935750467
 20
167.0732404692
 11
104.7935750467
 21
168.5732404692
  0
LINE
  5
2BA
100
AcDbEntity
  8
0
100
AcDbLine
 62
7
  6
BYLAYER
 10
105.2211862598
 20
176.1158113719
 11
105.2211862598
 21
172.8306695665
  0
LINE
  5
2BB
100
AcDbEntity
  8
0
100
AcDbLine
 62
7
  6
BYLAYER
 10
106.1935750467
 20
100.4732404692
 11
106.1935750467
 21
95.8732404692
  0
LINE
  5
2BC
100
AcDbEntity
  8
0
100
AcDbLine
 62
7
  6
BYLAYER
 10
106.2685750467
 20
119.2732404692
 11
106.2685750467
 21
121.0528064269
  0
LINE
  5
2BD
100
AcDbEntity
  8
0
100
AcDbLine
 62
7
  6
BYLAYER
 10
106.2935750467
 20
100.4732404692
 11
106.2935750467
 21
95.4732404692
  0
LINE
  5
2BE
100
AcDbEntity
  8
0
100
AcDbLine
 62
7
  6
BYLAYER
 10
106.329022406
 20
121.3344102157
 11
106.329022406
 21
121.0528064269
  0
LINE
  5
2BF
100
AcDbEntity
  8
0
100
AcDbLine
 62
7
  6
BYLAYER
 10
107.7909073487
 20
145.7732404692
 11
107.7909073487
 21
146.2732404692
  0
LINE
  5
2C0
100
AcDbEntity
  8
0
100
AcDbLine
 62
7
  6
BYLAYER
 10
107.7909073487
 20
150.2732404692
 11
107.7909073487
 21
150.7732404692
  0
LINE
  5
2C1
100
AcDbEntity
  8
0
100
AcDbLine
 62
7
  6
BYLAYER
 10
107.984092514
 20
150.7732404692
 11
107.984092514
 21
150.2732404692
  0
LINE
  5
2C2
100
AcDbEntity
  8
0
100
AcDbLine
 62
7
  6
BYLAYER
 10
107.984092514
 20
146.2732404692
 11
107.984092514
 21
145.7732404692
  0
LINE
  5
2C3
100
AcDbEntity
  8
0
100
AcDbLine
 62
7
  6
BYLAYER
 10
108.0435750467
 20
119.2522773575
 11
108.0435750467
 21
119.2732404692
  0
LINE
  5
2C4
100
AcDbEntity
  8
0
100
AcDbLine
 62
7
  6
BYLAYER
 10
108.3435750467
 20
155.0732404692
 11
108.3435750467
 21
159.5950728579
  0
LINE
  5
2C5
100
AcDbEntity
  8
0
100
AcDbLine
 62
7
  6
BYLAYER
 10
109.2785750467
 20
121.9889340179
 11
109.2785750467
 21
122.320121498
  0
LINE
  5
2C6
100
AcDbEntity
  8
0
100
AcDbLine
 62
7
  6
BYLAYER
 10
110.3085750467
 20
122.320121498
 11
110.3085750467
 21
121.9889340179
  0
LINE
  5
2C7
100
AcDbEntity
  8
0
100
AcDbLine
 62
7
  6
BYLAYER
 10
110.4725780718
 20
119.1249787031
 11
110.4202421156
 21
118.1263491683
  0
LINE
  5
2C8
100
AcDbEntity
  8
0
100
AcDbLine
 62
7
  6
BYLAYER
 10
111.5435750467
 20
119.06885013
 11
111.5435750467
 21
119.2732404692
  0
LINE
  5
2C9
100
AcDbEntity
  8
0
100
AcDbLine
 62
7
  6
BYLAYER
 10
112.7935750467
 20
100.4732404692
 11
112.7935750467
 21
95.4732404692
  0
LINE
  5
2CA
100
AcDbEntity
  8
0
100
AcDbLine
 62
7
  6
BYLAYER
 10
113.2581276873
 20
121.0528064269
 11
113.2581276873
 21
121.3344102157
  0
LINE
  5
2CB
100
AcDbEntity
  8
0
100
AcDbLine
 62
7
  6
BYLAYER
 10
113.3185750467
 20
119.2732404692
 11
113.3185750467
 21
121.0528064269
  0
LINE
  5
2CC
100
AcDbEntity
  8
0
100
AcDbLine
 62
7
  6
BYLAYER
 10
114.2935750467
 20
18.9732404692
 11
114.2935750467
 21
117.9757641703
  0
LINE
  5
2CD
100
AcDbEntity
  8
0
100
AcDbLine
 62
7
  6
BYLAYER
 10
114.6935750467
 20
93.9732252089
 11
114.6935750467
 21
83.9732557295
  0
LINE
  5
2CE
100
AcDbEntity
  8
0
100
AcDbLine
 62
7
  6
BYLAYER
 10
114.6935750467
 20
51.4732283205
 11
114.6935750467
 21
43.4732526179
  0
LINE
  5
2CF
100
AcDbEntity
  8
0
100
AcDbLine
 62
7
  6
BYLAYER
 10
114.6935750467
 20
42.2730381575
 11
114.6935750467
 21
36.273442781
  0
LINE
  5
2D0
100
AcDbEntity
  8
0
100
AcDbLine
 62
7
  6
BYLAYER
 10
114.6935750467
 20
33.9732252089
 11
114.6935750467
 21
23.9732557295
  0
LINE
  5
2D1
100
AcDbEntity
  8
0
100
AcDbLine
 62
7
  6
BYLAYER
 10
83.7935750467
 20
143.2732404692
 11
82.2935750467
 21
143.2732404692
  0
LINE
  5
2D2
100
AcDbEntity
  8
0
100
AcDbLine
 62
7
  6
BYLAYER
 10
87.6030575793
 20
145.7732404692
 11
95.0630341208
 21
145.7732404692
  0
LINE
  5
2D3
100
AcDbEntity
  8
0
100
AcDbLine
 62
7
  6
BYLAYER
 10
100.5241159725
 20
145.7732404692
 11
107.984092514
 21
145.7732404692
  0
LINE
  5
2D4
100
AcDbEntity
  8
0
100
AcDbLine
 62
7
  6
BYLAYER
 10
107.984092514
 20
146.2732404692
 11
100.5241159725
 21
146.2732404692
  0
LINE
  5
2D5
100
AcDbEntity
  8
0
100
AcDbLine
 62
7
  6
BYLAYER
 10
95.0630341208
 20
146.2732404692
 11
87.6030575793
 21
146.2732404692
  0
LINE
  5
2D6
100
AcDbEntity
  8
0
100
AcDbLine
 62
7
  6
BYLAYER
 10
110.7935750467
 20
115.7732404692
 11
110.4202421162
 21
118.1263491683
  0
LINE
  5
2D7
100
AcDbEntity
  8
0
100
AcDbLine
 62
7
  6
BYLAYER
 10
112.7935750467
 20
100.4732404692
 11
110.7935750467
 21
115.7732404692
  0
LINE
  5
2D8
100
AcDbEntity
  8
0
100
AcDbLine
 62
7
  6
BYLAYER
 10
87.6030575793
 20
150.2732404692
 11
95.0630341208
 21
150.2732404692
  0
LINE
  5
2D9
100
AcDbEntity
  8
0
100
AcDbLine
 62
7
  6
BYLAYER
 10
100.5241159725
 20
150.2732404692
 11
107.984092514
 21
150.2732404692
  0
LINE
  5
2DA
100
AcDbEntity
  8
0
100
AcDbLine
 62
7
  6
BYLAYER
 10
107.984092514
 20
150.7732404692
 11
100.5241159725
 21
150.7732404692
  0
LINE
  5
2DB
100
AcDbEntity
  8
0
100
AcDbLine
 62
7
  6
BYLAYER
 10
95.0630341208
 20
150.7732404692
 11
87.6030575793
 21
150.7732404692
  0
LINE
  5
2DC
100
AcDbEntity
  8
0
100
AcDbLine
 62
7
  6
BYLAYER
 10
108.3435750467
 20
155.0732404692
 11
108.331123908
 21
155.0732404692
  0
LINE
  5
2DD
100
AcDbEntity
  8
0
100
AcDbLine
 62
7
  6
BYLAYER
 10
98.3059299267
 20
155.0732404692
 11
97.281222015
 21
155.0732404692
  0
LINE
  5
2DE
100
AcDbEntity
  8
0
100
AcDbLine
 62
7
  6
BYLAYER
 10
87.2560262022
 20
155.0732404692
 11
87.2435750467
 21
155.0732404692
  0
LINE
  5
2DF
100
AcDbEntity
  8
0
100
AcDbLine
 62
7
  6
BYLAYER
 10
87.2435750467
 20
159.5950728579
 11
108.3435750467
 21
159.5950728579
  0
LINE
  5
2E0
100
AcDbEntity
  8
0
100
AcDbLine
 62
7
  6
BYLAYER
 10
107.5714562737
 20
161.1737772926
 11
88.0156938196
 21
161.1737772926
  0
LINE
  5
2E1
100
AcDbEntity
  8
0
100
AcDbLine
 62
7
  6
BYLAYER
 10
91.2019093199
 20
163.651944904
 11
104.3852407734
 21
163.651944904
  0
LINE
  5
2E2
100
AcDbEntity
  8
0
100
AcDbLine
 62
7
  6
BYLAYER
 10
103.1571490716
 20
164.0732404692
 11
92.4300010217
 21
164.0732404692
  0
LINE
  5
2E3
100
AcDbEntity
  8
0
100
AcDbLine
 62
7
  6
BYLAYER
 10
83.4394730804
 20
167.0732404692
 11
104.7935675358
 21
167.0732404692
  0
LINE
  5
2E4
100
AcDbEntity
  8
0
100
AcDbLine
 62
7
  6
BYLAYER
 10
86.7935750467
 20
168.5732404692
 11
104.7935675358
 21
168.5732404692
  0
LINE
  5
2E5
100
AcDbEntity
  8
0
100
AcDbLine
 62
7
  6
BYLAYER
 10
107.5714562737
 20
161.1737772926
 11
104.3852407734
 21
163.651944904
  0
LWPOLYLINE
  5
2E6
100
AcDbEntity
  8
0
100
AcDbPolyline
 62
7
  6
BYLAYER
 90
4
 70
0
 10
89.9463963455
 20
185.4661416849
 10
90.743763648
 20
184.6542690873
 10
91.0260216083
 20
184.1178435671
 10
91.2435786277
 20
182.9962271514
  0
LINE
  5
2E7
100
AcDbEntity
  8
0
100
AcDbLine
 62
7
  6
BYLAYER
 10
104.793517207
 20
169.7132404692
 11
90.7936328863
 21
169.7132404692
  0
LINE
  5
2E8
100
AcDbEntity
  8
0
100
AcDbLine
 62
7
  6
BYLAYER
 10
90.7936328863
 20
170.7132404692
 11
104.793517207
 21
170.7132404692
  0
LINE
  5
2E9
100
AcDbEntity
  8
0
100
AcDbLine
 62
7
  6
BYLAYER
 10
91.7935815416
 20
171.4132404692
 11
101.7440505541
 21
171.4132404692
  0
LINE
  5
2EA
100
AcDbEntity
  8
0
100
AcDbLine
 62
7
  6
BYLAYER
 10
104.1966992841
 20
172.4732404692
 11
91.3904508092
 21
172.4732404692
  0
LINE
  5
2EB
100
AcDbEntity
  8
0
100
AcDbLine
 62
7
  6
BYLAYER
 10
104.1966992841
 20
176.4732404692
 11
91.3904508092
 21
176.4732404692
  0
LINE
  5
2EC
100
AcDbEntity
  8
0
100
AcDbLine
 62
7
  6
BYLAYER
 10
104.3435750467
 20
178.4732404692
 11
91.2435750467
 21
178.4732404692
  0
LINE
  5
2ED
100
AcDbEntity
  8
0
100
AcDbLine
 62
7
  6
BYLAYER
 10
94.3753629489
 20
186.9880943394
 11
92.8097664628
 21
188.3231441558
  0
LINE
  5
2EE
100
AcDbEntity
  8
0
100
AcDbLine
 62
7
  6
BYLAYER
 10
91.9284263735
 20
184.0732404692
 11
103.6587235866
 21
184.0732404692
  0
ARC
  5
2EF
100
AcDbEntity
  8
0
100
AcDbCircle
 62
7
  6
BYLAYER
 10
78.8300294393
 20
118.9399576648
 40
18.7433886053
100
AcDbArc
 50
3.2981907706
 51
4.0465768568
  0
ARC
  5
2F0
100
AcDbEntity
  8
0
100
AcDbCircle
 62
7
  6
BYLAYER
 10
66.1185750467
 20
108.7732404691
 40
15.625
100
AcDbArc
 50
162.0798736903
 51
180.000039314
  0
ARC
  5
2F1
100
AcDbEntity
  8
0
100
AcDbCircle
 62
7
  6
BYLAYER
 10
66.1185750467
 20
100.7732404693
 40
15.625
100
AcDbArc
 50
179.999960686
 51
197.9201263097
  0
ARC
  5
2F2
100
AcDbEntity
  8
0
100
AcDbCircle
 62
7
  6
BYLAYER
 10
85.7935750467
 20
115.8732404692
 40
6.4674183412
100
AcDbArc
 50
112.413433411
 51
122.3909411885
  0
ARC
  5
2F3
100
AcDbEntity
  8
0
100
AcDbCircle
 62
7
  6
BYLAYER
 10
86.7935750467
 20
122.9032404692
 40
2.5
100
AcDbArc
 50
211.3322514976
 51
246.5541341006
  0
ARC
  5
2F4
100
AcDbEntity
  8
0
100
AcDbCircle
 62
7
  6
BYLAYER
 10
84.7935750467
 20
122.9032404692
 40
2.5
100
AcDbArc
 50
270.0
 51
328.6677485024
  0
ARC
  5
2F5
100
AcDbEntity
  8
0
100
AcDbCircle
 62
7
  6
BYLAYER
 10
56.9494195178
 20
95.9006578156
 40
2.0
100
AcDbArc
 50
91.9091524403
 51
135.0000000031
  0
ARC
  5
2F6
100
AcDbEntity
  8
0
100
AcDbCircle
 62
7
  6
BYLAYER
 10
56.9494195178
 20
113.6458231228
 40
2.0
100
AcDbArc
 50
224.9999999969
 51
268.0908475597
  0
ARC
  5
2F7
100
AcDbEntity
  8
0
100
AcDbCircle
 62
7
  6
BYLAYER
 10
52.8722547031
 20
96.7732404692
 40
1.5
100
AcDbArc
 50
270.0
 51
315.0000002219
  0
ARC
  5
2F8
100
AcDbEntity
  8
0
100
AcDbCircle
 62
7
  6
BYLAYER
 10
52.8722547031
 20
112.7732404692
 40
1.5
100
AcDbArc
 50
44.9999997781
 51
90.0
  0
ARC
  5
2F9
100
AcDbEntity
  8
0
100
AcDbCircle
 62
7
  6
BYLAYER
 10
52.2030935602
 20
96.2732404692
 40
1.0
100
AcDbArc
 50
197.9201994212
 51
270.0
  0
ARC
  5
2FA
100
AcDbEntity
  8
0
100
AcDbCircle
 62
7
  6
BYLAYER
 10
52.2030935602
 20
113.2732404692
 40
1.0
100
AcDbArc
 50
90.0
 51
162.0798005788
  0
ARC
  5
2FB
100
AcDbEntity
  8
0
100
AcDbCircle
 62
7
  6
BYLAYER
 10
82.2935750467
 20
117.9757641703
 40
1.0
100
AcDbArc
 50
92.995446758
 51
180.0
  0
ARC
  5
2FC
100
AcDbEntity
  8
0
100
AcDbCircle
 62
7
  6
BYLAYER
 10
81.9486340794
 20
119.9258942924
 40
0.9803922046
100
AcDbArc
 50
286.7123747214
 51
317.2071773671
  0
ARC
  5
2FD
100
AcDbEntity
  8
0
100
AcDbCircle
 62
7
  6
BYLAYER
 10
81.9486913025
 20
119.9253165994
 40
0.9798224639
100
AcDbArc
 50
280.9071312853
 51
286.7188842149
  0
ARC
  5
2FE
100
AcDbEntity
  8
0
100
AcDbCircle
 62
7
  6
BYLAYER
 10
-58.9859193353
 20
155.0732404692
 40
146.229494382
100
AcDbArc
 50
346.620245209
 51
360.0
  0
ARC
  5
2FF
100
AcDbEntity
  8
0
100
AcDbCircle
 62
7
  6
BYLAYER
 10
-57.1642334143
 20
151.87287387
 40
144.7135777826
100
AcDbArc
 50
347.9241534635
 51
354.2317891372
  0
ARC
  5
300
100
AcDbEntity
  8
0
100
AcDbCircle
 62
7
  6
BYLAYER
 10
86.7935750467
 20
164.0732404692
 40
4.5
100
AcDbArc
 50
90.0
 51
180.0
  0
ARC
  5
301
100
AcDbEntity
  8
0
100
AcDbCircle
 62
7
  6
BYLAYER
 10
86.7935750467
 20
164.0732404692
 40
3.0
100
AcDbArc
 50
90.0
 51
180.0
  0
ARC
  5
302
100
AcDbEntity
  8
0
100
AcDbCircle
 62
7
  6
BYLAYER
 10
93.2435750467
 20
178.4732404692
 40
2.0
100
AcDbArc
 50
180.0
 51
270.0
  0
ARC
  5
303
100
AcDbEntity
  8
0
100
AcDbCircle
 62
7
  6
BYLAYER
 10
92.4297905469
 20
162.0732404692
 40
2.0
100
AcDbArc
 50
90.0
 51
127.8749836511
  0
ARC
  5
304
100
AcDbEntity
  8
0
100
AcDbCircle
 62
7
  6
BYLAYER
 10
89.2435750467
 20
159.5950728579
 40
2.0
100
AcDbArc
 50
127.8749836511
 51
180.0
  0
ARC
  5
305
100
AcDbEntity
  8
0
100
AcDbCircle
 62
7
  6
BYLAYER
 10
93.2935750467
 20
168.9632404692
 40
0.75
100
AcDbArc
 50
90.0
 51
211.354211804
  0
ARC
  5
306
100
AcDbEntity
  8
0
100
AcDbCircle
 62
7
  6
BYLAYER
 10
116.5462042607
 20
118.9522849985
 40
18.5321283936
100
AcDbArc
 50
175.945456244
 51
176.7023449965
  0
ARC
  5
307
100
AcDbEntity
  8
0
100
AcDbCircle
 62
7
  6
BYLAYER
 10
109.793575645
 20
114.8035642781
 40
7.2038020457
100
AcDbArc
 50
85.9004213227
 51
94.0995786773
  0
ARC
  5
308
100
AcDbEntity
  8
0
100
AcDbCircle
 62
7
  6
BYLAYER
 10
109.7935750467
 20
115.8732404692
 40
6.4674183412
100
AcDbArc
 50
57.6090588115
 51
85.4327061956
  0
ARC
  5
309
100
AcDbEntity
  8
0
100
AcDbCircle
 62
7
  6
BYLAYER
 10
109.7935750467
 20
115.8732404692
 40
6.4674183412
100
AcDbArc
 50
94.5672938044
 51
122.3909411885
  0
ARC
  5
30A
100
AcDbEntity
  8
0
100
AcDbCircle
 62
7
  6
BYLAYER
 10
113.2935750467
 20
117.9757641703
 40
1.0
100
AcDbArc
 50
0.0
 51
86.9999999656
  0
ARC
  5
30B
100
AcDbEntity
  8
0
100
AcDbCircle
 62
7
  6
BYLAYER
 10
113.6383641288
 20
119.9260264571
 40
0.9803276981
100
AcDbArc
 50
222.7397880275
 51
253.3129309298
  0
ARC
  5
30C
100
AcDbEntity
  8
0
100
AcDbCircle
 62
7
  6
BYLAYER
 10
113.6383163711
 20
119.925070536
 40
0.9793983467
100
AcDbArc
 50
253.299549365
 51
259.0631674605
  0
ARC
  5
30D
100
AcDbEntity
  8
0
100
AcDbCircle
 62
7
  6
BYLAYER
 10
254.5730694287
 20
155.0732404692
 40
146.229494382
100
AcDbArc
 50
180.0
 51
193.2862868187
  0
ARC
  5
30E
100
AcDbEntity
  8
0
100
AcDbCircle
 62
7
  6
BYLAYER
 10
97.7935750467
 20
156.4732404692
 40
21.0
100
AcDbArc
 50
107.7527901619
 51
110.7135324213
  0
ARC
  5
30F
100
AcDbEntity
  8
0
100
AcDbCircle
 62
7
  6
BYLAYER
 10
97.7935750467
 20
156.4732404692
 40
21.0
100
AcDbArc
 50
69.2864675787
 51
72.2472098381
  0
ARC
  5
310
100
AcDbEntity
  8
0
100
AcDbCircle
 62
7
  6
BYLAYER
 10
97.7935750467
 20
192.4732404692
 40
21.0
100
AcDbArc
 50
287.7527901619
 51
290.7135324213
  0
ARC
  5
311
100
AcDbEntity
  8
0
100
AcDbCircle
 62
7
  6
BYLAYER
 10
97.7935750467
 20
192.4732404692
 40
21.0
100
AcDbArc
 50
249.2864675787
 51
252.2472098381
  0
ARC
  5
312
100
AcDbEntity
  8
0
100
AcDbCircle
 62
7
  6
BYLAYER
 10
97.7935750467
 20
192.4732404692
 40
19.9905713713
100
AcDbArc
 50
259.2935131913
 51
280.7064868087
  0
ARC
  5
313
100
AcDbEntity
  8
0
100
AcDbCircle
 62
7
  6
BYLAYER
 10
97.7935750467
 20
156.4732404692
 40
19.9905713713
100
AcDbArc
 50
79.2935131913
 51
100.7064868087
  0
ARC
  5
314
100
AcDbEntity
  8
0
100
AcDbCircle
 62
7
  6
BYLAYER
 10
97.7935750467
 20
196.8482404692
 40
13.825
100
AcDbArc
 50
304.5835522904
 51
235.4164477154
  0
CIRCLE
  5
315
100
AcDbEntity
  8
0
100
AcDbCircle
 62
7
  6
BYLAYER
 10
97.7935750467
 20
196.8482404692
 40
5.925
  0
ARC
  5
316
100
AcDbEntity
  8
0
100
AcDbCircle
 62
7
  6
BYLAYER
 10
102.3435750467
 20
178.4732404692
 40
2.0
100
AcDbArc
 50
270.0
 51
360.0
  0
ARC
  5
317
100
AcDbEntity
  8
0
100
AcDbCircle
 62
7
  6
BYLAYER
 10
106.3435750467
 20
159.5950728579
 40
2.0
100
AcDbArc
 50
0.0
 51
52.1250163489
  0
ARC
  5
318
100
AcDbEntity
  8
0
100
AcDbCircle
 62
7
  6
BYLAYER
 10
103.1573595464
 20
162.0732404692
 40
2.0
100
AcDbArc
 50
52.1250163489
 51
90.0
  0
ARC
  5
319
100
AcDbEntity
  8
0
100
AcDbCircle
 62
7
  6
BYLAYER
 10
102.2935750467
 20
168.9632404692
 40
0.75
100
AcDbArc
 50
328.645788196
 51
90.0
  0
SPLINE
  5
31A
100
AcDbEntity
  8
0
100
AcDbSpline
 62
7
  6
BYLAYER
 70
0
 71
3
 72
9
 73
5
 74
0
 42
0.0000001
 43
0.0000001
 44
0.0000000001
 40
0.0
 40
0.0
 40
0.0
 40
0.0
 40
0.2540674935
 40
1.0
 40
1.0
 40
1.0
 40
1.0
 10
105.2211862598
 20
172.8306695665
 30
0.0
 10
105.1361526088
 20
172.798515074
 30
0.0
 10
104.7985427379
 20
172.6798696449
 30
0.0
 10
104.4493390641
 20
172.5938031182
 30
0.0
 10
104.1859917361
 20
172.5503488643
 30
0.0
  0
SPLINE
  5
31B
100
AcDbEntity
  8
0
100
AcDbSpline
 62
7
  6
BYLAYER
 70
0
 71
3
 72
11
 73
7
 74
0
 42
0.0000001
 43
0.0000001
 44
0.0000000001
 40
0.0
 40
0.0
 40
0.0
 40
0.0
 40
0.2478255624
 40
0.4949045114
 40
0.7445688721
 40
1.0
 40
1.0
 40
1.0
 40
1.0
 10
104.1859917361
 20
172.5503488643
 30
0.0
 10
103.9640418285
 20
172.5137254904
 30
0.0
 10
103.5153899566
 20
172.4697102058
 30
0.0
 10
102.8380318072
 20
172.4951542068
 30
0.0
 10
102.1634254334
 20
172.6121879093
 30
0.0
 10
101.7242484311
 20
172.7486635223
 30
0.0
 10
101.5073806532
 20
172.8306695665
 30
0.0
  0
SPLINE
  5
31C
100
AcDbEntity
  8
0
100
AcDbSpline
 62
7
  6
BYLAYER
 70
0
 71
3
 72
11
 73
7
 74
0
 42
0.0000001
 43
0.0000001
 44
0.0000000001
 40
0.0
 40
0.0
 40
0.0
 40
0.0
 40
0.2554311356
 40
0.5050955038
 40
0.7521744523
 40
1.0
 40
1.0
 40
1.0
 40
1.0
 10
94.0797694401
 20
172.8306695665
 30
0.0
 10
93.8629019052
 20
172.7486636142
 30
0.0
 10
93.4237254089
 20
172.6121881273
 30
0.0
 10
92.7491198352
 20
172.495154359
 30
0.0
 10
92.0717624817
 20
172.4697101895
 30
0.0
 10
91.6231111235
 20
172.5137251908
 30
0.0
 10
91.4011614613
 20
172.5503483806
 30
0.0
  0
SPLINE
  5
31D
100
AcDbEntity
  8
0
100
AcDbSpline
 62
7
  6
BYLAYER
 70
0
 71
3
 72
9
 73
5
 74
0
 42
0.0000001
 43
0.0000001
 44
0.0000000001
 40
0.0
 40
0.0
 40
0.0
 40
0.0
 40
0.2466776612
 40
1.0
 40
1.0
 40
1.0
 40
1.0
 10
91.4011614613
 20
172.5503483806
 30
0.0
 10
91.3140714289
 20
172.5647188227
 30
0.0
 10
90.9625529222
 20
172.6320351341
 30
0.0
 10
90.6180980408
 20
172.7353279295
 30
0.0
 10
90.3659638335
 20
172.8306695665
 30
0.0
  0
SPLINE
  5
31E
100
AcDbEntity
  8
0
100
AcDbSpline
 62
7
  6
BYLAYER
 70
0
 71
3
 72
9
 73
5
 74
0
 42
0.0000001
 43
0.0000001
 44
0.0000000001
 40
0.0
 40
0.0
 40
0.0
 40
0.0
 40
0.2537598555
 40
1.0
 40
1.0
 40
1.0
 40
1.0
 10
101.5073806532
 20
176.1158113719
 30
0.0
 10
101.5843358375
 20
176.1449110856
 30
0.0
 10
101.8899865836
 20
176.2531253454
 30
0.0
 10
102.2051727733
 20
176.3346885524
 30
0.0
 10
102.4430746932
 20
176.3787281901
 30
0.0
  0
SPLINE
  5
31F
100
AcDbEntity
  8
0
100
AcDbSpline
 62
7
  6
BYLAYER
 70
0
 71
3
 72
11
 73
7
 74
0
 42
0.0000001
 43
0.0000001
 44
0.0000000001
 40
0.0
 40
0.0
 40
0.0
 40
0.0
 40
0.2481928494
 40
0.4952234674
 40
0.7446792808
 40
1.0
 40
1.0
 40
1.0
 40
1.0
 10
102.4430746932
 20
176.3787281901
 30
0.0
 10
102.6727949234
 20
176.4212532597
 30
0.0
 10
103.1375958042
 20
176.4750791292
 30
0.0
 10
103.8405643639
 20
176.4575022708
 30
0.0
 10
104.5408365763
 20
176.3413304783
 30
0.0
 10
104.996388664
 20
176.2008159852
 30
0.0
 10
105.2211862598
 20
176.1158113719
 30
0.0
  0
SPLINE
  5
320
100
AcDbEntity
  8
0
100
AcDbSpline
 62
7
  6
BYLAYER
 70
0
 71
3
 72
11
 73
7
 74
0
 42
0.0000001
 43
0.0000001
 44
0.0000000001
 40
0.0
 40
0.0
 40
0.0
 40
0.0
 40
0.2531500838
 40
0.5000010671
 40
0.7468518884
 40
1.0
 40
1.0
 40
1.0
 40
1.0
 10
90.3659638335
 20
176.1158113719
 30
0.0
 10
90.6654292248
 20
176.2290507492
 30
0.0
 10
91.277163254
 20
176.4038773113
 30
0.0
 10
92.2228703023
 20
176.4934025339
 30
0.0
 10
93.1685711332
 20
176.4038613842
 30
0.0
 10
93.7803063818
 20
176.229049867
 30
0.0
 10
94.0797694401
 20
176.1158113719
 30
0.0
  0
SPLINE
  5
321
100
AcDbEntity
  8
0
100
AcDbSpline
 62
7
  6
BYLAYER
 70
0
 71
3
 72
15
 73
11
 74
0
 42
0.0000001
 43
0.0000001
 44
0.0000000001
 40
0.0
 40
0.0
 40
0.0
 40
0.0
 40
0.1249843513
 40
0.2500018935
 40
0.3749919255
 40
0.4999810113
 40
0.6249752393
 40
0.7499684901
 40
0.8749990107
 40
1.0
 40
1.0
 40
1.0
 40
1.0
 10
82.3372665028
 20
120.4032404692
 30
0.0
 10
82.3372665028
 20
120.4829241585
 30
0.0
 10
82.3535848812
 20
120.6427842822
 30
0.0
 10
82.4258732449
 20
120.8723167403
 30
0.0
 10
82.5428463924
 20
121.0827070017
 30
0.0
 10
82.6993356671
 20
121.2655321071
 30
0.0
 10
82.8887657062
 20
121.413891606
 30
0.0
 10
83.1033484678
 20
121.5227219362
 30
0.0
 10
83.334596802
 20
121.5886701388
 30
0.0
 10
83.4944058681
 20
121.6032404692
 30
0.0
 10
83.5741001651
 20
121.6032404692
 30
0.0
  0
SPLINE
  5
322
100
AcDbEntity
  8
0
100
AcDbSpline
 62
7
  6
BYLAYER
 70
0
 71
3
 72
15
 73
11
 74
0
 42
0.0000001
 43
0.0000001
 44
0.0000000001
 40
0.0
 40
0.0
 40
0.0
 40
0.0
 40
0.1249843513
 40
0.2500018935
 40
0.3749919255
 40
0.4999810113
 40
0.6249752393
 40
0.7499684901
 40
0.8749990107
 40
1.0
 40
1.0
 40
1.0
 40
1.0
 10
89.2498835905
 20
120.4032404692
 30
0.0
 10
89.2498835905
 20
120.4829241585
 30
0.0
 10
89.2335652121
 20
120.6427842822
 30
0.0
 10
89.1612768484
 20
120.8723167403
 30
0.0
 10
89.0443037009
 20
121.0827070017
 30
0.0
 10
88.8878144262
 20
121.2655321071
 30
0.0
 10
88.6983843871
 20
121.413891606
 30
0.0
 10
88.4838016255
 20
121.5227219362
 30
0.0
 10
88.2525532913
 20
121.5886701388
 30
0.0
 10
88.0927442252
 20
121.6032404692
 30
0.0
 10
88.0130499282
 20
121.6032404692
 30
0.0
  0
SPLINE
  5
323
100
AcDbEntity
  8
0
100
AcDbSpline
 62
7
  6
BYLAYER
 70
0
 71
3
 72
15
 73
11
 74
0
 42
0.0000001
 43
0.0000001
 44
0.0000000001
 40
0.0
 40
0.0
 40
0.0
 40
0.0
 40
0.1258142799
 40
0.2510091758
 40
0.3756652865
 40
0.4999999847
 40
0.6243347074
 40
0.7489908313
 40
0.8741857166
 40
1.0
 40
1.0
 40
1.0
 40
1.0
 10
77.9220459838
 20
104.7732404692
 30
0.0
 10
77.8273514052
 20
105.0356657835
 30
0.0
 10
77.6534814209
 20
105.5648885701
 30
0.0
 10
77.4517476684
 20
106.3740264815
 30
0.0
 10
77.3231568254
 20
107.1950439461
 30
0.0
 10
77.2788121643
 20
108.0232404151
 30
0.0
 10
77.3231563881
 20
108.8514369923
 30
0.0
 10
77.4517482079
 20
109.6724543444
 30
0.0
 10
77.6534809771
 20
110.4815925011
 30
0.0
 10
77.8273514025
 20
111.0108151476
 30
0.0
 10
77.9220459838
 20
111.2732404692
 30
0.0
  0
SPLINE
  5
324
100
AcDbEntity
  8
0
100
AcDbSpline
 62
7
  6
BYLAYER
 70
0
 71
3
 72
15
 73
11
 74
0
 42
0.0000001
 43
0.0000001
 44
0.0000000001
 40
0.0
 40
0.0
 40
0.0
 40
0.0
 40
0.1258142799
 40
0.2510091758
 40
0.3756652865
 40
0.4999999847
 40
0.6243347074
 40
0.7489908313
 40
0.8741857166
 40
1.0
 40
1.0
 40
1.0
 40
1.0
 10
77.9220459838
 20
98.2732404692
 30
0.0
 10
77.8273514052
 20
98.5356657835
 30
0.0
 10
77.6534814209
 20
99.0648885701
 30
0.0
 10
77.4517476684
 20
99.8740264815
 30
0.0
 10
77.3231568254
 20
100.6950439461
 30
0.0
 10
77.2788121643
 20
101.5232404151
 30
0.0
 10
77.3231563881
 20
102.3514369923
 30
0.0
 10
77.4517482079
 20
103.1724543444
 30
0.0
 10
77.6534809771
 20
103.9815925011
 30
0.0
 10
77.8273514025
 20
104.5108151476
 30
0.0
 10
77.9220459838
 20
104.7732404692
 30
0.0
  0
SPLINE
  5
325
100
AcDbEntity
  8
0
100
AcDbSpline
 62
7
  6
BYLAYER
 70
0
 71
3
 72
19
 73
15
 74
0
 42
0.0000001
 43
0.0000001
 44
0.0000000001
 40
0.0
 40
0.0
 40
0.0
 40
0.0
 40
0.066691091
 40
0.0996420851
 40
0.1321908546
 40
0.1642246265
 40
0.1957857149
 40
0.2574072541
 40
0.3762152365
 40
0.493045631
 40
0.6123841667
 40
0.7369045457
 40
0.8667738591
 40
1.0
 40
1.0
 40
1.0
 40
1.0
 10
97.7935750467
 20
190.3529353336
 30
0.0
 10
97.6702982872
 20
190.3527980079
 30
0.0
 10
97.4860864068
 20
190.3505328974
 30
0.0
 10
97.2419203719
 20
190.3408856246
 30
0.0
 10
97.0618517395
 20
190.3317243924
 30
0.0
 10
96.8846415588
 20
190.3181292902
 30
0.0
 10
96.6540935929
 20
190.2974502281
 30
0.0
 10
96.2652025054
 20
190.2484877844
 30
0.0
 10
95.7253949957
 20
190.138982968
 30
0.0
 10
95.103051332
 20
189.9247185552
 30
0.0
 10
94.5055734634
 20
189.6249570781
 30
0.0
 10
93.9256133198
 20
189.2476272871
 30
0.0
 10
93.3588864016
 20
188.8083380801
 30
0.0
 10
92.9921500821
 20
188.4886218579
 30
0.0
 10
92.8097680989
 20
188.3231426218
 30
0.0
  0
SPLINE
  5
326
100
AcDbEntity
  8
0
100
AcDbSpline
 62
7
  6
BYLAYER
 70
0
 71
3
 72
9
 73
5
 74
0
 42
0.0000001
 43
0.0000001
 44
0.0000000001
 40
0.0
 40
0.0
 40
0.0
 40
0.0
 40
0.4435780645
 40
1.0
 40
1.0
 40
1.0
 40
1.0
 10
91.928412756
 20
184.0732404692
 30
0.0
 10
92.2882225566
 20
184.5058982691
 30
0.0
 10
93.1006686694
 20
185.4801999257
 30
0.0
 10
93.9173323686
 20
186.45100191
 30
0.0
 10
94.3753619044
 20
186.9880948252
 30
0.0
  0
SPLINE
  5
327
100
AcDbEntity
  8
0
100
AcDbSpline
 62
7
  6
BYLAYER
 70
0
 71
3
 72
12
 73
8
 74
0
 42
0.0000001
 43
0.0000001
 44
0.0000000001
 40
0.0
 40
0.0
 40
0.0
 40
0.0
 40
0.2386547403
 40
0.4907742796
 40
0.619366812
 40
0.7479497834
 40
1.0
 40
1.0
 40
1.0
 40
1.0
 10
91.9284300693
 20
184.0732439474
 30
0.0
 10
91.883327188
 20
184.2625312714
 30
0.0
 10
91.7501610597
 20
184.6429467539
 30
0.0
 10
91.496904814
 20
185.0830584449
 30
0.0
 10
91.2444972367
 20
185.4133686087
 30
0.0
 10
90.9651832458
 20
185.7210546472
 30
0.0
 10
90.7284441483
 20
185.9245093649
 30
0.0
 10
90.5622533608
 20
186.0453994508
 30
0.0
  0
SPLINE
  5
328
100
AcDbEntity
  8
0
100
AcDbSpline
 62
7
  6
BYLAYER
 70
0
 71
3
 72
22
 73
18
 74
0
 42
0.0000001
 43
0.0000001
 44
0.0000000001
 40
0.0
 40
0.0
 40
0.0
 40
0.0
 40
0.0010884763
 40
0.0043447276
 40
0.0097667755
 40
0.0173526416
 40
0.0270976336
 40
0.0389830829
 40
0.0690827968
 40
0.107466902
 40
0.1539489318
 40
0.2082905183
 40
0.2701977665
 40
0.4155184433
 40
0.5874011575
 40
0.7831980048
 40
1.0
 40
1.0
 40
1.0
 40
1.0
 10
91.2435965769
 20
182.9962463728
 30
0.0
 10
91.2439718109
 20
182.9965179989
 30
0.0
 10
91.2447665817
 20
182.9982943964
 30
0.0
 10
91.247402891
 20
183.0014496017
 30
0.0
 10
91.2512203946
 20
183.0072678726
 30
0.0
 10
91.256827127
 20
183.0151444917
 30
0.0
 10
91.2639171084
 20
183.0253659252
 30
0.0
 10
91.2765114022
 20
183.043419331
 30
0.0
 10
91.2959981418
 20
183.0715308338
 30
0.0
 10
91.3237613637
 20
183.1118167249
 30
0.0
 10
91.3572064665
 20
183.16071724
 30
0.0
 10
91.3960667674
 20
183.2180414178
 30
0.0
 10
91.4580532749
 20
183.3105043705
 30
0.0
 10
91.5466891097
 20
183.445322377
 30
0.0
 10
91.6639865527
 20
183.6294669428
 30
0.0
 10
91.7939799337
 20
183.8415533591
 30
0.0
 10
91.8827026323
 20
183.9931012431
 30
0.0
 10
91.9284263735
 20
184.0732404692
 30
0.0
  0
SPLINE
  5
329
100
AcDbEntity
  8
0
100
AcDbSpline
 62
7
  6
BYLAYER
 70
0
 71
3
 72
23
 73
19
 74
0
 42
0.0000001
 43
0.0000001
 44
0.0000000001
 40
0.0
 40
0.0
 40
0.0
 40
0.0
 40
0.0010693962
 40
0.0042673136
 40
0.0095784375
 40
0.0169874959
 40
0.026479259
 40
0.0380385408
 40
0.0672991115
 40
0.1046486291
 40
0.1499672334
 40
0.2031358219
 40
0.2640360723
 40
0.3325182329
 40
0.4083060668
 40
0.5805905621
 40
0.7785544734
 40
1.0
 40
1.0
 40
1.0
 40
1.0
 10
89.9464142252
 20
185.466129358
 30
0.0
 10
89.9467145406
 20
185.4661571982
 30
0.0
 10
89.9474892482
 20
185.4673086973
 30
0.0
 10
89.9497374593
 20
185.4686363935
 30
0.0
 10
89.9531233506
 20
185.471695881
 30
0.0
 10
89.9579985239
 20
185.4755824474
 30
0.0
 10
89.9641678479
 20
185.480735886
 30
0.0
 10
89.9750836462
 20
185.4897927158
 30
0.0
 10
89.9919687379
 20
185.5039736255
 30
0.0
 10
90.0160474682
 20
185.5243849017
 30
0.0
 10
90.0451325689
 20
185.5493205799
 30
0.0
 10
90.079100619
 20
185.5787633659
 30
0.0
 10
90.1178172721
 20
185.6127010271
 30
0.0
 10
90.1611120942
 20
185.6510925227
 30
0.0
 10
90.2274087902
 20
185.7108881978
 30
0.0
 10
90.3194316966
 20
185.7966776042
 30
0.0
 10
90.4383636591
 20
185.91376918
 30
0.0
 10
90.5199693754
 20
185.9994364682
 30
0.0
 10
90.5622535763
 20
186.0453996849
 30
0.0
  0
SPLINE
  5
32A
100
AcDbEntity
  8
0
100
AcDbSpline
 62
7
  6
BYLAYER
 70
0
 71
3
 72
23
 73
19
 74
0
 42
0.0000001
 43
0.0000001
 44
0.0000000001
 40
0.0
 40
0.0
 40
0.0
 40
0.0
 40
0.2167954596
 40
0.4126104779
 40
0.5845028509
 40
0.6606461639
 40
0.7298208184
 40
0.7917195011
 40
0.8460560981
 40
0.8925445548
 40
0.9309222804
 40
0.961009554
 40
0.9728935756
 40
0.9826441083
 40
0.9902408242
 40
0.995666553
 40
0.9989189491
 40
1.0
 40
1.0
 40
1.0
 40
1.0
 10
103.6587235866
 20
184.0732404692
 30
0.0
 10
103.7044460416
 20
183.9931036545
 30
0.0
 10
103.7931722282
 20
183.8415518355
 30
0.0
 10
103.923176867
 20
183.6294618754
 30
0.0
 10
104.0246576695
 20
183.4701345705
 30
0.0
 10
104.0984695309
 20
183.3571023429
 30
0.0
 10
104.1471587277
 20
183.2835751353
 30
0.0
 10
104.1910957847
 20
183.2180318312
 30
0.0
 10
104.2299475159
 20
183.1607093606
 30
0.0
 10
104.2634057831
 20
183.111808813
 30
0.0
 10
104.2911407657
 20
183.0715422812
 30
0.0
 10
104.3106689812
 20
183.0433948132
 30
0.0
 10
104.3231786207
 20
183.025402506
 30
0.0
 10
104.3304443545
 20
183.0150516867
 30
0.0
 10
104.3356196469
 20
183.0074954565
 30
0.0
 10
104.3404413192
 20
183.0009427716
 30
0.0
 10
104.3413235938
 20
182.9990717534
 30
0.0
 10
104.3439246277
 20
182.9959744816
 30
0.0
 10
104.3435535254
 20
182.9962464133
 30
0.0
  0
SPLINE
  5
32B
100
AcDbEntity
  8
0
100
AcDbSpline
 62
7
  6
BYLAYER
 70
0
 71
3
 72
12
 73
8
 74
0
 42
0.0000001
 43
0.0000001
 44
0.0000000001
 40
0.0
 40
0.0
 40
0.0
 40
0.0
 40
0.236176933
 40
0.4873300449
 40
0.6161189032
 40
0.7453590045
 40
1.0
 40
1.0
 40
1.0
 40
1.0
 10
103.6587197461
 20
184.0732381873
 30
0.0
 10
103.7033531822
 20
184.260562718
 30
0.0
 10
103.8351639281
 20
184.6383970838
 30
0.0
 10
104.0861510432
 20
185.0767380632
 30
0.0
 10
104.3377635139
 20
185.4075472732
 30
0.0
 10
104.6183751996
 20
185.7178604445
 30
0.0
 10
104.8569974575
 20
185.9232759236
 30
0.0
 10
105.0248985818
 20
186.0454096345
 30
0.0
  0
SPLINE
  5
32C
100
AcDbEntity
  8
0
100
AcDbSpline
 62
7
  6
BYLAYER
 70
0
 71
3
 72
9
 73
5
 74
0
 42
0.0000001
 43
0.0000001
 44
0.0000000001
 40
0.0
 40
0.0
 40
0.0
 40
0.0
 40
0.5564201319
 40
1.0
 40
1.0
 40
1.0
 40
1.0
 10
101.2117881889
 20
186.9880948251
 30
0.0
 10
101.6698152896
 20
186.4510050706
 30
0.0
 10
102.4864826028
 20
185.4802100651
 30
0.0
 10
103.298911216
 20
184.5058977873
 30
0.0
 10
103.6587224277
 20
184.0732399446
 30
0.0
  0
SPLINE
  5
32D
100
AcDbEntity
  8
0
100
AcDbSpline
 62
7
  6
BYLAYER
 70
0
 71
3
 72
16
 73
12
 74
0
 42
0.0000001
 43
0.0000001
 44
0.0000000001
 40
0.0
 40
0.0
 40
0.0
 40
0.0
 40
0.1332301744
 40
0.263102595
 40
0.3876268809
 40
0.5069677196
 40
0.6237992227
 40
0.74261119
 40
0.804244515
 40
0.8678205267
 40
1.0
 40
1.0
 40
1.0
 40
1.0
 10
102.7773819945
 20
188.3231426218
 30
0.0
 10
102.5949972819
 20
188.4886222433
 30
0.0
 10
102.2282549914
 20
188.80833509
 30
0.0
 10
101.6615353636
 20
189.2476450836
 30
0.0
 10
101.0815622339
 20
189.6249536984
 30
0.0
 10
100.4840857018
 20
189.9247394184
 30
0.0
 10
99.8617393618
 20
190.1389107187
 30
0.0
 10
99.3219399446
 20
190.2487691858
 30
0.0
 10
98.8742170753
 20
190.3042778696
 30
0.0
 10
98.3999571707
 20
190.3436339162
 30
0.0
 10
98.0379002688
 20
190.3526760274
 30
0.0
 10
97.7935750467
 20
190.3529353338
 30
0.0
  0
SPLINE
  5
32E
100
AcDbEntity
  8
0
100
AcDbSpline
 62
7
  6
BYLAYER
 70
0
 71
3
 72
10
 73
6
 74
0
 42
0.0000001
 43
0.0000001
 44
0.0000000001
 40
0.0
 40
0.0
 40
0.0
 40
0.0
 40
0.2875023101
 40
0.5584617084
 40
1.0
 40
1.0
 40
1.0
 40
1.0
 10
102.7773834937
 20
188.323144275
 30
0.0
 10
103.0045775785
 20
188.1170448722
 30
0.0
 10
103.436119088
 20
187.7059029321
 30
0.0
 10
104.1859759727
 20
186.9468138037
 30
0.0
 10
104.7059211854
 20
186.3920848391
 30
0.0
 10
105.0248985745
 20
186.0454096425
 30
0.0
  0
SPLINE
  5
32F
100
AcDbEntity
  8
0
100
AcDbSpline
 62
7
  6
BYLAYER
 70
0
 71
3
 72
18
 73
14
 74
0
 42
0.0000001
 43
0.0000001
 44
0.0000000001
 40
0.0
 40
0.0
 40
0.0
 40
0.0
 40
0.0495758861
 40
0.0979180159
 40
0.1465213269
 40
0.1968583825
 40
0.2497427068
 40
0.3055184689
 40
0.4261504732
 40
0.5581633373
 40
0.6996448761
 40
0.8479464262
 40
1.0
 40
1.0
 40
1.0
 40
1.0
 10
97.7935750626
 20
190.1407626158
 30
0.0
 10
97.7154534443
 20
190.140743087
 30
0.0
 10
97.5605365934
 20
190.1167917076
 30
0.0
 10
97.3464328023
 20
190.0270266963
 30
0.0
 10
97.1477451676
 20
189.9060630354
 30
0.0
 10
96.9560118326
 20
189.7626022658
 30
0.0
 10
96.7649402631
 20
189.6003674526
 30
0.0
 10
96.5001523833
 20
189.3544104724
 30
0.0
 10
96.1591061978
 20
189.0078927222
 30
0.0
 10
95.7376507048
 20
188.551669846
 30
0.0
 10
95.2957429142
 20
188.0551470819
 30
0.0
 10
94.8388165986
 20
187.5298029887
 30
0.0
 10
94.5308337557
 20
187.1704117471
 30
0.0
 10
94.3753640902
 20
186.9880929612
 30
0.0
  0
SPLINE
  5
330
100
AcDbEntity
  8
0
100
AcDbSpline
 62
7
  6
BYLAYER
 70
0
 71
3
 72
18
 73
14
 74
0
 42
0.0000001
 43
0.0000001
 44
0.0000000001
 40
0.0
 40
0.0
 40
0.0
 40
0.0
 40
0.1520047096
 40
0.3003570919
 40
0.4418389394
 40
0.5738518129
 40
0.69448366
 40
0.7502591662
 40
0.8031434919
 40
0.8534804312
 40
0.9020836057
 40
0.950425189
 40
1.0
 40
1.0
 40
1.0
 40
1.0
 10
101.2117858501
 20
186.9880928306
 30
0.0
 10
101.0563661473
 20
187.1703530332
 30
0.0
 10
100.7484310491
 20
187.5297894593
 30
0.0
 10
100.2914415118
 20
188.055083469
 30
0.0
 10
99.8494954605
 20
188.5516797584
 30
0.0
 10
99.4280360608
 20
189.0078996027
 30
0.0
 10
99.0869908256
 20
189.3544173195
 30
0.0
 10
98.8222028121
 20
189.6003732579
 30
0.0
 10
98.6311314974
 20
189.7626073945
 30
0.0
 10
98.4393989383
 20
189.9060687077
 30
0.0
 10
98.2407101937
 20
190.0270282176
 30
0.0
 10
98.0266096236
 20
190.1167925934
 30
0.0
 10
97.8716949576
 20
190.140744582
 30
0.0
 10
97.7935750313
 20
190.1407620125
 30
0.0
  0
SPLINE
  5
331
100
AcDbEntity
  8
0
100
AcDbSpline
 62
7
  6
BYLAYER
 70
0
 71
3
 72
23
 73
19
 74
0
 42
0.0000001
 43
0.0000001
 44
0.0000000001
 40
0.0
 40
0.0
 40
0.0
 40
0.0
 40
0.2214445058
 40
0.4194085164
 40
0.5916936732
 40
0.6674818736
 40
0.735964331
 40
0.7968647546
 40
0.8500334018
 40
0.8953519759
 40
0.9327013994
 40
0.9619618374
 40
0.9735210463
 40
0.9830127363
 40
0.9904217244
 40
0.9957327842
 40
0.9989306465
 40
1.0
 40
1.0
 40
1.0
 40
1.0
 10
105.0248964555
 20
186.0453995894
 30
0.0
 10
105.0671804333
 20
185.9994365627
 30
0.0
 10
105.1487859514
 20
185.9137694566
 30
0.0
 10
105.2677178984
 20
185.7966779583
 30
0.0
 10
105.3597409966
 20
185.710888361
 30
0.0
 10
105.4260380651
 20
185.6510924381
 30
0.0
 10
105.4693328362
 20
185.6127008137
 30
0.0
 10
105.5080503293
 20
185.5787629965
 30
0.0
 10
105.5420162223
 20
185.5493203826
 30
0.0
 10
105.571107789
 20
185.5243841355
 30
0.0
 10
105.5951683818
 20
185.5039745575
 30
0.0
 10
105.6120951761
 20
185.4897899049
 30
0.0
 10
105.6229467443
 20
185.480738961
 30
0.0
 10
105.6292514696
 20
185.4755732365
 30
0.0
 10
105.6337752281
 20
185.4717186656
 30
0.0
 10
105.6379596536
 20
185.4685865602
 30
0.0
 10
105.6388015609
 20
185.4673868057
 30
0.0
 10
105.6410361976
 20
185.4661025149
 30
0.0
 10
105.6407357993
 20
185.4661293106
 30
0.0
  0
SPLINE
  5
332
100
AcDbEntity
  8
0
100
AcDbSpline
 62
7
  6
BYLAYER
 70
0
 71
3
 72
10
 73
6
 74
0
 42
0.0000001
 43
0.0000001
 44
0.0000000001
 40
0.0
 40
0.0
 40
0.0
 40
0.0
 40
0.4415382619
 40
0.7124977029
 40
1.0
 40
1.0
 40
1.0
 40
1.0
 10
90.5622515069
 20
186.0454096386
 30
0.0
 10
90.8812288789
 20
186.3920848102
 30
0.0
 10
91.4011740964
 20
186.9468137927
 30
0.0
 10
92.1510309851
 20
187.705902923
 30
0.0
 10
92.5825725265
 20
188.1170448783
 30
0.0
 10
92.8097665972
 20
188.3231442777
 30
0.0
  0
SPLINE
  5
333
100
AcDbEntity
  8
0
100
AcDbSpline
 62
7
  6
BYLAYER
 70
0
 71
3
 72
9
 73
5
 74
0
 42
0.0000001
 43
0.0000001
 44
0.0000000001
 40
0.0
 40
0.0
 40
0.0
 40
0.0
 40
0.4228285205
 40
1.0
 40
1.0
 40
1.0
 40
1.0
 10
94.6758230049
 20
125.3098267173
 30
0.0
 10
94.5105322603
 20
125.3397436555
 30
0.0
 10
94.1199939025
 20
125.4125779073
 30
0.0
 10
93.7297292191
 20
125.4868435221
 30
0.0
 10
93.504537914
 20
125.5300135822
 30
0.0
  0
SPLINE
  5
334
100
AcDbEntity
  8
0
100
AcDbSpline
 62
7
  6
BYLAYER
 70
0
 71
3
 72
9
 73
5
 74
0
 42
0.0000001
 43
0.0000001
 44
0.0000000001
 40
0.0
 40
0.0
 40
0.0
 40
0.0
 40
0.4999365556
 40
1.0
 40
1.0
 40
1.0
 40
1.0
 10
94.6758589542
 20
125.3098202464
 30
0.0
 10
94.9132456996
 20
127.3037090973
 30
0.0
 10
95.3732867493
 20
131.2937619123
 30
0.0
 10
95.8078315327
 20
135.2866669128
 30
0.0
 10
96.0184433967
 20
137.2840739357
 30
0.0
  0
SPLINE
  5
335
100
AcDbEntity
  8
0
100
AcDbSpline
 62
7
  6
BYLAYER
 70
0
 71
3
 72
10
 73
6
 74
0
 42
0.0000001
 43
0.0000001
 44
0.0000000001
 40
0.0
 40
0.0
 40
0.0
 40
0.0
 40
0.500176319
 40
0.7501596597
 40
1.0
 40
1.0
 40
1.0
 40
1.0
 10
97.2812668338
 20
155.0737424407
 30
0.0
 10
97.0019485294
 20
152.1139982623
 30
0.0
 10
96.6917343362
 20
147.6651850009
 30
0.0
 10
96.3175798523
 20
141.7334659746
 30
0.0
 10
96.1222109914
 20
138.7690500749
 30
0.0
 10
96.0188146599
 20
137.2876795985
 30
0.0
  0
SPLINE
  5
336
100
AcDbEntity
  8
0
100
AcDbSpline
 62
7
  6
BYLAYER
 70
0
 71
3
 72
11
 73
7
 74
0
 42
0.0000001
 43
0.0000001
 44
0.0000000001
 40
0.0
 40
0.0
 40
0.0
 40
0.0
 40
0.2495278164
 40
0.4994908508
 40
0.7496640861
 40
1.0
 40
1.0
 40
1.0
 40
1.0
 10
93.504540801
 20
125.5300131571
 30
0.0
 10
93.8217316783
 20
127.9869174658
 30
0.0
 10
94.4431784713
 20
132.9067543406
 30
0.0
 10
95.3530011476
 20
140.2935434967
 30
0.0
 10
96.2910761213
 20
147.6849292908
 30
0.0
 10
96.9484935958
 20
152.6102962207
 30
0.0
 10
97.2812214651
 20
155.0732405403
 30
0.0
  0
SPLINE
  5
337
100
AcDbEntity
  8
0
100
AcDbSpline
 62
7
  6
BYLAYER
 70
0
 71
3
 72
11
 73
7
 74
0
 42
0.0000001
 43
0.0000001
 44
0.0000000001
 40
0.0
 40
0.0
 40
0.0
 40
0.0
 40
0.2500564428
 40
0.5001805178
 40
0.7502713879
 40
1.0
 40
1.0
 40
1.0
 40
1.0
 10
87.2560238287
 20
155.0732407739
 30
0.0
 10
87.2722001425
 20
152.609440461
 30
0.0
 10
87.3359828324
 20
147.6813389037
 30
0.0
 10
87.5149623844
 20
140.290806088
 30
0.0
 10
87.7735417381
 20
132.9058434737
 30
0.0
 10
88.0126347988
 20
127.9865936707
 30
0.0
 10
88.1536187046
 20
125.5300126613
 30
0.0
  0
SPLINE
  5
338
100
AcDbEntity
  8
0
100
AcDbSpline
 62
7
  6
BYLAYER
 70
0
 71
3
 72
11
 73
7
 74
0
 42
0.0000001
 43
0.0000001
 44
0.0000000001
 40
0.0
 40
0.0
 40
0.0
 40
0.0
 40
0.2519590796
 40
0.5026515246
 40
0.7519134768
 40
1.0
 40
1.0
 40
1.0
 40
1.0
 10
108.5123228297
 20
125.3107206898
 30
0.0
 10
108.50490322
 20
125.092378617
 30
0.0
 10
108.5313818046
 20
124.6541199067
 30
0.0
 10
108.6978192773
 20
124.0196601447
 30
0.0
 10
108.977075837
 20
123.430645941
 30
0.0
 10
109.2234809564
 20
123.0744138598
 30
0.0
 10
109.3581861983
 20
122.9067029883
 30
0.0
  0
SPLINE
  5
339
100
AcDbEntity
  8
0
100
AcDbSpline
 62
7
  6
BYLAYER
 70
0
 71
3
 72
13
 73
9
 74
0
 42
0.0000001
 43
0.0000001
 44
0.0000000001
 40
0.0
 40
0.0
 40
0.0
 40
0.0
 40
0.0300770157
 40
0.0896032075
 40
0.1792979498
 40
0.2979868805
 40
0.6122308959
 40
1.0
 40
1.0
 40
1.0
 40
1.0
 10
109.3922227792
 20
137.3741350559
 30
0.0
 10
109.3859765173
 20
137.3743997062
 30
0.0
 10
109.3673393097
 20
137.3735793226
 30
0.0
 10
109.3301304085
 20
137.3718796378
 30
0.0
 10
109.2745353742
 20
137.3684501215
 30
0.0
 10
109.1661361551
 20
137.3614051039
 30
0.0
 10
108.9959674094
 20
137.3493036284
 30
0.0
 10
108.8504478701
 20
137.3384970499
 30
0.0
 10
108.7700746335
 20
137.3324230188
 30
0.0
  0
SPLINE
  5
33A
100
AcDbEntity
  8
0
100
AcDbSpline
 62
7
  6
BYLAYER
 70
0
 71
3
 72
9
 73
5
 74
0
 42
0.0000001
 43
0.0000001
 44
0.0000000001
 40
0.0
 40
0.0
 40
0.0
 40
0.0
 40
0.2499332883
 40
1.0
 40
1.0
 40
1.0
 40
1.0
 10
108.7705460816
 20
137.3285365706
 30
0.0
 10
108.8985779398
 20
136.0585002587
 30
0.0
 10
109.4793241065
 20
130.9841307171
 30
0.0
 10
110.3289522196
 20
125.9405757472
 30
0.0
 10
111.1145107314
 20
122.191202856
 30
0.0
  0
SPLINE
  5
33B
100
AcDbEntity
  8
0
100
AcDbSpline
 62
7
  6
BYLAYER
 70
0
 71
3
 72
9
 73
5
 74
0
 42
0.0000001
 43
0.0000001
 44
0.0000000001
 40
0.0
 40
0.0
 40
0.0
 40
0.0
 40
0.4845359492
 40
1.0
 40
1.0
 40
1.0
 40
1.0
 10
113.3459109113
 20
118.9744110624
 30
0.0
 10
113.2357226238
 20
118.9801814749
 30
0.0
 10
113.0086198112
 20
119.0392573824
 30
0.0
 10
112.8233069485
 20
119.1832278179
 30
0.0
 10
112.7458249864
 20
119.2714045933
 30
0.0
  0
SPLINE
  5
33C
100
AcDbEntity
  8
0
100
AcDbSpline
 62
7
  6
BYLAYER
 70
0
 71
3
 72
21
 73
17
 74
0
 42
0.0000001
 43
0.0000001
 44
0.0000000001
 40
0.0
 40
0.0
 40
0.0
 40
0.0
 40
0.0023048308
 40
0.0063800829
 40
0.0211498238
 40
0.0451142037
 40
0.0781834529
 40
0.1201219224
 40
0.1705428308
 40
0.2289874398
 40
0.2948738117
 40
0.3675643354
 40
0.4463275668
 40
0.6189041202
 40
0.8058451565
 40
1.0
 40
1.0
 40
1.0
 40
1.0
 10
81.2935750467
 20
117.9757641703
 30
0.0
 10
81.2935799151
 20
117.9787494351
 30
0.0
 10
81.2997552508
 20
117.985936041
 30
0.0
 10
81.324481974
 20
117.9967028938
 30
0.0
 10
81.3791800871
 20
118.0096495448
 30
0.0
 10
81.4708517254
 20
118.0233033486
 30
0.0
 10
81.598470517
 20
118.037132725
 30
0.0
 10
81.7603383052
 20
118.0504021409
 30
0.0
 10
81.9552808616
 20
118.0630438276
 30
0.0
 10
82.1813152138
 20
118.074808992
 30
0.0
 10
82.4362793096
 20
118.0855932389
 30
0.0
 10
82.7176188907
 20
118.0952604367
 30
0.0
 10
83.1371511891
 20
118.1069099813
 30
0.0
 10
83.7047294149
 20
118.1177630901
 30
0.0
 10
84.421826939
 20
118.1251737522
 30
0.0
 10
84.9154343179
 20
118.126542193
 30
0.0
 10
85.1669079769
 20
118.1263491683
 30
0.0
  0
SPLINE
  5
33D
100
AcDbEntity
  8
0
100
AcDbSpline
 62
7
  6
BYLAYER
 70
0
 71
3
 72
9
 73
5
 74
0
 42
0.0000001
 43
0.0000001
 44
0.0000000001
 40
0.0
 40
0.0
 40
0.0
 40
0.0
 40
0.5031116601
 40
1.0
 40
1.0
 40
1.0
 40
1.0
 10
97.0131217333
 20
137.3299742702
 30
0.0
 10
96.981375336
 20
134.4659880974
 30
0.0
 10
97.0353457154
 20
128.7714558502
 30
0.0
 10
97.327037699
 20
123.0843084707
 30
0.0
 10
97.5266908878
 20
120.2626296652
 30
0.0
  0
SPLINE
  5
33E
100
AcDbEntity
  8
0
100
AcDbSpline
 62
7
  6
BYLAYER
 70
0
 71
3
 72
11
 73
7
 74
0
 42
0.0000001
 43
0.0000001
 44
0.0000000001
 40
0.0
 40
0.0
 40
0.0
 40
0.0
 40
0.250823695
 40
0.5012252051
 40
0.7510130576
 40
1.0
 40
1.0
 40
1.0
 40
1.0
 10
97.2812156596
 20
155.0732407991
 30
0.0
 10
97.204480419
 20
153.5914686236
 30
0.0
 10
97.1079439199
 20
150.6274821004
 30
0.0
 10
97.0562870924
 20
146.1850652602
 30
0.0
 10
97.0436669984
 20
141.7532951739
 30
0.0
 10
97.0295284535
 20
138.8027751509
 30
0.0
 10
97.0130393801
 20
137.3299750805
 30
0.0
  0
SPLINE
  5
33F
100
AcDbEntity
  8
0
100
AcDbSpline
 62
7
  6
BYLAYER
 70
0
 71
3
 72
9
 73
5
 74
0
 42
0.0000001
 43
0.0000001
 44
0.0000000001
 40
0.0
 40
0.0
 40
0.0
 40
0.0
 40
0.4968880153
 40
1.0
 40
1.0
 40
1.0
 40
1.0
 10
98.0604584134
 20
120.2626193447
 30
0.0
 10
98.2605481441
 20
123.0842604048
 30
0.0
 10
98.5522065152
 20
128.7714188412
 30
0.0
 10
98.6057807056
 20
134.4659381025
 30
0.0
 10
98.5740289551
 20
137.3299210429
 30
0.0
  0
SPLINE
  5
340
100
AcDbEntity
  8
0
100
AcDbSpline
 62
7
  6
BYLAYER
 70
0
 71
3
 72
10
 73
6
 74
0
 42
0.0000001
 43
0.0000001
 44
0.0000000001
 40
0.0
 40
0.0
 40
0.0
 40
0.0
 40
0.2231754159
 40
0.4708502415
 40
1.0
 40
1.0
 40
1.0
 40
1.0
 10
99.2823424071
 20
120.1008384757
 30
0.0
 10
99.1928149217
 20
120.1210017577
 30
0.0
 10
99.0026950547
 20
120.1581176904
 30
0.0
 10
98.596053169
 20
120.2196635509
 30
0.0
 10
98.2776405484
 20
120.2493557926
 30
0.0
 10
98.060458698
 20
120.2626271963
 30
0.0
  0
SPLINE
  5
341
100
AcDbEntity
  8
0
100
AcDbSpline
 62
7
  6
BYLAYER
 70
0
 71
3
 72
9
 73
5
 74
0
 42
0.0000001
 43
0.0000001
 44
0.0000000001
 40
0.0
 40
0.0
 40
0.0
 40
0.0
 40
0.5326547551
 40
1.0
 40
1.0
 40
1.0
 40
1.0
 10
98.0447611063
 20
120.0183108365
 30
0.0
 10
98.2649700414
 20
120.0238841068
 30
0.0
 10
98.6782280259
 20
120.041680798
 30
0.0
 10
99.0904958733
 20
120.0772944481
 30
0.0
 10
99.2823262166
 20
120.1008461007
 30
0.0
  0
SPLINE
  5
342
100
AcDbEntity
  8
0
100
AcDbSpline
 62
7
  6
BYLAYER
 70
0
 71
3
 72
9
 73
5
 74
0
 42
0.0000001
 43
0.0000001
 44
0.0000000001
 40
0.0
 40
0.0
 40
0.0
 40
0.0
 40
0.5529087142
 40
1.0
 40
1.0
 40
1.0
 40
1.0
 10
99.2823286218
 20
120.1008307622
 30
0.0
 10
99.3663601036
 20
120.1102575868
 30
0.0
 10
99.518119117
 20
120.1293272699
 30
0.0
 10
99.6691045298
 20
120.1541937008
 30
0.0
 10
99.7361253161
 20
120.1677370688
 30
0.0
  0
SPLINE
  5
343
100
AcDbEntity
  8
0
100
AcDbSpline
 62
7
  6
BYLAYER
 70
0
 71
3
 72
10
 73
6
 74
0
 42
0.0000001
 43
0.0000001
 44
0.0000000001
 40
0.0
 40
0.0
 40
0.0
 40
0.0
 40
0.180907093
 40
0.4225366538
 40
1.0
 40
1.0
 40
1.0
 40
1.0
 10
99.5686250208
 20
137.2876077863
 30
0.0
 10
99.5090987727
 20
137.2956048823
 30
0.0
 10
99.3693145266
 20
137.3084649867
 30
0.0
 10
99.0377955771
 20
137.3265857651
 30
0.0
 10
98.765745492
 20
137.3304335683
 30
0.0
 10
98.5740286622
 20
137.3299482667
 30
0.0
  0
SPLINE
  5
344
100
AcDbEntity
  8
0
100
AcDbSpline
 62
7
  6
BYLAYER
 70
0
 71
3
 72
21
 73
17
 74
0
 42
0.0000001
 43
0.0000001
 44
0.0000000001
 40
0.0
 40
0.0
 40
0.0
 40
0.0
 40
0.1941569361
 40
0.3811008214
 40
0.5536786483
 40
0.6324421825
 40
0.7051327011
 40
0.7710186089
 40
0.8294625317
 40
0.8798824801
 40
0.9218197592
 40
0.9548878862
 40
0.9788511625
 40
0.9936202828
 40
0.9976952126
 40
1.0
 40
1.0
 40
1.0
 40
1.0
 10
110.4202421163
 20
118.1263491683
 30
0.0
 10
110.6717185231
 20
118.1265413214
 30
0.0
 10
111.1653323741
 20
118.1251742688
 30
0.0
 10
111.8824380532
 20
118.1177630284
 30
0.0
 10
112.4500220924
 20
118.1069098428
 30
0.0
 10
112.8695564782
 20
118.0952599227
 30
0.0
 10
113.150895876
 20
118.0855924572
 30
0.0
 10
113.4058585
 20
118.0748079494
 30
0.0
 10
113.6318901356
 20
118.0630424942
 30
0.0
 10
113.8268290279
 20
118.0504007663
 30
0.0
 10
113.9886925969
 20
118.0371311226
 30
0.0
 10
114.1163069091
 20
118.0233020572
 30
0.0
 10
114.2079750188
 20
118.0096481148
 30
0.0
 10
114.2626703284
 20
117.9967030851
 30
0.0
 10
114.2873962888
 20
117.9859362636
 30
0.0
 10
114.2935702941
 20
117.9787493796
 30
0.0
 10
114.2935750467
 20
117.9757641703
 30
0.0
  0
SPLINE
  5
345
100
AcDbEntity
  8
0
100
AcDbSpline
 62
7
  6
BYLAYER
 70
0
 71
3
 72
10
 73
6
 74
0
 42
0.0000001
 43
0.0000001
 44
0.0000000001
 40
0.0
 40
0.0
 40
0.0
 40
0.0
 40
0.4997686651
 40
0.7498582677
 40
1.0
 40
1.0
 40
1.0
 40
1.0
 10
86.1949232351
 20
137.3741029837
 30
0.0
 10
86.5511702396
 20
140.3079352843
 30
0.0
 10
86.9557971371
 20
144.727342407
 30
0.0
 10
87.2207795587
 20
150.635539817
 30
0.0
 10
87.2597664299
 20
153.5940319732
 30
0.0
 10
87.2560262066
 20
155.073240474
 30
0.0
  0
SPLINE
  5
346
100
AcDbEntity
  8
0
100
AcDbSpline
 62
7
  6
BYLAYER
 70
0
 71
3
 72
9
 73
5
 74
0
 42
0.0000001
 43
0.0000001
 44
0.0000000001
 40
0.0
 40
0.0
 40
0.0
 40
0.0
 40
0.4994364491
 40
1.0
 40
1.0
 40
1.0
 40
1.0
 10
83.3587762391
 20
121.571747389
 30
0.0
 10
83.9755475093
 20
124.1734841506
 30
0.0
 10
85.0722603521
 20
129.4167121296
 30
0.0
 10
85.8718659737
 20
134.7137683475
 30
0.0
 10
86.1949234159
 20
137.3741029574
 30
0.0
  0
SPLINE
  5
347
100
AcDbEntity
  8
0
100
AcDbSpline
 62
7
  6
BYLAYER
 70
0
 71
3
 72
13
 73
9
 74
0
 42
0.0000001
 43
0.0000001
 44
0.0000000001
 40
0.0
 40
0.0
 40
0.0
 40
0.0
 40
0.0303272512
 40
0.0903031953
 40
0.1805104677
 40
0.2996179821
 40
0.6138602954
 40
1.0
 40
1.0
 40
1.0
 40
1.0
 10
86.1949199998
 20
137.3740773358
 30
0.0
 10
86.2012119437
 20
137.3743534393
 30
0.0
 10
86.2199782799
 20
137.3735284498
 30
0.0
 10
86.2574035331
 20
137.3718277055
 30
0.0
 10
86.3132333686
 20
137.3683834606
 30
0.0
 10
86.4217237485
 20
137.3613311663
 30
0.0
 10
86.5914818368
 20
137.3492463779
 30
0.0
 10
86.7365266858
 20
137.3384603395
 30
0.0
 10
86.8164868328
 20
137.3324083291
 30
0.0
  0
SPLINE
  5
348
100
AcDbEntity
  8
0
100
AcDbSpline
 62
7
  6
BYLAYER
 70
0
 71
3
 72
10
 73
6
 74
0
 42
0.0000001
 43
0.0000001
 44
0.0000000001
 40
0.0
 40
0.0
 40
0.0
 40
0.0
 40
0.5001839267
 40
0.7501407885
 40
1.0
 40
1.0
 40
1.0
 40
1.0
 10
86.8166040032
 20
137.3285376051
 30
0.0
 10
86.8355509167
 20
135.3244163661
 30
0.0
 10
86.8820193057
 20
132.3189044229
 30
0.0
 10
86.9799147953
 20
128.3131397666
 30
0.0
 10
87.0407565692
 20
126.3113091691
 30
0.0
 10
87.0747597074
 20
125.3107139903
 30
0.0
  0
SPLINE
  5
349
100
AcDbEntity
  8
0
100
AcDbSpline
 62
7
  6
BYLAYER
 70
0
 71
3
 72
11
 73
7
 74
0
 42
0.0000001
 43
0.0000001
 44
0.0000000001
 40
0.0
 40
0.0
 40
0.0
 40
0.0
 40
0.2497620464
 40
0.4997989787
 40
0.7499191912
 40
1.0
 40
1.0
 40
1.0
 40
1.0
 10
87.2560231817
 20
155.0733526721
 30
0.0
 10
87.26284972
 20
153.5957867942
 30
0.0
 10
87.2575848643
 20
150.6388833227
 30
0.0
 10
87.1805643459
 20
146.2028788422
 30
0.0
 10
87.035354142
 20
141.76672693
 30
0.0
 10
86.8966790491
 20
138.8106921769
 30
0.0
 10
86.8165425593
 20
137.3333966664
 30
0.0
  0
SPLINE
  5
34A
100
AcDbEntity
  8
0
100
AcDbSpline
 62
7
  6
BYLAYER
 70
0
 71
3
 72
11
 73
7
 74
0
 42
0.0000001
 43
0.0000001
 44
0.0000000001
 40
0.0
 40
0.0
 40
0.0
 40
0.0
 40
0.3100244631
 40
0.5861894927
 40
0.8179063987
 40
1.0
 40
1.0
 40
1.0
 40
1.0
 10
87.0746921503
 20
125.3107072537
 30
0.0
 10
87.1882506969
 20
125.3219683373
 30
0.0
 10
87.4025743372
 20
125.3474594574
 30
0.0
 10
87.699693599
 20
125.3971451128
 30
0.0
 10
87.9470324868
 20
125.4554239785
 30
0.0
 10
88.0920601917
 20
125.5035074536
 30
0.0
 10
88.1536223031
 20
125.5300139643
 30
0.0
  0
SPLINE
  5
34B
100
AcDbEntity
  8
0
100
AcDbSpline
 62
7
  6
BYLAYER
 70
0
 71
3
 72
11
 73
7
 74
0
 42
0.0000001
 43
0.0000001
 44
0.0000000001
 40
0.0
 40
0.0
 40
0.0
 40
0.0
 40
0.2480865972
 40
0.4973484675
 40
0.7480409212
 40
1.0
 40
1.0
 40
1.0
 40
1.0
 10
86.2289638943
 20
122.9067029901
 30
0.0
 10
86.3636692555
 20
123.074413855
 30
0.0
 10
86.610074495
 20
123.4306458746
 30
0.0
 10
86.889330948
 20
124.019660154
 30
0.0
 10
87.0557683315
 20
124.6541198853
 30
0.0
 10
87.0822468819
 20
125.0923786134
 30
0.0
 10
87.0748272667
 20
125.3107206907
 30
0.0
  0
SPLINE
  5
34C
100
AcDbEntity
  8
0
100
AcDbSpline
 62
7
  6
BYLAYER
 70
0
 71
3
 72
9
 73
5
 74
0
 42
0.0000001
 43
0.0000001
 44
0.0000000001
 40
0.0
 40
0.0
 40
0.0
 40
0.0
 40
0.2495916774
 40
1.0
 40
1.0
 40
1.0
 40
1.0
 10
86.2289638918
 20
122.9067029927
 30
0.0
 10
86.1205791853
 20
122.7717681332
 30
0.0
 10
85.6893218666
 20
122.2287414011
 30
0.0
 10
85.2686798596
 20
121.6773549012
 30
0.0
 10
84.9566094663
 20
121.2609639632
 30
0.0
  0
SPLINE
  5
34D
100
AcDbEntity
  8
0
100
AcDbSpline
 62
7
  6
BYLAYER
 70
0
 71
3
 72
12
 73
8
 74
0
 42
0.0000001
 43
0.0000001
 44
0.0000000001
 40
0.0
 40
0.0
 40
0.0
 40
0.0
 40
0.3156165387
 40
0.5968863119
 40
0.8276297142
 40
0.9214380077
 40
1.0
 40
1.0
 40
1.0
 40
1.0
 10
86.2289641533
 20
122.9067027226
 30
0.0
 10
86.3339369068
 20
122.7982839378
 30
0.0
 10
86.5280945249
 20
122.5889175854
 30
0.0
 10
86.7817698744
 20
122.2849702276
 30
0.0
 10
86.9506028595
 20
122.0489132052
 30
0.0
 10
87.0479150602
 20
121.8824065863
 30
0.0
 10
87.0838247233
 20
121.8080409087
 30
0.0
 10
87.0979659773
 20
121.7732403739
 30
0.0
  0
SPLINE
  5
34E
100
AcDbEntity
  8
0
100
AcDbSpline
 62
7
  6
BYLAYER
 70
0
 71
3
 72
11
 73
7
 74
0
 42
0.0000001
 43
0.0000001
 44
0.0000000001
 40
0.0
 40
0.0
 40
0.0
 40
0.0
 40
0.2496078141
 40
0.499638612
 40
0.7498252451
 40
1.0
 40
1.0
 40
1.0
 40
1.0
 10
88.1536216342
 20
125.5300136018
 30
0.0
 10
88.1661865336
 20
125.2007663585
 30
0.0
 10
88.1390362767
 20
124.5384935686
 30
0.0
 10
87.9409920077
 20
123.5646680688
 30
0.0
 10
87.595140129
 20
122.6325673895
 30
0.0
 10
87.2762500551
 20
122.0512156667
 30
0.0
 10
87.0979662048
 20
121.7732404692
 30
0.0
  0
SPLINE
  5
34F
100
AcDbEntity
  8
0
100
AcDbSpline
 62
7
  6
BYLAYER
 70
0
 71
3
 72
10
 73
6
 74
0
 42
0.0000001
 43
0.0000001
 44
0.0000000001
 40
0.0
 40
0.0
 40
0.0
 40
0.0
 40
0.2312993227
 40
0.4784834266
 40
1.0
 40
1.0
 40
1.0
 40
1.0
 10
93.4124228655
 20
121.7732404692
 30
0.0
 10
93.40023019
 20
122.0628729222
 30
0.0
 10
93.3864071128
 20
122.6625503628
 30
0.0
 10
93.3970946271
 20
123.9159138809
 30
0.0
 10
93.4487468359
 20
124.8787788073
 30
0.0
 10
93.5045374156
 20
125.5300136018
 30
0.0
  0
SPLINE
  5
350
100
AcDbEntity
  8
0
100
AcDbSpline
 62
7
  6
BYLAYER
 70
0
 71
3
 72
9
 73
5
 74
0
 42
0.0000001
 43
0.0000001
 44
0.0000000001
 40
0.0
 40
0.0
 40
0.0
 40
0.0
 40
0.2518406582
 40
1.0
 40
1.0
 40
1.0
 40
1.0
 10
93.7937244618
 20
119.7632410827
 30
0.0
 10
93.7626282997
 20
119.9321452954
 30
0.0
 10
93.6379376989
 20
120.6026008854
 30
0.0
 10
93.5093126262
 20
121.2723170002
 30
0.0
 10
93.4124555979
 20
121.7732466276
 30
0.0
  0
SPLINE
  5
351
100
AcDbEntity
  8
0
100
AcDbSpline
 62
7
  6
BYLAYER
 70
0
 71
3
 72
9
 73
5
 74
0
 42
0.0000001
 43
0.0000001
 44
0.0000000001
 40
0.0
 40
0.0
 40
0.0
 40
0.0
 40
0.5034270831
 40
1.0
 40
1.0
 40
1.0
 40
1.0
 10
95.7939104754
 20
120.167823239
 30
0.0
 10
95.6516203332
 20
120.6303468519
 30
0.0
 10
95.3647814344
 20
121.5478079906
 30
0.0
 10
95.0630379094
 20
122.4605761168
 30
0.0
 10
94.9063003448
 20
122.9114361193
 30
0.0
  0
SPLINE
  5
352
100
AcDbEntity
  8
0
100
AcDbSpline
 62
7
  6
BYLAYER
 70
0
 71
3
 72
11
 73
7
 74
0
 42
0.0000001
 43
0.0000001
 44
0.0000000001
 40
0.0
 40
0.0
 40
0.0
 40
0.0
 40
0.3018354665
 40
0.5738678611
 40
0.8082101008
 40
1.0
 40
1.0
 40
1.0
 40
1.0
 10
93.7937235925
 20
119.7632426652
 30
0.0
 10
93.9982173
 20
119.7854900763
 30
0.0
 10
94.3861209432
 20
119.8366273664
 30
0.0
 10
94.9285918431
 20
119.9328430508
 30
0.0
 10
95.3927705911
 20
120.0388970402
 30
0.0
 10
95.6704164611
 20
120.1250111196
 30
0.0
 10
95.7939105143
 20
120.1678232351
 30
0.0
  0
SPLINE
  5
353
100
AcDbEntity
  8
0
100
AcDbSpline
 62
7
  6
BYLAYER
 70
0
 71
3
 72
11
 73
7
 74
0
 42
0.0000001
 43
0.0000001
 44
0.0000000001
 40
0.0
 40
0.0
 40
0.0
 40
0.0
 40
0.2244236684
 40
0.4707694628
 40
0.7325149662
 40
1.0
 40
1.0
 40
1.0
 40
1.0
 10
94.9063003448
 20
122.9114361193
 30
0.0
 10
94.8294892941
 20
122.7913630117
 30
0.0
 10
94.6406637892
 20
122.5568436848
 30
0.0
 10
94.2910232048
 20
122.2471336647
 30
0.0
 10
93.8751116472
 20
121.9801035436
 30
0.0
 10
93.5702976451
 20
121.8360322587
 30
0.0
 10
93.4124363518
 20
121.7732456199
 30
0.0
  0
SPLINE
  5
354
100
AcDbEntity
  8
0
100
AcDbSpline
 62
7
  6
BYLAYER
 70
0
 71
3
 72
9
 73
5
 74
0
 42
0.0000001
 43
0.0000001
 44
0.0000000001
 40
0.0
 40
0.0
 40
0.0
 40
0.0
 40
0.5288042129
 40
1.0
 40
1.0
 40
1.0
 40
1.0
 10
94.6758231842
 20
125.3098267205
 30
0.0
 10
94.6252893687
 20
124.8853740738
 30
0.0
 10
94.6104444848
 20
124.069784012
 30
0.0
 10
94.7812454444
 20
123.2712047247
 30
0.0
 10
94.9063003431
 20
122.9114361166
 30
0.0
  0
SPLINE
  5
355
100
AcDbEntity
  8
0
100
AcDbSpline
 62
7
  6
BYLAYER
 70
0
 71
3
 72
9
 73
5
 74
0
 42
0.0000001
 43
0.0000001
 44
0.0000000001
 40
0.0
 40
0.0
 40
0.0
 40
0.0
 40
0.4471123216
 40
1.0
 40
1.0
 40
1.0
 40
1.0
 10
95.8509782003
 20
120.1677476464
 30
0.0
 10
95.9179617942
 20
120.1542034678
 30
0.0
 10
96.068857501
 20
120.1293358511
 30
0.0
 10
96.2205274924
 20
120.1102662651
 30
0.0
 10
96.3045066351
 20
120.1008400107
 30
0.0
  0
SPLINE
  5
356
100
AcDbEntity
  8
0
100
AcDbSpline
 62
7
  6
BYLAYER
 70
0
 71
3
 72
10
 73
6
 74
0
 42
0.0000001
 43
0.0000001
 44
0.0000000001
 40
0.0
 40
0.0
 40
0.0
 40
0.0
 40
0.2517122583
 40
0.6273496284
 40
1.0
 40
1.0
 40
1.0
 40
1.0
 10
96.0184433967
 20
137.2840739357
 30
0.0
 10
95.9554552805
 20
135.8490166804
 30
0.0
 10
95.8291100863
 20
132.2709835106
 30
0.0
 10
95.7481662888
 20
126.5642712104
 30
0.0
 10
95.7983338375
 20
122.2937705593
 30
0.0
 10
95.8509666503
 20
120.1678290718
 30
0.0
  0
SPLINE
  5
357
100
AcDbEntity
  8
0
100
AcDbSpline
 62
7
  6
BYLAYER
 70
0
 71
3
 72
10
 73
6
 74
0
 42
0.0000001
 43
0.0000001
 44
0.0000000001
 40
0.0
 40
0.0
 40
0.0
 40
0.0
 40
0.5774527204
 40
0.8190840295
 40
1.0
 40
1.0
 40
1.0
 40
1.0
 10
97.0131220934
 20
137.3300071889
 30
0.0
 10
96.8214156412
 20
137.3304921543
 30
0.0
 10
96.5493782666
 20
137.3266444416
 30
0.0
 10
96.2178710632
 20
137.3085260307
 30
0.0
 10
96.0780881999
 20
137.2956675966
 30
0.0
 10
96.0185609772
 20
137.2876717384
 30
0.0
  0
SPLINE
  5
358
100
AcDbEntity
  8
0
100
AcDbSpline
 62
7
  6
BYLAYER
 70
0
 71
3
 72
9
 73
5
 74
0
 42
0.0000001
 43
0.0000001
 44
0.0000000001
 40
0.0
 40
0.0
 40
0.0
 40
0.0
 40
0.4673250646
 40
1.0
 40
1.0
 40
1.0
 40
1.0
 10
96.3045137701
 20
120.1008440951
 30
0.0
 10
96.4963823322
 20
120.0772987879
 30
0.0
 10
96.9087494686
 20
120.0417063758
 30
0.0
 10
97.3221038572
 20
120.0238948746
 30
0.0
 10
97.5423728787
 20
120.0183157341
 30
0.0
  0
SPLINE
  5
359
100
AcDbEntity
  8
0
100
AcDbSpline
 62
7
  6
BYLAYER
 70
0
 71
3
 72
10
 73
6
 74
0
 42
0.0000001
 43
0.0000001
 44
0.0000000001
 40
0.0
 40
0.0
 40
0.0
 40
0.0
 40
0.5291668138
 40
0.7768395765
 40
1.0
 40
1.0
 40
1.0
 40
1.0
 10
97.5266911156
 20
120.2626286565
 30
0.0
 10
97.3094457062
 20
120.2493850454
 30
0.0
 10
96.9909428131
 20
120.2197154734
 30
0.0
 10
96.5841982259
 20
120.15815526
 30
0.0
 10
96.3940396723
 20
120.1210180641
 30
0.0
 10
96.3044981654
 20
120.1008400438
 30
0.0
  0
SPLINE
  5
35A
100
AcDbEntity
  8
0
100
AcDbSpline
 62
7
  6
BYLAYER
 70
0
 71
3
 72
21
 73
17
 74
0
 42
0.0000001
 43
0.0000001
 44
0.0000000001
 40
0.0
 40
0.0
 40
0.0
 40
0.0
 40
0.0013557172
 40
0.0046113074
 40
0.0099603387
 40
0.0174719145
 40
0.0391835422
 40
0.070117542
 40
0.1104899119
 40
0.159977765
 40
0.2181225466
 40
0.2844646972
 40
0.4390366019
 40
0.6156910534
 40
0.8055876465
 40
1.0
 40
1.0
 40
1.0
 40
1.0
 10
97.5262382988
 20
119.2732583612
 30
0.0
 10
97.5265752799
 20
119.2732578108
 30
0.0
 10
97.5271672641
 20
119.2746250731
 30
0.0
 10
97.5276698257
 20
119.2767662003
 30
0.0
 10
97.5283403083
 20
119.2808719752
 30
0.0
 10
97.5292996178
 20
119.2893197979
 30
0.0
 10
97.5304590334
 20
119.3043009597
 30
0.0
 10
97.5317416468
 20
119.3273521184
 30
0.0
 10
97.5330176368
 20
119.3573644513
 30
0.0
 10
97.5342697139
 20
119.3941269822
 30
0.0
 10
97.5354788057
 20
119.4373557414
 30
0.0
 10
97.5370893043
 20
119.5067003079
 30
0.0
 10
97.5388049161
 20
119.6055075066
 30
0.0
 10
97.5404325569
 20
119.7350294646
 30
0.0
 10
97.5416377825
 20
119.8744595123
 30
0.0
 10
97.5421695909
 20
119.9699832596
 30
0.0
 10
97.5423719232
 20
120.0183066098
 30
0.0
  0
SPLINE
  5
35B
100
AcDbEntity
  8
0
100
AcDbSpline
 62
7
  6
BYLAYER
 70
0
 71
3
 72
9
 73
5
 74
0
 42
0.0000001
 43
0.0000001
 44
0.0000000001
 40
0.0
 40
0.0
 40
0.0
 40
0.0
 40
0.2517265655
 40
1.0
 40
1.0
 40
1.0
 40
1.0
 10
99.568756222
 20
137.2835820715
 30
0.0
 10
99.6315611603
 20
135.8485666126
 30
0.0
 10
99.8330515763
 20
130.145894314
 30
0.0
 10
99.8421136835
 20
124.4362731378
 30
0.0
 10
99.7361353644
 20
120.1678292338
 30
0.0
  0
SPLINE
  5
35C
100
AcDbEntity
  8
0
100
AcDbSpline
 62
7
  6
BYLAYER
 70
0
 71
3
 72
13
 73
9
 74
0
 42
0.0000001
 43
0.0000001
 44
0.0000000001
 40
0.0
 40
0.0
 40
0.0
 40
0.0
 40
0.2554923252
 40
0.3886945257
 40
0.5211431027
 40
0.650140898
 40
0.7738739302
 40
1.0
 40
1.0
 40
1.0
 40
1.0
 10
95.8505881626
 20
120.1678271169
 30
0.0
 10
95.8418051497
 20
120.0528986665
 30
0.0
 10
95.8010643848
 20
119.8782670137
 30
0.0
 10
95.691361598
 20
119.6693104508
 30
0.0
 10
95.5815555408
 20
119.5277441557
 30
0.0
 10
95.4488084168
 20
119.4136973546
 30
0.0
 10
95.2598562618
 20
119.3068625266
 30
0.0
 10
95.0998301528
 20
119.2732454539
 30
0.0
 10
94.9978149649
 20
119.2732470188
 30
0.0
  0
SPLINE
  5
35D
100
AcDbEntity
  8
0
100
AcDbSpline
 62
7
  6
BYLAYER
 70
0
 71
3
 72
14
 73
10
 74
0
 42
0.0000001
 43
0.0000001
 44
0.0000000001
 40
0.0
 40
0.0
 40
0.0
 40
0.0
 40
0.0956455892
 40
0.1993122258
 40
0.3136627057
 40
0.4390833477
 40
0.5743518973
 40
0.7160099679
 40
1.0
 40
1.0
 40
1.0
 40
1.0
 10
95.6761714576
 20
119.2732496994
 30
0.0
 10
95.7121597483
 20
119.2732468515
 30
0.0
 10
95.7874573168
 20
119.2833799803
 30
0.0
 10
95.8977091677
 20
119.3287843788
 30
0.0
 10
96.0026181028
 20
119.4061212929
 30
0.0
 10
96.0975996285
 20
119.511628224
 30
0.0
 10
96.1771622159
 20
119.6412739297
 30
0.0
 10
96.2602722068
 20
119.8358499382
 30
0.0
 10
96.2936441943
 20
119.9945355865
 30
0.0
 10
96.3045056538
 20
120.1008382561
 30
0.0
  0
SPLINE
  5
35E
100
AcDbEntity
  8
0
100
AcDbSpline
 62
7
  6
BYLAYER
 70
0
 71
3
 72
9
 73
5
 74
0
 42
0.0000001
 43
0.0000001
 44
0.0000000001
 40
0.0
 40
0.0
 40
0.0
 40
0.0
 40
0.4711949145
 40
1.0
 40
1.0
 40
1.0
 40
1.0
 10
100.6808497503
 20
122.9114361161
 30
0.0
 10
100.8059087159
 20
123.2712026607
 30
0.0
 10
100.9767080971
 20
124.0697835228
 30
0.0
 10
100.9618611741
 20
124.8853733144
 30
0.0
 10
100.9113269107
 20
125.3098267215
 30
0.0
  0
SPLINE
  5
35F
100
AcDbEntity
  8
0
100
AcDbSpline
 62
7
  6
BYLAYER
 70
0
 71
3
 72
13
 73
9
 74
0
 42
0.0000001
 43
0.0000001
 44
0.0000000001
 40
0.0
 40
0.0
 40
0.0
 40
0.0
 40
0.1118177619
 40
0.2300367208
 40
0.4822839498
 40
0.6142242969
 40
0.7464527853
 40
1.0
 40
1.0
 40
1.0
 40
1.0
 10
94.9926563636
 20
119.2750426505
 30
0.0
 10
95.041079909
 20
119.278420565
 30
0.0
 10
95.1403196756
 20
119.2950455139
 30
0.0
 10
95.3370735436
 20
119.3697331632
 30
0.0
 10
95.5140851974
 20
119.507983952
 30
0.0
 10
95.6468511696
 20
119.6896804536
 30
0.0
 10
95.7478962792
 20
119.8913983296
 30
0.0
 10
95.7855278692
 20
120.0580804723
 30
0.0
 10
95.793914907
 20
120.1678278725
 30
0.0
  0
SPLINE
  5
360
100
AcDbEntity
  8
0
100
AcDbSpline
 62
7
  6
BYLAYER
 70
0
 71
3
 72
12
 73
8
 74
0
 42
0.0000001
 43
0.0000001
 44
0.0000000001
 40
0.0
 40
0.0
 40
0.0
 40
0.0
 40
0.3348384679
 40
0.4723237111
 40
0.6311219851
 40
0.8084747961
 40
1.0
 40
1.0
 40
1.0
 40
1.0
 10
93.5267561661
 20
119.2732404693
 30
0.0
 10
93.5915386309
 20
119.2732432151
 30
0.0
 10
93.6640280903
 20
119.3643965848
 30
0.0
 10
93.7139270976
 20
119.4714575473
 30
0.0
 10
93.7455613752
 20
119.558537869
 30
0.0
 10
93.7724209472
 20
119.6568221936
 30
0.0
 10
93.7870683377
 20
119.7267859918
 30
0.0
 10
93.7936887947
 20
119.7632448782
 30
0.0
  0
SPLINE
  5
361
100
AcDbEntity
  8
0
100
AcDbSpline
 62
7
  6
BYLAYER
 70
0
 71
3
 72
11
 73
7
 74
0
 42
0.0000001
 43
0.0000001
 44
0.0000000001
 40
0.0
 40
0.0
 40
0.0
 40
0.0
 40
0.1917894166
 40
0.4261331329
 40
0.6981662753
 40
1.0
 40
1.0
 40
1.0
 40
1.0
 10
99.7932436116
 20
120.167823652
 30
0.0
 10
99.9167433071
 20
120.1250076334
 30
0.0
 10
100.1944066771
 20
120.0388949053
 30
0.0
 10
100.6586107093
 20
119.9328356564
 30
0.0
 10
101.2011098586
 20
119.8366034768
 30
0.0
 10
101.5890382529
 20
119.7855065025
 30
0.0
 10
101.7935391598
 20
119.7632352916
 30
0.0
  0
SPLINE
  5
362
100
AcDbEntity
  8
0
100
AcDbSpline
 62
7
  6
BYLAYER
 70
0
 71
3
 72
9
 73
5
 74
0
 42
0.0000001
 43
0.0000001
 44
0.0000000001
 40
0.0
 40
0.0
 40
0.0
 40
0.0
 40
0.4965719621
 40
1.0
 40
1.0
 40
1.0
 40
1.0
 10
100.6808497486
 20
122.9114361188
 30
0.0
 10
100.5241075852
 20
122.4605789539
 30
0.0
 10
100.2223655363
 20
121.5478106957
 30
0.0
 10
99.935535247
 20
120.630347466
 30
0.0
 10
99.793243533
 20
120.1678236441
 30
0.0
  0
SPLINE
  5
363
100
AcDbEntity
  8
0
100
AcDbSpline
 62
7
  6
BYLAYER
 70
0
 71
3
 72
9
 73
5
 74
0
 42
0.0000001
 43
0.0000001
 44
0.0000000001
 40
0.0
 40
0.0
 40
0.0
 40
0.0
 40
0.2480638446
 40
1.0
 40
1.0
 40
1.0
 40
1.0
 10
102.1747714402
 20
121.7732572299
 30
0.0
 10
102.1426599265
 20
121.6071657573
 30
0.0
 10
102.0134799386
 20
120.9375634727
 30
0.0
 10
101.8863602819
 20
120.2675562781
 30
0.0
 10
101.7935107862
 20
119.7632495395
 30
0.0
  0
SPLINE
  5
364
100
AcDbEntity
  8
0
100
AcDbSpline
 62
7
  6
BYLAYER
 70
0
 71
3
 72
9
 73
5
 74
0
 42
0.0000001
 43
0.0000001
 44
0.0000000001
 40
0.0
 40
0.0
 40
0.0
 40
0.0
 40
0.2432674656
 40
1.0
 40
1.0
 40
1.0
 40
1.0
 10
112.0303015599
 20
119.0433418743
 30
0.0
 10
112.0248970194
 20
119.0436251197
 30
0.0
 10
112.0027271266
 20
119.0455921631
 30
0.0
 10
111.9808706707
 20
119.0508331516
 30
0.0
 10
111.9649745407
 20
119.0563765998
 30
0.0
  0
SPLINE
  5
365
100
AcDbEntity
  8
0
100
AcDbSpline
 62
7
  6
BYLAYER
 70
0
 71
3
 72
10
 73
6
 74
0
 42
0.0000001
 43
0.0000001
 44
0.0000000001
 40
0.0
 40
0.0
 40
0.0
 40
0.0
 40
0.4382948509
 40
0.7030159837
 40
1.0
 40
1.0
 40
1.0
 40
1.0
 10
111.9649745407
 20
119.0563765998
 30
0.0
 10
111.9227291208
 20
119.0711088205
 30
0.0
 10
111.8612305925
 20
119.1133947146
 30
0.0
 10
111.7951064327
 20
119.1912154466
 30
0.0
 10
111.7643897844
 20
119.2399484354
 30
0.0
 10
111.7497922746
 20
119.2665182454
 30
0.0
  0
SPLINE
  5
366
100
AcDbEntity
  8
0
100
AcDbSpline
 62
7
  6
BYLAYER
 70
0
 71
3
 72
9
 73
5
 74
0
 42
0.0000001
 43
0.0000001
 44
0.0000000001
 40
0.0
 40
0.0
 40
0.0
 40
0.0
 40
0.2432686149
 40
1.0
 40
1.0
 40
1.0
 40
1.0
 10
83.5568493675
 20
119.043351034
 30
0.0
 10
83.5622536708
 20
119.0436339825
 30
0.0
 10
83.5844225291
 20
119.0455997336
 30
0.0
 10
83.6062781583
 20
119.0508391848
 30
0.0
 10
83.6221737695
 20
119.0563814167
 30
0.0
  0
SPLINE
  5
367
100
AcDbEntity
  8
0
100
AcDbSpline
 62
7
  6
BYLAYER
 70
0
 71
3
 72
10
 73
6
 74
0
 42
0.0000001
 43
0.0000001
 44
0.0000000001
 40
0.0
 40
0.0
 40
0.0
 40
0.0
 40
0.4382927991
 40
0.7030141331
 40
1.0
 40
1.0
 40
1.0
 40
1.0
 10
83.6221737695
 20
119.0563814167
 30
0.0
 10
83.6644201705
 20
119.0711112279
 30
0.0
 10
83.7259210698
 20
119.1133949839
 30
0.0
 10
83.792047526
 20
119.1912148084
 30
0.0
 10
83.8227652638
 20
119.2399479147
 30
0.0
 10
83.8373632835
 20
119.266517925
 30
0.0
  0
SPLINE
  5
368
100
AcDbEntity
  8
0
100
AcDbSpline
 62
7
  6
BYLAYER
 70
0
 71
3
 72
9
 73
5
 74
0
 42
0.0000001
 43
0.0000001
 44
0.0000000001
 40
0.0
 40
0.0
 40
0.0
 40
0.0
 40
0.4809906367
 40
1.0
 40
1.0
 40
1.0
 40
1.0
 10
82.2412350582
 20
118.97436481
 30
0.0
 10
82.3504644925
 20
118.9800916328
 30
0.0
 10
82.5772178527
 20
119.0386482902
 30
0.0
 10
82.7626641614
 20
119.1820985462
 30
0.0
 10
82.8406560573
 20
119.2706828893
 30
0.0
  0
SPLINE
  5
369
100
AcDbEntity
  8
0
100
AcDbSpline
 62
7
  6
BYLAYER
 70
0
 71
3
 72
9
 73
5
 74
0
 42
0.0000001
 43
0.0000001
 44
0.0000000001
 40
0.0
 40
0.0
 40
0.0
 40
0.0
 40
0.5311577048
 40
1.0
 40
1.0
 40
1.0
 40
1.0
 10
109.3581862009
 20
122.9067029909
 30
0.0
 10
109.2500332432
 20
122.7950098186
 30
0.0
 10
109.0510805662
 20
122.5801688978
 30
0.0
 10
108.863836707
 20
122.3548295682
 30
0.0
 10
108.7808639234
 20
122.2455188378
 30
0.0
  0
SPLINE
  5
36A
100
AcDbEntity
  8
0
100
AcDbSpline
 62
7
  6
BYLAYER
 70
0
 71
3
 72
9
 73
5
 74
0
 42
0.0000001
 43
0.0000001
 44
0.0000000001
 40
0.0
 40
0.0
 40
0.0
 40
0.0
 40
0.2502457472
 40
1.0
 40
1.0
 40
1.0
 40
1.0
 10
110.0678247894
 20
122.0027681486
 30
0.0
 10
110.0093905584
 20
122.0787621527
 30
0.0
 10
109.7752025278
 20
122.3819147633
 30
0.0
 10
109.5380472304
 20
122.6827824756
 30
0.0
 10
109.3581862009
 20
122.9067029909
 30
0.0
  0
SPLINE
  5
36B
100
AcDbEntity
  8
0
100
AcDbSpline
 62
7
  6
BYLAYER
 70
0
 71
3
 72
11
 73
7
 74
0
 42
0.0000001
 43
0.0000001
 44
0.0000000001
 40
0.0
 40
0.0
 40
0.0
 40
0.0
 40
0.3051791123
 40
0.5804992079
 40
0.8144176707
 40
1.0
 40
1.0
 40
1.0
 40
1.0
 10
108.5123225004
 20
125.3107206853
 30
0.0
 10
108.4005532056
 20
125.3218058911
 30
0.0
 10
108.1883322694
 20
125.3469762567
 30
0.0
 10
107.892471262
 20
125.3961565644
 30
0.0
 10
107.6433535469
 20
125.4544880492
 30
0.0
 10
107.4962621733
 20
125.5030025604
 30
0.0
 10
107.4335286767
 20
125.5300135821
 30
0.0
  0
SPLINE
  5
36C
100
AcDbEntity
  8
0
100
AcDbSpline
 62
7
  6
BYLAYER
 70
0
 71
3
 72
11
 73
7
 74
0
 42
0.0000001
 43
0.0000001
 44
0.0000000001
 40
0.0
 40
0.0
 40
0.0
 40
0.0
 40
0.2502642706
 40
0.5004096076
 40
0.7504201668
 40
1.0
 40
1.0
 40
1.0
 40
1.0
 10
108.2718373166
 20
122.1352267581
 30
0.0
 10
108.1274707624
 20
122.3927314919
 30
0.0
 10
107.8709010408
 20
122.9264897545
 30
0.0
 10
107.5961857187
 20
123.7708068445
 30
0.0
 10
107.441530982
 20
124.6444699576
 30
0.0
 10
107.4223014205
 20
125.235822665
 30
0.0
 10
107.4335284608
 20
125.5300136018
 30
0.0
  0
SPLINE
  5
36D
100
AcDbEntity
  8
0
100
AcDbSpline
 62
7
  6
BYLAYER
 70
0
 71
3
 72
12
 73
8
 74
0
 42
0.0000001
 43
0.0000001
 44
0.0000000001
 40
0.0
 40
0.0
 40
0.0
 40
0.0
 40
0.3348382756
 40
0.4723235306
 40
0.6311218426
 40
0.8084747155
 40
1.0
 40
1.0
 40
1.0
 40
1.0
 10
102.0603976217
 20
119.2732404693
 30
0.0
 10
101.9956152113
 20
119.2732431743
 30
0.0
 10
101.9231258206
 20
119.3643965709
 30
0.0
 10
101.8732268859
 20
119.4714574893
 30
0.0
 10
101.841592638
 20
119.5585378216
 30
0.0
 10
101.8147330929
 20
119.6568221608
 30
0.0
 10
101.800085717
 20
119.726785971
 30
0.0
 10
101.7934652668
 20
119.7632448646
 30
0.0
  0
SPLINE
  5
36E
100
AcDbEntity
  8
0
100
AcDbSpline
 62
7
  6
BYLAYER
 70
0
 71
3
 72
13
 73
9
 74
0
 42
0.0000001
 43
0.0000001
 44
0.0000000001
 40
0.0
 40
0.0
 40
0.0
 40
0.0
 40
0.1118131546
 40
0.2300284819
 40
0.4822735855
 40
0.6142155271
 40
0.7464469675
 40
1.0
 40
1.0
 40
1.0
 40
1.0
 10
100.5946541355
 20
119.2750317993
 30
0.0
 10
100.5462261525
 20
119.2783998792
 30
0.0
 10
100.4469748327
 20
119.295006856
 30
0.0
 10
100.2501880983
 20
119.3696661162
 30
0.0
 10
100.0731376425
 20
119.5079110259
 30
0.0
 10
99.9403398643
 20
119.6896188693
 30
0.0
 10
99.8392690745
 20
119.8913591246
 30
0.0
 10
99.8016285079
 20
120.05806497
 30
0.0
 10
99.7932402913
 20
120.1678278752
 30
0.0
  0
SPLINE
  5
36F
100
AcDbEntity
  8
0
100
AcDbSpline
 62
7
  6
BYLAYER
 70
0
 71
3
 72
10
 73
6
 74
0
 42
0.0000001
 43
0.0000001
 44
0.0000000001
 40
0.0
 40
0.0
 40
0.0
 40
0.0
 40
0.5215163957
 40
0.768700473
 40
1.0
 40
1.0
 40
1.0
 40
1.0
 10
102.0826126817
 20
125.5300136018
 30
0.0
 10
102.1384027175
 20
124.8787790389
 30
0.0
 10
102.190052047
 20
123.9159142708
 30
0.0
 10
102.2007378264
 20
122.6625508688
 30
0.0
 10
102.1869168857
 20
122.0628732818
 30
0.0
 10
102.1747272399
 20
121.7732404692
 30
0.0
  0
SPLINE
  5
370
100
AcDbEntity
  8
0
100
AcDbSpline
 62
7
  6
BYLAYER
 70
0
 71
3
 72
13
 73
9
 74
0
 42
0.0000001
 43
0.0000001
 44
0.0000000001
 40
0.0
 40
0.0
 40
0.0
 40
0.0
 40
0.2261260596
 40
0.3498590426
 40
0.4788568788
 40
0.6113054237
 40
0.7445076449
 40
1.0
 40
1.0
 40
1.0
 40
1.0
 10
100.5893224042
 20
119.2732462253
 30
0.0
 10
100.4873072264
 20
119.2732447055
 30
0.0
 10
100.3272811978
 20
119.3068621016
 30
0.0
 10
100.1383292035
 20
119.4136971448
 30
0.0
 10
100.0055822375
 20
119.5277440809
 30
0.0
 10
99.8957762219
 20
119.6693104111
 30
0.0
 10
99.7860736556
 20
119.8782670882
 30
0.0
 10
99.7453328999
 20
120.0528987336
 30
0.0
 10
99.7365498888
 20
120.1678271916
 30
0.0
  0
SPLINE
  5
371
100
AcDbEntity
  8
0
100
AcDbSpline
 62
7
  6
BYLAYER
 70
0
 71
3
 72
11
 73
7
 74
0
 42
0.0000001
 43
0.0000001
 44
0.0000000001
 40
0.0
 40
0.0
 40
0.0
 40
0.0
 40
0.2231846057
 40
0.4689651881
 40
0.7311169501
 40
1.0
 40
1.0
 40
1.0
 40
1.0
 10
100.6808499175
 20
122.9114358548
 30
0.0
 10
100.7572327061
 20
122.7920206813
 30
0.0
 10
100.9451581701
 20
122.5582796186
 30
0.0
 10
101.2938434713
 20
122.2488195964
 30
0.0
 10
101.7102182316
 20
121.9810279083
 30
0.0
 10
102.0160353103
 20
121.8363484247
 30
0.0
 10
102.174726896
 20
121.7732403878
 30
0.0
  0
SPLINE
  5
372
100
AcDbEntity
  8
0
100
AcDbSpline
 62
7
  6
BYLAYER
 70
0
 71
3
 72
11
 73
7
 74
0
 42
0.0000001
 43
0.0000001
 44
0.0000000001
 40
0.0
 40
0.0
 40
0.0
 40
0.0
 40
0.2500994343
 40
0.5002230152
 40
0.7502317275
 40
1.0
 40
1.0
 40
1.0
 40
1.0
 10
98.305927193
 20
155.0732679787
 30
0.0
 10
98.4465509471
 20
153.593511854
 30
0.0
 10
98.6877915607
 20
150.6300695556
 30
0.0
 10
98.9890327303
 20
146.1813734784
 30
0.0
 10
99.2705052077
 20
141.7333653566
 30
0.0
 10
99.464642131
 20
138.7693596484
 30
0.0
 10
99.5682253875
 20
137.2885232472
 30
0.0
  0
SPLINE
  5
373
100
AcDbEntity
  8
0
100
AcDbSpline
 62
7
  6
BYLAYER
 70
0
 71
3
 72
9
 73
5
 74
0
 42
0.0000001
 43
0.0000001
 44
0.0000000001
 40
0.0
 40
0.0
 40
0.0
 40
0.0
 40
0.4285138826
 40
1.0
 40
1.0
 40
1.0
 40
1.0
 10
100.9112553673
 20
125.3098137363
 30
0.0
 10
101.0787784607
 20
125.3401354391
 30
0.0
 10
101.469336153
 20
125.4129953837
 30
0.0
 10
101.8596237945
 20
125.487266577
 30
0.0
 10
102.0826102891
 20
125.5300132203
 30
0.0
  0
SPLINE
  5
374
100
AcDbEntity
  8
0
100
AcDbSpline
 62
7
  6
BYLAYER
 70
0
 71
3
 72
9
 73
5
 74
0
 42
0.0000001
 43
0.0000001
 44
0.0000000001
 40
0.0
 40
0.0
 40
0.0
 40
0.0
 40
0.5000634507
 40
1.0
 40
1.0
 40
1.0
 40
1.0
 10
99.568756222
 20
137.2835820715
 30
0.0
 10
99.7793589738
 20
135.2862569156
 30
0.0
 10
100.2138876598
 20
131.2935159009
 30
0.0
 10
100.6739125028
 20
127.3036270808
 30
0.0
 10
100.9112911341
 20
125.309820246
 30
0.0
  0
SPLINE
  5
375
100
AcDbEntity
  8
0
100
AcDbSpline
 62
7
  6
BYLAYER
 70
0
 71
3
 72
11
 73
7
 74
0
 42
0.0000001
 43
0.0000001
 44
0.0000000001
 40
0.0
 40
0.0
 40
0.0
 40
0.0
 40
0.2505753956
 40
0.5009257231
 40
0.7508084114
 40
1.0
 40
1.0
 40
1.0
 40
1.0
 10
98.3059299267
 20
155.0732404692
 30
0.0
 10
98.3827122431
 20
153.5929370274
 30
0.0
 10
98.4790535436
 20
150.6307060068
 30
0.0
 10
98.5309172366
 20
146.1894900182
 30
0.0
 10
98.5430145536
 20
141.7562343213
 30
0.0
 10
98.5575106855
 20
138.803935928
 30
0.0
 10
98.5740288331
 20
137.3299210426
 30
0.0
  0
SPLINE
  5
376
100
AcDbEntity
  8
0
100
AcDbSpline
 62
7
  6
BYLAYER
 70
0
 71
3
 72
10
 73
6
 74
0
 42
0.0000001
 43
0.0000001
 44
0.0000000001
 40
0.0
 40
0.0
 40
0.0
 40
0.0
 40
0.2498592115
 40
0.4998160733
 40
1.0
 40
1.0
 40
1.0
 40
1.0
 10
108.5123903904
 20
125.3107139893
 30
0.0
 10
108.5463935499
 20
126.3113090811
 30
0.0
 10
108.6072353031
 20
128.313139507
 30
0.0
 10
108.7051307874
 20
132.3189038189
 30
0.0
 10
108.7515991328
 20
135.3244155043
 30
0.0
 10
108.7705460816
 20
137.3285365706
 30
0.0
  0
SPLINE
  5
377
100
AcDbEntity
  8
0
100
AcDbSpline
 62
7
  6
BYLAYER
 70
0
 71
3
 72
14
 73
10
 74
0
 42
0.0000001
 43
0.0000001
 44
0.0000000001
 40
0.0
 40
0.0
 40
0.0
 40
0.0
 40
0.0945403865
 40
0.197235494
 40
0.3108006924
 40
0.4357438493
 40
0.5710289326
 40
0.7132608732
 40
1.0
 40
1.0
 40
1.0
 40
1.0
 10
99.9104956633
 20
119.2732574249
 30
0.0
 10
99.8749274617
 20
119.2732554266
 30
0.0
 10
99.800427448
 20
119.2831538425
 30
0.0
 10
99.6910433249
 20
119.3277312631
 30
0.0
 10
99.5864595705
 20
119.4040433656
 30
0.0
 10
99.491321494
 20
119.5087586232
 30
0.0
 10
99.4112459173
 20
119.6381252281
 30
0.0
 10
99.3270734412
 20
119.8335976891
 30
0.0
 10
99.2932929734
 20
119.9935169485
 30
0.0
 10
99.2823301807
 20
120.1008361237
 30
0.0
  0
SPLINE
  5
378
100
AcDbEntity
  8
0
100
AcDbSpline
 62
7
  6
BYLAYER
 70
0
 71
3
 72
21
 73
17
 74
0
 42
0.0000001
 43
0.0000001
 44
0.0000000001
 40
0.0
 40
0.0
 40
0.0
 40
0.0
 40
0.1944123681
 40
0.384309049
 40
0.5609636392
 40
0.7155356983
 40
0.7818779136
 40
0.8400227379
 40
0.8895106074
 40
0.929882963
 40
0.9608169086
 40
0.9825284357
 40
0.9900399434
 40
0.9953888938
 40
0.9986443891
 40
1.0
 40
1.0
 40
1.0
 40
1.0
 10
98.0447614834
 20
120.0183064944
 30
0.0
 10
98.044963802
 20
119.969983276
 30
0.0
 10
98.0454955746
 20
119.8744597707
 30
0.0
 10
98.046700719
 20
119.7350300531
 30
0.0
 10
98.0483282508
 20
119.6055083621
 30
0.0
 10
98.0500437489
 20
119.5067013495
 30
0.0
 10
98.0516541414
 20
119.43735691
 30
0.0
 10
98.0528631541
 20
119.3941282388
 30
0.0
 10
98.0541151488
 20
119.3573657981
 30
0.0
 10
98.0553910571
 20
119.3273535563
 30
0.0
 10
98.0566735821
 20
119.3043025064
 30
0.0
 10
98.0578329313
 20
119.2893214239
 30
0.0
 10
98.058792167
 20
119.2808736975
 30
0.0
 10
98.0594626247
 20
119.276767963
 30
0.0
 10
98.0599651142
 20
119.2746269473
 30
0.0
 10
98.0605570952
 20
119.2732596895
 30
0.0
 10
98.0608940489
 20
119.2732602781
 30
0.0
  0
SPLINE
  5
379
100
AcDbEntity
  8
0
100
AcDbSpline
 62
7
  6
BYLAYER
 70
0
 71
3
 72
11
 73
7
 74
0
 42
0.0000001
 43
0.0000001
 44
0.0000000001
 40
0.0
 40
0.0
 40
0.0
 40
0.0
 40
0.2497616542
 40
0.4997995633
 40
0.7499193586
 40
1.0
 40
1.0
 40
1.0
 40
1.0
 10
108.3311261318
 20
155.0737489721
 30
0.0
 10
108.3242941855
 20
153.5960722375
 30
0.0
 10
108.3296156629
 20
150.6389390216
 30
0.0
 10
108.4066063395
 20
146.2025928568
 30
0.0
 10
108.5518337641
 20
141.7661008345
 30
0.0
 10
108.6903308975
 20
138.8098317166
 30
0.0
 10
108.7706883832
 20
137.3324356891
 30
0.0
  0
SPLINE
  5
37A
100
AcDbEntity
  8
0
100
AcDbSpline
 62
7
  6
BYLAYER
 70
0
 71
3
 72
9
 73
5
 74
0
 42
0.0000001
 43
0.0000001
 44
0.0000000001
 40
0.0
 40
0.0
 40
0.0
 40
0.0
 40
0.5005479761
 40
1.0
 40
1.0
 40
1.0
 40
1.0
 10
109.3922267426
 20
137.3741024199
 30
0.0
 10
109.7091117291
 20
134.7645972606
 30
0.0
 10
110.4905571518
 20
129.5682744486
 30
0.0
 10
111.5581403995
 20
124.4234579837
 30
0.0
 10
112.1579781774
 20
121.8700480335
 30
0.0
  0
SPLINE
  5
37B
100
AcDbEntity
  8
0
100
AcDbSpline
 62
7
  6
BYLAYER
 70
0
 71
3
 72
10
 73
6
 74
0
 42
0.0000001
 43
0.0000001
 44
0.0000000001
 40
0.0
 40
0.0
 40
0.0
 40
0.0
 40
0.2501452324
 40
0.5002339946
 40
1.0
 40
1.0
 40
1.0
 40
1.0
 10
108.3311235918
 20
155.0732408053
 30
0.0
 10
108.3273582714
 20
153.5940116885
 30
0.0
 10
108.3663805147
 20
150.6355036648
 30
0.0
 10
108.6313569531
 20
144.7273068882
 30
0.0
 10
109.0359854301
 20
140.3079205066
 30
0.0
 10
109.3922259791
 20
137.3741033015
 30
0.0
  0
SPLINE
  5
37C
100
AcDbEntity
  8
0
100
AcDbSpline
 62
7
  6
BYLAYER
 70
0
 71
3
 72
11
 73
7
 74
0
 42
0.0000001
 43
0.0000001
 44
0.0000000001
 40
0.0
 40
0.0
 40
0.0
 40
0.0
 40
0.2497286126
 40
0.4998194835
 40
0.749943559
 40
1.0
 40
1.0
 40
1.0
 40
1.0
 10
107.433531384
 20
125.5300126624
 30
0.0
 10
107.5745153094
 20
127.9865936761
 30
0.0
 10
107.8136083417
 20
132.9058434932
 30
0.0
 10
108.0721877099
 20
140.2908061237
 30
0.0
 10
108.2511672655
 20
147.6813389333
 30
0.0
 10
108.3149499451
 20
152.6094404774
 30
0.0
 10
108.3311262765
 20
155.0732407724
 30
0.0
  0
SPLINE
  5
37D
100
AcDbEntity
  8
0
100
AcDbSpline
 62
7
  6
BYLAYER
 70
0
 71
3
 72
11
 73
7
 74
0
 42
0.0000001
 43
0.0000001
 44
0.0000000001
 40
0.0
 40
0.0
 40
0.0
 40
0.0
 40
0.2503359351
 40
0.5005091438
 40
0.7504721598
 40
1.0
 40
1.0
 40
1.0
 40
1.0
 10
98.3059307434
 20
155.0732405758
 30
0.0
 10
98.6386435757
 20
152.6102940367
 30
0.0
 10
99.2960655911
 20
147.6849278788
 30
0.0
 10
100.2341519765
 20
140.2935438215
 30
0.0
 10
101.1439794553
 20
132.906755548
 30
0.0
 10
101.7654214036
 20
127.9869180668
 30
0.0
 10
102.0826093511
 20
125.5300131668
 30
0.0
  0
ENDSEC
  0
SECTION
  2
OBJECTS
  0
DICTIONARY
  5
C
100
AcDbDictionary
280
0
281
1
  3
ACAD_GROUP
350
D
  3
ACAD_MLINESTYLE
350
17
  3
ACAD_LAYOUT
350
1A
  3
ACAD_PLOTSETTINGS
350
19
  3
ACAD_PLOTSTYLENAME
350
E
  0
DICTIONARY
  5
D
102
{ACAD_REACTORS
330
C
102
}
100
AcDbDictionary
280
0
281
1
  0
ACDBDICTIONARYWDFLT
  5
E
102
{ACAD_REACTORS
330
C
102
}
100
AcDbDictionary
281
1
  3
Normal
350
F
100
AcDbDictionaryWithDefault
340
F
  0
DICTIONARY
  5
17
102
{ACAD_REACTORS
330
C
102
}
100
AcDbDictionary
280
0
281
1
  3
Standard
350
18
  0
DICTIONARY
  5
19
102
{ACAD_REACTORS
330
C
102
}
100
AcDbDictionary
281
1
  0
DICTIONARY
  5
1A
102
{ACAD_REACTORS
330
C
102
}
100
AcDbDictionary
281
1
  3
Model
350
37E
  3
Layout1
350
37F
  0
ACDBPLACEHOLDER
  5
F
102
{ACAD_REACTORS
330
E
102
}
  0
MLINESTYLE
  5
18
102
{ACAD_REACTORS
330
17
102
}
100
AcDbMlineStyle
  2
STANDARD
 70
0
  3

 62
256
 51
90.0
 52
90.0
 71
2
 49
0.5
 62
256
  6
BYLAYER
 49
-0.5
 62
256
  6
BYLAYER
  0
LAYOUT
  5
37E
102
{ACAD_REACTORS
330
1A
102
}
100
AcDbPlotSettings
  1

  2
none_device
  4

  6

 40
0.0
 41
0.0
 42
0.0
 43
0.0
 44
210.0
 45
297.0
 46
0.0
 47
0.0
 48
0.0
 49
0.0
140
0.0
141
0.0
142
1.0
143
1.0
 70
1024
 72
1
 73
0
 74
0
  7

 75
0
147
1.0
148
0.0
149
0.0
100
AcDbLayout
  1
Model
 70
0
 71
0
 10
0.0
 20
0.0
 11
210.0
 21
297.0
 12
0.0
 22
0.0
 32
0.0
 14
0.0
 24
0.0
 34
0.0
 15
0.0
 25
0.0
 35
0.0
146
0.0
 13
0.0
 23
0.0
 33
0.0
 16
1.0
 26
0.0
 36
0.0
 17
0.0
 27
1.0
 37
0.0
 76
0
330
210
345
0
346
0
  0
LAYOUT
  5
37F
102
{ACAD_REACTORS
330
1A
102
}
100
AcDbPlotSettings
  1

  2
none_device
  4

  6

 40
0.0
 41
0.0
 42
0.0
 43
0.0
 44
210.0
 45
297.0
 46
0.0
 47
0.0
 48
0.0
 49
0.0
140
0.0
141
0.0
142
1.0
143
1.0
 70
0
 72
1
 73
0
 74
0
  7

 75
0
147
1.0
148
0.0
149
0.0
100
AcDbLayout
  1
Layout1
 70
0
 71
1
 10
0.0
 20
0.0
 11
210.0
 21
297.0
 12
0.0
 22
0.0
 32
0.0
 14
0.0
 24
0.0
 34
0.0
 15
0.0
 25
0.0
 35
0.0
146
0.0
 13
0.0
 23
0.0
 33
0.0
 16
1.0
 26
0.0
 36
0.0
 17
0.0
 27
1.0
 37
0.0
 76
0
330
211
345
0
346
0
  0
ENDSEC
  0
EOF
