999
DXF file: C:\Users\sesa63760\Dev\_Creo\CAD\MCADID0003614_3D-CAD\drw0001_2.dxf
999
Pro/ENGINEER 2019471 by Parametric Technology Corporation
  0
SECTION
  2
HEADER
  9
$ACADVER
  1
AC1024
  9
$DWGCODEPAGE
  3
ANSI_1252
  9
$EXTMAX
 10
179.9733720649
 20
254.5337690632
 30
0.0
  9
$EXTMIN
 10
0.0
 20
0.0
 30
0.0
  9
$LIMMIN
 10
0.0
 20
0.0
  9
$LIMMAX
 10
179.9733720649
 20
254.5337690632
  9
$VIEWCTR
 10
89.9866860324
 20
127.2668845316
  9
$VIEWSIZE
 40
254.5337690632
  9
$CLAYER
  8
0
  9
$LTSCALE
 40
16.5918308723
  9
$CELTYPE
  6
BYLAYER
  9
$DIMSCALE
 40
1.0
  9
$DIMASZ
 40
2.1425401436
  9
$DIMEXO
 40
1.0
  9
$DIMDLI
 40
11.4634467845
  9
$DIMEXE
 40
1.0
  9
$DIMCEN
 40
2.71502687
  9
$DIMLFAC
 40
1.0
  9
$DIMBLK
  1
_FILLED
  9
$DIMALT
 70
0
  9
$DIMALTF
 40
0.0393700787
  9
$DIMTXT
 40
2.9995562011
  9
$DIMTOL
 70
1
  9
$DIMLIM
 70
0
  9
$DIMTFAC
 40
1.0
  9
$DIMTP
 40
0.01
  9
$DIMTM
 40
0.01
  9
$DIMGAP
 40
0.625
  9
$DIMDSEP
 70
46
  9
$AUNITS
 70
0
  9
$PDMODE
 70
3
  9
$PDSIZE
 40
0.3125
  9
$HANDSEED
  5
28F
  9
$TILEMODE
 70
1
  9
$MEASUREMENT
 70
1
  9
$INSUNITS
 70
4
  0
ENDSEC
  0
SECTION
  2
CLASSES
  0
CLASS
  1
ACDBDICTIONARYWDFLT
  2
AcDbDictionaryWithDefault
  3
AutoCAD 2000
 90
0
 91
1
280
0
281
0
  0
CLASS
  1
ACDBPLACEHOLDER
  2
AcDbPlaceHolder
  3
AutoCAD 2000
 90
0
 91
1
280
0
281
0
  0
CLASS
  1
LAYOUT
  2
AcDbLayout
  3
AutoCAD 2000
 90
0
 91
0
280
0
281
0
  0
ENDSEC
  0
SECTION
  2
TABLES
  0
TABLE
  2
VPORT
  5
8
100
AcDbSymbolTable
 70
2
  0
VPORT
  5
1F4
100
AcDbSymbolTableRecord
100
AcDbViewportTableRecord
  2
*ACTIVE
 70
0
 10
0.0
 20
0.0
 11
1.0
 21
1.0
 12
89.9866860324
 22
127.2668845316
 13
0.0
 23
0.0
 14
1.0
 24
1.0
 15
0.0
 25
0.0
 16
0.0
 26
0.0
 36
1.0
 17
0.0
 27
0.0
 37
0.0
 40
254.5337690632
 41
0.7070707071
 42
50.0
 43
0.0
 44
0.0
 50
0.0
 51
0.0
 71
0
 72
100
 73
1
 74
1
 75
0
 76
0
 77
0
 78
0
  0
ENDTAB
  0
TABLE
  2
LTYPE
  5
5
100
AcDbSymbolTable
 70
6
  0
LTYPE
  5
14
100
AcDbSymbolTableRecord
100
AcDbLinetypeTableRecord
  2
BYBLOCK
 70
0
  3

 72
65
 73
0
 40
0.0
  0
LTYPE
  5
15
100
AcDbSymbolTableRecord
100
AcDbLinetypeTableRecord
  2
BYLAYER
 70
0
  3

 72
65
 73
0
 40
0.0
  0
LTYPE
  5
16
100
AcDbSymbolTableRecord
100
AcDbLinetypeTableRecord
  2
CONTINUOUS
 70
64
  3
Solid line
 72
65
 73
0
 40
0.0
  0
LTYPE
  5
1F5
100
AcDbSymbolTableRecord
100
AcDbLinetypeTableRecord
  2
CENTER
 70
64
  3
____ _ ____ _ ____ _ ____ _ ____ _ ____ _ ____
 72
65
 73
4
 40
0.6
 49
0.375
 74
0
 49
-0.075
 74
0
 49
0.075
 74
0
 49
-0.075
 74
0
  0
LTYPE
  5
1F6
100
AcDbSymbolTableRecord
100
AcDbLinetypeTableRecord
  2
HIDDEN
 70
64
  3
- - - - - - - - - - - - - - - - - - - -
 72
65
 73
2
 40
0.2
 49
0.1
 74
0
 49
-0.1
 74
0
  0
LTYPE
  5
1F7
100
AcDbSymbolTableRecord
100
AcDbLinetypeTableRecord
  2
PHANTOM
 70
64
  3
_____ _ _ _____ _ _ _____ _ _ _____
 72
65
 73
6
 40
0.8
 49
0.45
 74
0
 49
-0.05
 74
0
 49
0.1
 74
0
 49
-0.05
 74
0
 49
0.1
 74
0
 49
-0.05
 74
0
  0
LTYPE
  5
1F8
100
AcDbSymbolTableRecord
100
AcDbLinetypeTableRecord
  2
DOT
 70
64
  3
. . . . . . . . . . . . . . . . . . . .
 72
65
 73
2
 40
0.2
 49
0.1
 74
0
 49
-0.1
 74
0
  0
LTYPE
  5
1F9
100
AcDbSymbolTableRecord
100
AcDbLinetypeTableRecord
  2
DASHED
 70
64
  3
- - - - - - - - - - - - - - - - - - - -
 72
65
 73
2
 40
0.2
 49
0.1
 74
0
 49
-0.1
 74
0
  0
ENDTAB
  0
TABLE
  2
LAYER
  5
2
100
AcDbSymbolTable
 70
36
  0
LAYER
  5
10
100
AcDbSymbolTableRecord
100
AcDbLayerTableRecord
  2
0
 70
0
 62
7
  6
CONTINUOUS
370
-3
390
F
  0
LAYER
  5
1FA
100
AcDbSymbolTableRecord
100
AcDbLayerTableRecord
  2
DEFAULT_1
 70
0
 62
7
  6
CENTER
370
-3
390
F
  0
LAYER
  5
1FB
100
AcDbSymbolTableRecord
100
AcDbLayerTableRecord
  2
DEFAULT_2
 70
0
 62
7
  6
HIDDEN
370
-3
390
F
  0
LAYER
  5
1FC
100
AcDbSymbolTableRecord
100
AcDbLayerTableRecord
  2
DEFAULT_3
 70
0
 62
7
  6
PHANTOM
370
-3
390
F
  0
LAYER
  5
1FD
100
AcDbSymbolTableRecord
100
AcDbLayerTableRecord
  2
00_COMPONENTS
 70
0
 62
7
  6
CONTINUOUS
370
-3
390
F
  0
LAYER
  5
1FE
100
AcDbSymbolTableRecord
100
AcDbLayerTableRecord
  2
01_1_DEFAULT_DATUMS
 70
0
 62
7
  6
CONTINUOUS
370
-3
390
F
  0
LAYER
  5
1FF
100
AcDbSymbolTableRecord
100
AcDbLayerTableRecord
  2
01_PLANES
 70
0
 62
7
  6
CONTINUOUS
370
-3
390
F
  0
LAYER
  5
200
100
AcDbSymbolTableRecord
100
AcDbLayerTableRecord
  2
02_COORD_SYS
 70
0
 62
7
  6
CONTINUOUS
370
-3
390
F
  0
LAYER
  5
201
100
AcDbSymbolTableRecord
100
AcDbLayerTableRecord
  2
03_AXES
 70
0
 62
7
  6
CONTINUOUS
370
-3
390
F
  0
LAYER
  5
202
100
AcDbSymbolTableRecord
100
AcDbLayerTableRecord
  2
04_POINTS
 70
0
 62
7
  6
CONTINUOUS
370
-3
390
F
  0
LAYER
  5
203
100
AcDbSymbolTableRecord
100
AcDbLayerTableRecord
  2
05_CURVES
 70
0
 62
7
  6
CONTINUOUS
370
-3
390
F
  0
LAYER
  5
204
100
AcDbSymbolTableRecord
100
AcDbLayerTableRecord
  2
06_SURFS
 70
0
 62
7
  6
CONTINUOUS
370
-3
390
F
  0
LAYER
  5
205
100
AcDbSymbolTableRecord
100
AcDbLayerTableRecord
  2
07_COSMETICS
 70
0
 62
7
  6
CONTINUOUS
370
-3
390
F
  0
LAYER
  5
206
100
AcDbSymbolTableRecord
100
AcDbLayerTableRecord
  2
10_NOTES
 70
0
 62
7
  6
CONTINUOUS
370
-3
390
F
  0
LAYER
  5
207
100
AcDbSymbolTableRecord
100
AcDbLayerTableRecord
  2
11_NOTES_PUB
 70
0
 62
7
  6
CONTINUOUS
370
-3
390
F
  0
LAYER
  5
208
100
AcDbSymbolTableRecord
100
AcDbLayerTableRecord
  2
13_REF_GTOL
 70
0
 62
7
  6
CONTINUOUS
370
-3
390
F
  0
LAYER
  5
209
100
AcDbSymbolTableRecord
100
AcDbLayerTableRecord
  2
16_MISC
 70
0
 62
7
  6
CONTINUOUS
370
-3
390
F
  0
LAYER
  5
20A
100
AcDbSymbolTableRecord
100
AcDbLayerTableRecord
  2
17_NO_PRINT
 70
0
 62
7
  6
CONTINUOUS
370
-3
390
F
  0
LAYER
  5
20B
100
AcDbSymbolTableRecord
100
AcDbLayerTableRecord
  2
18_DATUM_CAMS_JOINTS
 70
0
 62
7
  6
CONTINUOUS
370
-3
390
F
  0
LAYER
  5
20C
100
AcDbSymbolTableRecord
100
AcDbLayerTableRecord
  2
19_DATUM_FUNCTIONAL
 70
0
 62
7
  6
CONTINUOUS
370
-3
390
F
  0
LAYER
  5
20D
100
AcDbSymbolTableRecord
100
AcDbLayerTableRecord
  2
20_DATUM_KINEMATIC_SCHEME
 70
0
 62
7
  6
CONTINUOUS
370
-3
390
F
  0
ENDTAB
  0
TABLE
  2
STYLE
  5
3
100
AcDbSymbolTable
 70
1
  0
STYLE
  5
11
100
AcDbSymbolTableRecord
100
AcDbTextStyleTableRecord
  2
STANDARD
 70
0
 40
0.0
 41
1.0
 50
0.0
 71
0
 42
0.2
  3
ARIAL.TTF
  4

  0
STYLE
  5
20E
100
AcDbSymbolTableRecord
100
AcDbTextStyleTableRecord
  2
TEXTSTYLE_1
 70
0
 40
0.0
 41
0.8
 50
0.0
 71
0
 42
0.2
  3
gdt
  4

  0
ENDTAB
  0
TABLE
  2
VIEW
  5
6
100
AcDbSymbolTable
 70
0
  0
ENDTAB
  0
TABLE
  2
UCS
  5
7
100
AcDbSymbolTable
 70
0
  0
ENDTAB
  0
TABLE
  2
APPID
  5
9
100
AcDbSymbolTable
 70
1
  0
APPID
  5
20F
100
AcDbSymbolTableRecord
100
AcDbRegAppTableRecord
  2
ACAD
 70
0
  0
ENDTAB
  0
TABLE
  2
BLOCK_RECORD
  5
1
100
AcDbSymbolTable
 70
0
  0
BLOCK_RECORD
  5
210
100
AcDbSymbolTableRecord
100
AcDbBlockTableRecord
  2
*Model_Space
  0
BLOCK_RECORD
  5
211
100
AcDbSymbolTableRecord
100
AcDbBlockTableRecord
  2
*Paper_Space
  0
BLOCK_RECORD
  5
212
100
AcDbSymbolTableRecord
100
AcDbBlockTableRecord
  2
_FILLED
  0
ENDTAB
  0
TABLE
  2
DIMSTYLE
  5
A
100
AcDbSymbolTable
 70
1
100
AcDbDimStyleTable
 71
0
  0
DIMSTYLE
105
213
100
AcDbSymbolTableRecord
100
AcDbDimStyleTableRecord
  2
STANDARD
 70
0
  3

  4

 40
1.0
 41
2.1425401436
 42
1.0
 43
0.38
 44
1.0
 45
0.0
 46
0.0
 47
0.01
 48
0.01
140
2.9995562011
141
0.09
142
0.0
143
25.4
144
1.0
145
0.0
146
1.0
147
0.625
 71
1
 72
0
 73
0
 74
0
 75
0
 76
0
 77
1
 78
8
 79
2
170
0
171
1
172
0
173
0
174
0
175
0
176
0
177
0
178
0
270
2
179
2
271
2
272
2
273
2
274
2
275
0
280
0
281
0
282
0
283
1
284
8
285
0
286
0
287
3
288
0
340
11
278
46
341
212
342
212
343
212
344
212
  0
ENDTAB
  0
ENDSEC
  0
SECTION
  2
BLOCKS
  0
BLOCK
  5
20
100
AcDbEntity
  8
0
100
AcDbBlockBegin
  2
*Model_Space
 70
0
 10
0.0
 20
0.0
 30
0.0
  3
*Model_Space
  1

  0
ENDBLK
  5
21
100
AcDbEntity
  8
0
100
AcDbBlockEnd
  0
BLOCK
  5
1C
100
AcDbEntity
  8
0
100
AcDbBlockBegin
  2
*Paper_Space
 70
0
 10
0.0
 20
0.0
 30
0.0
  3
*Paper_Space
  1

  0
ENDBLK
  5
1D
100
AcDbEntity
  8
0
100
AcDbBlockEnd
  0
BLOCK
  5
214
100
AcDbEntity
  8
0
100
AcDbBlockBegin
  2
_FILLED
 70
64
 10
0.0
 20
0.0
  3
_FILLED
  1

  0
SOLID
  5
215
100
AcDbEntity
  8
0
  6
BYBLOCK
 62
0
100
AcDbTrace
 10
0.0
 20
0.0
 11
-1.0
 21
0.25
 12
-1.0
 22
-0.25
 13
-1.0
 23
-0.25
  0
ENDBLK
  5
216
100
AcDbEntity
  8
0
  6
BYBLOCK
 62
0
100
AcDbBlockEnd
  0
ENDSEC
  0
SECTION
  2
ENTITIES
  0
LINE
  5
217
100
AcDbEntity
  8
0
100
AcDbLine
 62
7
  6
BYLAYER
 10
19.7328733963
 20
111.7996915814
 11
19.7328733963
 21
141.7994369589
  0
LINE
  5
218
100
AcDbEntity
  8
0
100
AcDbLine
 62
7
  6
BYLAYER
 10
32.7328733963
 20
141.7994369589
 11
32.7328733963
 21
111.7996915814
  0
LINE
  5
219
100
AcDbEntity
  8
0
100
AcDbLine
 62
7
  6
BYLAYER
 10
47.2328733963
 20
112.6114392702
 11
47.2328733963
 21
140.9876892702
  0
LINE
  5
21A
100
AcDbEntity
  8
0
100
AcDbLine
 62
7
  6
BYLAYER
 10
49.2328733963
 20
140.9876892702
 11
49.2328733963
 21
112.6114392702
  0
LINE
  5
21B
100
AcDbEntity
  8
0
100
AcDbLine
 62
7
  6
BYLAYER
 10
50.0447483963
 20
111.7995642702
 11
50.0447483963
 21
141.7995642702
  0
LINE
  5
21C
100
AcDbEntity
  8
0
100
AcDbLine
 62
7
  6
BYLAYER
 10
57.8405685509
 20
147.584173961
 11
56.2328733963
 21
144.7995642702
  0
LINE
  5
21D
100
AcDbEntity
  8
0
100
AcDbLine
 62
7
  6
BYLAYER
 10
50.0447483963
 20
141.7995642702
 11
49.2328733963
 21
140.9876892702
  0
LINE
  5
21E
100
AcDbEntity
  8
0
100
AcDbLine
 62
7
  6
BYLAYER
 10
49.2328733963
 20
112.6114392702
 11
50.0447483963
 21
111.7995642702
  0
LINE
  5
21F
100
AcDbEntity
  8
0
100
AcDbLine
 62
7
  6
BYLAYER
 10
56.2328733963
 20
108.7995642702
 11
57.8405685509
 21
106.0149545793
  0
LINE
  5
220
100
AcDbEntity
  8
0
100
AcDbLine
 62
7
  6
BYLAYER
 10
56.2328733963
 20
108.7995642702
 11
56.2328733963
 21
144.7995642702
  0
LINE
  5
221
100
AcDbEntity
  8
0
100
AcDbLine
 62
7
  6
BYLAYER
 10
67.8405685509
 20
147.584173961
 11
66.2328733963
 21
144.7995642702
  0
LINE
  5
222
100
AcDbEntity
  8
0
100
AcDbLine
 62
7
  6
BYLAYER
 10
66.2328733963
 20
108.7995642702
 11
67.8405685509
 21
106.0149545793
  0
LINE
  5
223
100
AcDbEntity
  8
0
100
AcDbLine
 62
7
  6
BYLAYER
 10
63.7328733963
 20
144.7995642702
 11
63.7328733963
 21
108.7995642702
  0
LINE
  5
224
100
AcDbEntity
  8
0
100
AcDbLine
 62
7
  6
BYLAYER
 10
66.2328733963
 20
108.7995642702
 11
66.2328733963
 21
144.7995642702
  0
LINE
  5
225
100
AcDbEntity
  8
0
100
AcDbLine
 62
7
  6
BYLAYER
 10
57.8405685509
 20
106.0149545793
 11
62.1251782417
 21
106.0149545793
  0
LINE
  5
226
100
AcDbEntity
  8
0
100
AcDbLine
 62
7
  6
BYLAYER
 10
67.8405685509
 20
106.0149545793
 11
72.1251782417
 21
106.0149545793
  0
LINE
  5
227
100
AcDbEntity
  8
0
100
AcDbLine
 62
7
  6
BYLAYER
 10
73.7328733963
 20
144.7995642702
 11
73.7328733963
 21
108.7995642702
  0
LINE
  5
228
100
AcDbEntity
  8
0
100
AcDbLine
 62
7
  6
BYLAYER
 10
62.1251782417
 20
106.0149545793
 11
63.7328733963
 21
108.7995642702
  0
LINE
  5
229
100
AcDbEntity
  8
0
100
AcDbLine
 62
7
  6
BYLAYER
 10
152.1078733963
 20
109.7155642702
 11
145.8578733963
 21
109.7155642702
  0
LINE
  5
22A
100
AcDbEntity
  8
0
100
AcDbLine
 62
7
  6
BYLAYER
 10
144.2953733963
 20
110.5845642702
 11
139.1391233963
 21
110.5845642702
  0
LINE
  5
22B
100
AcDbEntity
  8
0
100
AcDbLine
 62
7
  6
BYLAYER
 10
161.4828733963
 20
111.6905642702
 11
152.1078733963
 21
111.6905642702
  0
LINE
  5
22C
100
AcDbEntity
  8
0
100
AcDbLine
 62
7
  6
BYLAYER
 10
134.4516233963
 20
111.6905642702
 11
129.4516233963
 21
111.6905642702
  0
LINE
  5
22D
100
AcDbEntity
  8
0
100
AcDbLine
 62
7
  6
BYLAYER
 10
127.4984983963
 20
111.6905642702
 11
125.5453733963
 21
111.6905642702
  0
LINE
  5
22E
100
AcDbEntity
  8
0
100
AcDbLine
 62
7
  6
BYLAYER
 10
123.5922483963
 20
111.6905642702
 11
121.6391233963
 21
111.6905642702
  0
LINE
  5
22F
100
AcDbEntity
  8
0
100
AcDbLine
 62
7
  6
BYLAYER
 10
32.7328733963
 20
111.7995642702
 11
19.7328733963
 21
111.7995642702
  0
LINE
  5
230
100
AcDbEntity
  8
0
100
AcDbLine
 62
7
  6
BYLAYER
 10
50.0447483963
 20
111.7995642702
 11
56.2328733963
 21
111.7995642702
  0
LINE
  5
231
100
AcDbEntity
  8
0
100
AcDbLine
 62
7
  6
BYLAYER
 10
63.7328733963
 20
111.7995642702
 11
66.2328733963
 21
111.7995642702
  0
LINE
  5
232
100
AcDbEntity
  8
0
100
AcDbLine
 62
7
  6
BYLAYER
 10
73.7328733963
 20
111.7995642702
 11
80.4209983963
 21
111.7995642702
  0
LINE
  5
233
100
AcDbEntity
  8
0
100
AcDbLine
 62
7
  6
BYLAYER
 10
162.7328733963
 20
112.3225642702
 11
161.4828733963
 21
112.3225642702
  0
LINE
  5
234
100
AcDbEntity
  8
0
100
AcDbLine
 62
7
  6
BYLAYER
 10
145.8578733963
 20
112.4805642702
 11
144.2953733963
 21
112.4805642702
  0
LINE
  5
235
100
AcDbEntity
  8
0
100
AcDbLine
 62
7
  6
BYLAYER
 10
63.7328733963
 20
144.7995642702
 11
62.1251782417
 21
147.584173961
  0
LINE
  5
236
100
AcDbEntity
  8
0
100
AcDbLine
 62
7
  6
BYLAYER
 10
80.4209983963
 20
141.7995642702
 11
80.4209983963
 21
111.7995642702
  0
LINE
  5
237
100
AcDbEntity
  8
0
100
AcDbLine
 62
7
  6
BYLAYER
 10
81.2328733963
 20
112.6114392702
 11
81.2328733963
 21
140.9876892702
  0
LINE
  5
238
100
AcDbEntity
  8
0
100
AcDbLine
 62
7
  6
BYLAYER
 10
117.7328733963
 20
122.4345642702
 11
119.6859983963
 21
122.9085642702
  0
LINE
  5
239
100
AcDbEntity
  8
0
100
AcDbLine
 62
7
  6
BYLAYER
 10
134.4516233963
 20
122.9085642702
 11
139.1391233963
 21
124.0145642702
  0
LINE
  5
23A
100
AcDbEntity
  8
0
100
AcDbLine
 62
7
  6
BYLAYER
 10
47.2328733963
 20
112.6114392702
 11
49.2328733963
 21
112.6114392702
  0
LINE
  5
23B
100
AcDbEntity
  8
0
100
AcDbLine
 62
7
  6
BYLAYER
 10
81.2328733963
 20
112.6114392702
 11
87.7328733963
 21
112.6114392702
  0
LINE
  5
23C
100
AcDbEntity
  8
0
100
AcDbLine
 62
7
  6
BYLAYER
 10
129.4516233963
 20
112.9545642702
 11
127.4984983963
 21
112.9545642702
  0
LINE
  5
23D
100
AcDbEntity
  8
0
100
AcDbLine
 62
7
  6
BYLAYER
 10
125.5453733963
 20
112.9545642702
 11
123.5922483963
 21
112.9545642702
  0
LINE
  5
23E
100
AcDbEntity
  8
0
100
AcDbLine
 62
7
  6
BYLAYER
 10
121.6391233963
 20
112.9545642702
 11
119.6859983963
 21
112.9545642702
  0
LINE
  5
23F
100
AcDbEntity
  8
0
100
AcDbLine
 62
7
  6
BYLAYER
 10
101.7328733963
 20
114.1495642702
 11
87.7328733963
 21
114.1495642702
  0
LINE
  5
240
100
AcDbEntity
  8
0
100
AcDbLine
 62
7
  6
BYLAYER
 10
117.7328733963
 20
114.5995642702
 11
112.3571546826
 21
114.5995642702
  0
LINE
  5
241
100
AcDbEntity
  8
0
100
AcDbLine
 62
7
  6
BYLAYER
 10
108.3571546826
 20
114.5995642702
 11
101.7328733963
 21
114.5995642702
  0
LINE
  5
242
100
AcDbEntity
  8
0
100
AcDbLine
 62
7
  6
BYLAYER
 10
57.8405685509
 20
116.4072594247
 11
62.1251782417
 21
116.4072594247
  0
LINE
  5
243
100
AcDbEntity
  8
0
100
AcDbLine
 62
7
  6
BYLAYER
 10
67.8405685509
 20
116.4072594247
 11
72.1251782417
 21
116.4072594247
  0
LINE
  5
244
100
AcDbEntity
  8
0
100
AcDbLine
 62
7
  6
BYLAYER
 10
72.1251782417
 20
106.0149545793
 11
73.7328733963
 21
108.7995642702
  0
LINE
  5
245
100
AcDbEntity
  8
0
100
AcDbLine
 62
7
  6
BYLAYER
 10
117.7328733963
 20
119.9995642702
 11
115.1085921099
 21
119.9995642702
  0
LINE
  5
246
100
AcDbEntity
  8
0
100
AcDbLine
 62
7
  6
BYLAYER
 10
111.1085921099
 20
119.9995642702
 11
101.7328733963
 21
119.9995642702
  0
LINE
  5
247
100
AcDbEntity
  8
0
100
AcDbLine
 62
7
  6
BYLAYER
 10
101.7328733963
 20
120.4495642702
 11
87.7328733963
 21
120.4495642702
  0
LINE
  5
248
100
AcDbEntity
  8
0
100
AcDbLine
 62
7
  6
BYLAYER
 10
119.6859983963
 20
121.6445642702
 11
121.6391233963
 21
121.6445642702
  0
LINE
  5
249
100
AcDbEntity
  8
0
100
AcDbLine
 62
7
  6
BYLAYER
 10
123.5922483963
 20
121.6445642702
 11
125.5453733963
 21
121.6445642702
  0
LINE
  5
24A
100
AcDbEntity
  8
0
100
AcDbLine
 62
7
  6
BYLAYER
 10
127.4984983963
 20
121.6445642702
 11
129.4516233963
 21
121.6445642702
  0
LINE
  5
24B
100
AcDbEntity
  8
0
100
AcDbLine
 62
7
  6
BYLAYER
 10
144.2953733963
 20
122.1185642702
 11
145.8578733963
 21
122.1185642702
  0
LINE
  5
24C
100
AcDbEntity
  8
0
100
AcDbLine
 62
7
  6
BYLAYER
 10
161.4828733963
 20
122.2765642702
 11
162.7328733963
 21
122.2765642702
  0
LINE
  5
24D
100
AcDbEntity
  8
0
100
AcDbLine
 62
7
  6
BYLAYER
 10
139.1391233963
 20
110.5845642702
 11
134.4516233963
 21
111.6905642702
  0
LINE
  5
24E
100
AcDbEntity
  8
0
100
AcDbLine
 62
7
  6
BYLAYER
 10
119.6859983963
 20
111.6905642702
 11
117.7328733963
 21
112.1645642702
  0
LINE
  5
24F
100
AcDbEntity
  8
0
100
AcDbLine
 62
7
  6
BYLAYER
 10
73.7328733963
 20
144.7995642702
 11
72.1251782417
 21
147.584173961
  0
LINE
  5
250
100
AcDbEntity
  8
0
100
AcDbLine
 62
7
  6
BYLAYER
 10
87.7328733963
 20
140.9876892702
 11
87.7328733963
 21
112.6114392702
  0
LINE
  5
251
100
AcDbEntity
  8
0
100
AcDbLine
 62
7
  6
BYLAYER
 10
121.6391233963
 20
122.9085642702
 11
123.5922483963
 21
122.9085642702
  0
LINE
  5
252
100
AcDbEntity
  8
0
100
AcDbLine
 62
7
  6
BYLAYER
 10
125.5453733963
 20
122.9085642702
 11
127.4984983963
 21
122.9085642702
  0
LINE
  5
253
100
AcDbEntity
  8
0
100
AcDbLine
 62
7
  6
BYLAYER
 10
129.4516233963
 20
122.9085642702
 11
134.4516233963
 21
122.9085642702
  0
LINE
  5
254
100
AcDbEntity
  8
0
100
AcDbLine
 62
7
  6
BYLAYER
 10
152.1078733963
 20
122.9085642702
 11
161.4828733963
 21
122.9085642702
  0
LINE
  5
255
100
AcDbEntity
  8
0
100
AcDbLine
 62
7
  6
BYLAYER
 10
139.1391233963
 20
124.0145642702
 11
144.2953733963
 21
124.0145642702
  0
LINE
  5
256
100
AcDbEntity
  8
0
100
AcDbLine
 62
7
  6
BYLAYER
 10
145.8578733963
 20
124.8835642702
 11
152.1078733963
 21
124.8835642702
  0
LINE
  5
257
100
AcDbEntity
  8
0
100
AcDbLine
 62
7
  6
BYLAYER
 10
80.4209983963
 20
111.7995642702
 11
81.2328733963
 21
112.6114392702
  0
LINE
  5
258
100
AcDbEntity
  8
0
100
AcDbLine
 62
7
  6
BYLAYER
 10
81.2328733963
 20
140.9876892702
 11
80.4209983963
 21
141.7995642702
  0
LINE
  5
259
100
AcDbEntity
  8
0
100
AcDbLine
 62
7
  6
BYLAYER
 10
101.7328733963
 20
120.449554712
 11
101.7328733963
 21
114.1495738283
  0
LINE
  5
25A
100
AcDbEntity
  8
0
100
AcDbLine
 62
7
  6
BYLAYER
 10
57.8405685509
 20
137.1918691156
 11
62.1251782417
 21
137.1918691156
  0
LINE
  5
25B
100
AcDbEntity
  8
0
100
AcDbLine
 62
7
  6
BYLAYER
 10
67.8405685509
 20
137.1918691156
 11
72.1251782417
 21
137.1918691156
  0
LINE
  5
25C
100
AcDbEntity
  8
0
100
AcDbLine
 62
7
  6
BYLAYER
 10
87.7328733963
 20
140.9876892702
 11
81.2328733963
 21
140.9876892702
  0
LINE
  5
25D
100
AcDbEntity
  8
0
100
AcDbLine
 62
7
  6
BYLAYER
 10
49.2328733963
 20
140.9876892702
 11
47.2328733963
 21
140.9876892702
  0
LINE
  5
25E
100
AcDbEntity
  8
0
100
AcDbLine
 62
7
  6
BYLAYER
 10
80.4209983963
 20
141.7995642702
 11
73.7328733963
 21
141.7995642702
  0
LINE
  5
25F
100
AcDbEntity
  8
0
100
AcDbLine
 62
7
  6
BYLAYER
 10
66.2328733963
 20
141.7995642702
 11
63.7328733963
 21
141.7995642702
  0
LINE
  5
260
100
AcDbEntity
  8
0
100
AcDbLine
 62
7
  6
BYLAYER
 10
56.2328733963
 20
141.7995642702
 11
50.0447483963
 21
141.7995642702
  0
LINE
  5
261
100
AcDbEntity
  8
0
100
AcDbLine
 62
7
  6
BYLAYER
 10
32.7328733963
 20
141.7995642702
 11
19.7328733963
 21
141.7995642702
  0
LINE
  5
262
100
AcDbEntity
  8
0
100
AcDbLine
 62
7
  6
BYLAYER
 10
111.1085681553
 20
119.9995172566
 11
108.3571546826
 21
114.5995642702
  0
LINE
  5
263
100
AcDbEntity
  8
0
100
AcDbLine
 62
7
  6
BYLAYER
 10
112.3571546826
 20
114.5995642702
 11
115.108544163
 21
119.9994701691
  0
LINE
  5
264
100
AcDbEntity
  8
0
100
AcDbLine
 62
7
  6
BYLAYER
 10
57.8405685509
 20
147.584173961
 11
62.1251782417
 21
147.584173961
  0
LINE
  5
265
100
AcDbEntity
  8
0
100
AcDbLine
 62
7
  6
BYLAYER
 10
67.8405685509
 20
147.584173961
 11
72.1251782417
 21
147.584173961
  0
LINE
  5
266
100
AcDbEntity
  8
0
100
AcDbLine
 62
7
  6
BYLAYER
 10
117.7328733963
 20
112.1645642702
 11
117.7328733963
 21
122.4345642702
  0
LINE
  5
267
100
AcDbEntity
  8
0
100
AcDbLine
 62
7
  6
BYLAYER
 10
119.6859983963
 20
122.9085642702
 11
119.6859983963
 21
111.6905642702
  0
LINE
  5
268
100
AcDbEntity
  8
0
100
AcDbLine
 62
7
  6
BYLAYER
 10
121.6391233963
 20
111.6905642702
 11
121.6391233963
 21
122.9085642702
  0
LINE
  5
269
100
AcDbEntity
  8
0
100
AcDbLine
 62
7
  6
BYLAYER
 10
123.5922483963
 20
122.9085642702
 11
123.5922483963
 21
111.6905642702
  0
LINE
  5
26A
100
AcDbEntity
  8
0
100
AcDbLine
 62
7
  6
BYLAYER
 10
125.5453733963
 20
111.6905642702
 11
125.5453733963
 21
122.9085642702
  0
LINE
  5
26B
100
AcDbEntity
  8
0
100
AcDbLine
 62
7
  6
BYLAYER
 10
127.4984983963
 20
122.9085642702
 11
127.4984983963
 21
111.6905642702
  0
LINE
  5
26C
100
AcDbEntity
  8
0
100
AcDbLine
 62
7
  6
BYLAYER
 10
129.4516233963
 20
111.6905642702
 11
129.4516233963
 21
122.9085642702
  0
LINE
  5
26D
100
AcDbEntity
  8
0
100
AcDbLine
 62
7
  6
BYLAYER
 10
134.4516233963
 20
122.9085642702
 11
134.4516233963
 21
111.6905642702
  0
LINE
  5
26E
100
AcDbEntity
  8
0
100
AcDbLine
 62
7
  6
BYLAYER
 10
139.1391233963
 20
110.5845642702
 11
139.1391233963
 21
124.0145642702
  0
LINE
  5
26F
100
AcDbEntity
  8
0
100
AcDbLine
 62
7
  6
BYLAYER
 10
144.2953733963
 20
124.0145642702
 11
144.2953733963
 21
110.5845642702
  0
LINE
  5
270
100
AcDbEntity
  8
0
100
AcDbLine
 62
7
  6
BYLAYER
 10
145.8578733963
 20
109.7155642702
 11
145.8578733963
 21
124.8835642702
  0
LINE
  5
271
100
AcDbEntity
  8
0
100
AcDbLine
 62
7
  6
BYLAYER
 10
152.1078733963
 20
124.8835642702
 11
152.1078733963
 21
109.7155642702
  0
LINE
  5
272
100
AcDbEntity
  8
0
100
AcDbLine
 62
7
  6
BYLAYER
 10
161.4828733963
 20
122.9085642702
 11
161.4828733963
 21
111.6905642702
  0
LINE
  5
273
100
AcDbEntity
  8
0
100
AcDbLine
 62
7
  6
BYLAYER
 10
162.7328733963
 20
122.2765642702
 11
162.7328733963
 21
112.3225642702
  0
ARC
  5
274
100
AcDbEntity
  8
0
100
AcDbCircle
 62
7
  6
BYLAYER
 10
87.7328733963
 20
132.2995642702
 40
1.5
100
AcDbArc
 50
270.0
 51
90.0
  0
SPLINE
  5
275
100
AcDbEntity
  8
0
100
AcDbSpline
 62
7
  6
BYLAYER
 70
0
 71
3
 72
11
 73
7
 74
0
 42
0.0000001
 43
0.0000001
 44
0.0000000001
 40
0.0
 40
0.0
 40
0.0
 40
0.0
 40
0.2404023363
 40
0.4855036392
 40
0.738350063
 40
1.0
 40
1.0
 40
1.0
 40
1.0
 10
63.7328733963
 20
111.211107002
 30
0.0
 10
63.7328733963
 20
110.770410221
 30
0.0
 10
63.6562833906
 20
109.8787191311
 30
0.0
 10
63.3240402102
 20
108.5617467101
 30
0.0
 10
62.8056275126
 20
107.2658927028
 30
0.0
 10
62.3650017948
 20
106.4303411583
 30
0.0
 10
62.1251782417
 20
106.0149545793
 30
0.0
  0
SPLINE
  5
276
100
AcDbEntity
  8
0
100
AcDbSpline
 62
7
  6
BYLAYER
 70
0
 71
3
 72
11
 73
7
 74
0
 42
0.0000001
 43
0.0000001
 44
0.0000000001
 40
0.0
 40
0.0
 40
0.0
 40
0.0
 40
0.261649994
 40
0.5144964844
 40
0.7595977791
 40
1.0
 40
1.0
 40
1.0
 40
1.0
 10
57.8405685509
 20
137.1918691156
 30
0.0
 10
57.6007449484
 20
137.6072557798
 30
0.0
 10
57.1601198287
 20
138.4428078727
 30
0.0
 10
56.6417065219
 20
139.7386618044
 30
0.0
 10
56.3094632547
 20
141.0556341178
 30
0.0
 10
56.2328733963
 20
141.9473249745
 30
0.0
 10
56.2328733963
 20
142.3880215383
 30
0.0
  0
SPLINE
  5
277
100
AcDbEntity
  8
0
100
AcDbSpline
 62
7
  6
BYLAYER
 70
0
 71
3
 72
11
 73
7
 74
0
 42
0.0000001
 43
0.0000001
 44
0.0000000001
 40
0.0
 40
0.0
 40
0.0
 40
0.0
 40
0.2499908913
 40
0.4999851166
 40
0.7499878191
 40
1.0
 40
1.0
 40
1.0
 40
1.0
 10
63.7328733963
 20
126.7995642702
 30
0.0
 10
63.7328733963
 20
125.9204882813
 30
0.0
 10
63.658123251
 20
124.1614476598
 30
0.0
 10
63.3306800175
 20
121.5420429424
 30
0.0
 10
62.8159665697
 20
118.9534511261
 30
0.0
 10
62.3690108167
 20
117.2519202418
 30
0.0
 10
62.1251782417
 20
116.4072594247
 30
0.0
  0
SPLINE
  5
278
100
AcDbEntity
  8
0
100
AcDbSpline
 62
7
  6
BYLAYER
 70
0
 71
3
 72
11
 73
7
 74
0
 42
0.0000001
 43
0.0000001
 44
0.0000000001
 40
0.0
 40
0.0
 40
0.0
 40
0.0
 40
0.261649994
 40
0.5144964844
 40
0.7595977791
 40
1.0
 40
1.0
 40
1.0
 40
1.0
 10
62.1251782417
 20
116.4072594247
 30
0.0
 10
62.3650018441
 20
115.9918727605
 30
0.0
 10
62.8056269639
 20
115.1563206676
 30
0.0
 10
63.3240402707
 20
113.8604667359
 30
0.0
 10
63.6562835378
 20
112.5434944225
 30
0.0
 10
63.7328733963
 20
111.6518035658
 30
0.0
 10
63.7328733963
 20
111.211107002
 30
0.0
  0
SPLINE
  5
279
100
AcDbEntity
  8
0
100
AcDbSpline
 62
7
  6
BYLAYER
 70
0
 71
3
 72
11
 73
7
 74
0
 42
0.0000001
 43
0.0000001
 44
0.0000000001
 40
0.0
 40
0.0
 40
0.0
 40
0.0
 40
0.2404023363
 40
0.4855036392
 40
0.738350063
 40
1.0
 40
1.0
 40
1.0
 40
1.0
 10
63.7328733963
 20
142.3880215383
 30
0.0
 10
63.7328733963
 20
141.9473247572
 30
0.0
 10
63.6562833906
 20
141.0556336673
 30
0.0
 10
63.3240402102
 20
139.7386612463
 30
0.0
 10
62.8056275126
 20
138.4428072391
 30
0.0
 10
62.3650017948
 20
137.6072556945
 30
0.0
 10
62.1251782417
 20
137.1918691156
 30
0.0
  0
SPLINE
  5
27A
100
AcDbEntity
  8
0
100
AcDbSpline
 62
7
  6
BYLAYER
 70
0
 71
3
 72
11
 73
7
 74
0
 42
0.0000001
 43
0.0000001
 44
0.0000000001
 40
0.0
 40
0.0
 40
0.0
 40
0.0
 40
0.2500122644
 40
0.5000150193
 40
0.7500092299
 40
1.0
 40
1.0
 40
1.0
 40
1.0
 10
62.1251782417
 20
137.1918691156
 30
0.0
 10
62.3690108973
 20
136.3472080196
 30
0.0
 10
62.8159659391
 20
134.6456764667
 30
0.0
 10
63.3306801087
 20
132.0570843946
 30
0.0
 10
63.658123393
 20
129.4376799667
 30
0.0
 10
63.7328733963
 20
127.6786398292
 30
0.0
 10
63.7328733963
 20
126.7995642702
 30
0.0
  0
SPLINE
  5
27B
100
AcDbEntity
  8
0
100
AcDbSpline
 62
7
  6
BYLAYER
 70
0
 71
3
 72
11
 73
7
 74
0
 42
0.0000001
 43
0.0000001
 44
0.0000000001
 40
0.0
 40
0.0
 40
0.0
 40
0.0
 40
0.261649994
 40
0.5144964844
 40
0.7595977791
 40
1.0
 40
1.0
 40
1.0
 40
1.0
 10
57.8405685509
 20
106.0149545793
 30
0.0
 10
57.6007449484
 20
106.4303412436
 30
0.0
 10
57.1601198287
 20
107.2658933365
 30
0.0
 10
56.6417065219
 20
108.5617472681
 30
0.0
 10
56.3094632547
 20
109.8787195816
 30
0.0
 10
56.2328733963
 20
110.7704104382
 30
0.0
 10
56.2328733963
 20
111.211107002
 30
0.0
  0
SPLINE
  5
27C
100
AcDbEntity
  8
0
100
AcDbSpline
 62
7
  6
BYLAYER
 70
0
 71
3
 72
11
 73
7
 74
0
 42
0.0000001
 43
0.0000001
 44
0.0000000001
 40
0.0
 40
0.0
 40
0.0
 40
0.0
 40
0.261649994
 40
0.5144964844
 40
0.7595977791
 40
1.0
 40
1.0
 40
1.0
 40
1.0
 10
62.1251782417
 20
147.584173961
 30
0.0
 10
62.3650018441
 20
147.1687872967
 30
0.0
 10
62.8056269639
 20
146.3332352038
 30
0.0
 10
63.3240402707
 20
145.0373812722
 30
0.0
 10
63.6562835378
 20
143.7204089587
 30
0.0
 10
63.7328733963
 20
142.8287181021
 30
0.0
 10
63.7328733963
 20
142.3880215383
 30
0.0
  0
SPLINE
  5
27D
100
AcDbEntity
  8
0
100
AcDbSpline
 62
7
  6
BYLAYER
 70
0
 71
3
 72
11
 73
7
 74
0
 42
0.0000001
 43
0.0000001
 44
0.0000000001
 40
0.0
 40
0.0
 40
0.0
 40
0.0
 40
0.2499908913
 40
0.4999851166
 40
0.7499878191
 40
1.0
 40
1.0
 40
1.0
 40
1.0
 10
56.2328733963
 20
126.7995642702
 30
0.0
 10
56.2328733963
 20
127.678640259
 30
0.0
 10
56.3076235415
 20
129.4376808805
 30
0.0
 10
56.6350667751
 20
132.057085598
 30
0.0
 10
57.1497802228
 20
134.6456774142
 30
0.0
 10
57.5967359758
 20
136.3472082985
 30
0.0
 10
57.8405685509
 20
137.1918691156
 30
0.0
  0
SPLINE
  5
27E
100
AcDbEntity
  8
0
100
AcDbSpline
 62
7
  6
BYLAYER
 70
0
 71
3
 72
11
 73
7
 74
0
 42
0.0000001
 43
0.0000001
 44
0.0000000001
 40
0.0
 40
0.0
 40
0.0
 40
0.0
 40
0.2500122644
 40
0.5000150193
 40
0.7500092299
 40
1.0
 40
1.0
 40
1.0
 40
1.0
 10
57.8405685509
 20
116.4072594247
 30
0.0
 10
57.5967358953
 20
117.2519205207
 30
0.0
 10
57.1497808535
 20
118.9534520736
 30
0.0
 10
56.6350666839
 20
121.5420441457
 30
0.0
 10
56.3076233995
 20
124.1614485736
 30
0.0
 10
56.2328733963
 20
125.9204887111
 30
0.0
 10
56.2328733963
 20
126.7995642702
 30
0.0
  0
SPLINE
  5
27F
100
AcDbEntity
  8
0
100
AcDbSpline
 62
7
  6
BYLAYER
 70
0
 71
3
 72
11
 73
7
 74
0
 42
0.0000001
 43
0.0000001
 44
0.0000000001
 40
0.0
 40
0.0
 40
0.0
 40
0.0
 40
0.2404023363
 40
0.4855036392
 40
0.738350063
 40
1.0
 40
1.0
 40
1.0
 40
1.0
 10
56.2328733963
 20
142.3880215383
 30
0.0
 10
56.2328733963
 20
142.8287183193
 30
0.0
 10
56.3094634019
 20
143.7204094092
 30
0.0
 10
56.6417065823
 20
145.0373818302
 30
0.0
 10
57.16011928
 20
146.3332358375
 30
0.0
 10
57.6007449977
 20
147.168787382
 30
0.0
 10
57.8405685509
 20
147.584173961
 30
0.0
  0
SPLINE
  5
280
100
AcDbEntity
  8
0
100
AcDbSpline
 62
7
  6
BYLAYER
 70
0
 71
3
 72
11
 73
7
 74
0
 42
0.0000001
 43
0.0000001
 44
0.0000000001
 40
0.0
 40
0.0
 40
0.0
 40
0.0
 40
0.2404023363
 40
0.4855036392
 40
0.738350063
 40
1.0
 40
1.0
 40
1.0
 40
1.0
 10
56.2328733963
 20
111.211107002
 30
0.0
 10
56.2328733963
 20
111.6518037831
 30
0.0
 10
56.3094634019
 20
112.543494873
 30
0.0
 10
56.6417065823
 20
113.860467294
 30
0.0
 10
57.16011928
 20
115.1563213012
 30
0.0
 10
57.6007449977
 20
115.9918728458
 30
0.0
 10
57.8405685509
 20
116.4072594247
 30
0.0
  0
SPLINE
  5
281
100
AcDbEntity
  8
0
100
AcDbSpline
 62
7
  6
BYLAYER
 70
0
 71
3
 72
11
 73
7
 74
0
 42
0.0000001
 43
0.0000001
 44
0.0000000001
 40
0.0
 40
0.0
 40
0.0
 40
0.0
 40
0.2404023363
 40
0.4855036392
 40
0.738350063
 40
1.0
 40
1.0
 40
1.0
 40
1.0
 10
73.7328733963
 20
111.211107002
 30
0.0
 10
73.7328733963
 20
110.770410221
 30
0.0
 10
73.6562833906
 20
109.8787191311
 30
0.0
 10
73.3240402102
 20
108.5617467101
 30
0.0
 10
72.8056275126
 20
107.2658927028
 30
0.0
 10
72.3650017948
 20
106.4303411583
 30
0.0
 10
72.1251782417
 20
106.0149545793
 30
0.0
  0
SPLINE
  5
282
100
AcDbEntity
  8
0
100
AcDbSpline
 62
7
  6
BYLAYER
 70
0
 71
3
 72
11
 73
7
 74
0
 42
0.0000001
 43
0.0000001
 44
0.0000000001
 40
0.0
 40
0.0
 40
0.0
 40
0.0
 40
0.261649994
 40
0.5144964844
 40
0.7595977791
 40
1.0
 40
1.0
 40
1.0
 40
1.0
 10
67.8405685509
 20
137.1918691156
 30
0.0
 10
67.6007449484
 20
137.6072557798
 30
0.0
 10
67.1601198287
 20
138.4428078727
 30
0.0
 10
66.6417065219
 20
139.7386618044
 30
0.0
 10
66.3094632547
 20
141.0556341178
 30
0.0
 10
66.2328733963
 20
141.9473249745
 30
0.0
 10
66.2328733963
 20
142.3880215383
 30
0.0
  0
SPLINE
  5
283
100
AcDbEntity
  8
0
100
AcDbSpline
 62
7
  6
BYLAYER
 70
0
 71
3
 72
11
 73
7
 74
0
 42
0.0000001
 43
0.0000001
 44
0.0000000001
 40
0.0
 40
0.0
 40
0.0
 40
0.0
 40
0.2499908913
 40
0.4999851166
 40
0.7499878191
 40
1.0
 40
1.0
 40
1.0
 40
1.0
 10
73.7328733963
 20
126.7995642702
 30
0.0
 10
73.7328733963
 20
125.9204882813
 30
0.0
 10
73.658123251
 20
124.1614476598
 30
0.0
 10
73.3306800175
 20
121.5420429424
 30
0.0
 10
72.8159665697
 20
118.9534511261
 30
0.0
 10
72.3690108167
 20
117.2519202418
 30
0.0
 10
72.1251782417
 20
116.4072594247
 30
0.0
  0
SPLINE
  5
284
100
AcDbEntity
  8
0
100
AcDbSpline
 62
7
  6
BYLAYER
 70
0
 71
3
 72
11
 73
7
 74
0
 42
0.0000001
 43
0.0000001
 44
0.0000000001
 40
0.0
 40
0.0
 40
0.0
 40
0.0
 40
0.261649994
 40
0.5144964844
 40
0.7595977791
 40
1.0
 40
1.0
 40
1.0
 40
1.0
 10
72.1251782417
 20
116.4072594247
 30
0.0
 10
72.3650018441
 20
115.9918727605
 30
0.0
 10
72.8056269639
 20
115.1563206676
 30
0.0
 10
73.3240402707
 20
113.8604667359
 30
0.0
 10
73.6562835378
 20
112.5434944225
 30
0.0
 10
73.7328733963
 20
111.6518035658
 30
0.0
 10
73.7328733963
 20
111.211107002
 30
0.0
  0
SPLINE
  5
285
100
AcDbEntity
  8
0
100
AcDbSpline
 62
7
  6
BYLAYER
 70
0
 71
3
 72
11
 73
7
 74
0
 42
0.0000001
 43
0.0000001
 44
0.0000000001
 40
0.0
 40
0.0
 40
0.0
 40
0.0
 40
0.2404023363
 40
0.4855036392
 40
0.738350063
 40
1.0
 40
1.0
 40
1.0
 40
1.0
 10
73.7328733963
 20
142.3880215383
 30
0.0
 10
73.7328733963
 20
141.9473247572
 30
0.0
 10
73.6562833906
 20
141.0556336673
 30
0.0
 10
73.3240402102
 20
139.7386612463
 30
0.0
 10
72.8056275126
 20
138.4428072391
 30
0.0
 10
72.3650017948
 20
137.6072556945
 30
0.0
 10
72.1251782417
 20
137.1918691156
 30
0.0
  0
SPLINE
  5
286
100
AcDbEntity
  8
0
100
AcDbSpline
 62
7
  6
BYLAYER
 70
0
 71
3
 72
11
 73
7
 74
0
 42
0.0000001
 43
0.0000001
 44
0.0000000001
 40
0.0
 40
0.0
 40
0.0
 40
0.0
 40
0.2500122644
 40
0.5000150193
 40
0.7500092299
 40
1.0
 40
1.0
 40
1.0
 40
1.0
 10
72.1251782417
 20
137.1918691156
 30
0.0
 10
72.3690108973
 20
136.3472080196
 30
0.0
 10
72.8159659391
 20
134.6456764667
 30
0.0
 10
73.3306801087
 20
132.0570843946
 30
0.0
 10
73.658123393
 20
129.4376799667
 30
0.0
 10
73.7328733963
 20
127.6786398292
 30
0.0
 10
73.7328733963
 20
126.7995642702
 30
0.0
  0
SPLINE
  5
287
100
AcDbEntity
  8
0
100
AcDbSpline
 62
7
  6
BYLAYER
 70
0
 71
3
 72
11
 73
7
 74
0
 42
0.0000001
 43
0.0000001
 44
0.0000000001
 40
0.0
 40
0.0
 40
0.0
 40
0.0
 40
0.261649994
 40
0.5144964844
 40
0.7595977791
 40
1.0
 40
1.0
 40
1.0
 40
1.0
 10
67.8405685509
 20
106.0149545793
 30
0.0
 10
67.6007449484
 20
106.4303412436
 30
0.0
 10
67.1601198287
 20
107.2658933365
 30
0.0
 10
66.6417065219
 20
108.5617472681
 30
0.0
 10
66.3094632547
 20
109.8787195816
 30
0.0
 10
66.2328733963
 20
110.7704104382
 30
0.0
 10
66.2328733963
 20
111.211107002
 30
0.0
  0
SPLINE
  5
288
100
AcDbEntity
  8
0
100
AcDbSpline
 62
7
  6
BYLAYER
 70
0
 71
3
 72
11
 73
7
 74
0
 42
0.0000001
 43
0.0000001
 44
0.0000000001
 40
0.0
 40
0.0
 40
0.0
 40
0.0
 40
0.261649994
 40
0.5144964844
 40
0.7595977791
 40
1.0
 40
1.0
 40
1.0
 40
1.0
 10
72.1251782417
 20
147.584173961
 30
0.0
 10
72.3650018441
 20
147.1687872967
 30
0.0
 10
72.8056269639
 20
146.3332352038
 30
0.0
 10
73.3240402707
 20
145.0373812722
 30
0.0
 10
73.6562835378
 20
143.7204089587
 30
0.0
 10
73.7328733963
 20
142.8287181021
 30
0.0
 10
73.7328733963
 20
142.3880215383
 30
0.0
  0
SPLINE
  5
289
100
AcDbEntity
  8
0
100
AcDbSpline
 62
7
  6
BYLAYER
 70
0
 71
3
 72
11
 73
7
 74
0
 42
0.0000001
 43
0.0000001
 44
0.0000000001
 40
0.0
 40
0.0
 40
0.0
 40
0.0
 40
0.2499908913
 40
0.4999851166
 40
0.7499878191
 40
1.0
 40
1.0
 40
1.0
 40
1.0
 10
66.2328733963
 20
126.7995642702
 30
0.0
 10
66.2328733963
 20
127.678640259
 30
0.0
 10
66.3076235415
 20
129.4376808805
 30
0.0
 10
66.6350667751
 20
132.057085598
 30
0.0
 10
67.1497802228
 20
134.6456774142
 30
0.0
 10
67.5967359758
 20
136.3472082985
 30
0.0
 10
67.8405685509
 20
137.1918691156
 30
0.0
  0
SPLINE
  5
28A
100
AcDbEntity
  8
0
100
AcDbSpline
 62
7
  6
BYLAYER
 70
0
 71
3
 72
11
 73
7
 74
0
 42
0.0000001
 43
0.0000001
 44
0.0000000001
 40
0.0
 40
0.0
 40
0.0
 40
0.0
 40
0.2500122644
 40
0.5000150193
 40
0.7500092299
 40
1.0
 40
1.0
 40
1.0
 40
1.0
 10
67.8405685509
 20
116.4072594247
 30
0.0
 10
67.5967358953
 20
117.2519205207
 30
0.0
 10
67.1497808535
 20
118.9534520736
 30
0.0
 10
66.6350666839
 20
121.5420441457
 30
0.0
 10
66.3076233995
 20
124.1614485736
 30
0.0
 10
66.2328733963
 20
125.9204887111
 30
0.0
 10
66.2328733963
 20
126.7995642702
 30
0.0
  0
SPLINE
  5
28B
100
AcDbEntity
  8
0
100
AcDbSpline
 62
7
  6
BYLAYER
 70
0
 71
3
 72
11
 73
7
 74
0
 42
0.0000001
 43
0.0000001
 44
0.0000000001
 40
0.0
 40
0.0
 40
0.0
 40
0.0
 40
0.2404023363
 40
0.4855036392
 40
0.738350063
 40
1.0
 40
1.0
 40
1.0
 40
1.0
 10
66.2328733963
 20
142.3880215383
 30
0.0
 10
66.2328733963
 20
142.8287183193
 30
0.0
 10
66.3094634019
 20
143.7204094092
 30
0.0
 10
66.6417065823
 20
145.0373818302
 30
0.0
 10
67.16011928
 20
146.3332358375
 30
0.0
 10
67.6007449977
 20
147.168787382
 30
0.0
 10
67.8405685509
 20
147.584173961
 30
0.0
  0
SPLINE
  5
28C
100
AcDbEntity
  8
0
100
AcDbSpline
 62
7
  6
BYLAYER
 70
0
 71
3
 72
11
 73
7
 74
0
 42
0.0000001
 43
0.0000001
 44
0.0000000001
 40
0.0
 40
0.0
 40
0.0
 40
0.0
 40
0.2404023363
 40
0.4855036392
 40
0.738350063
 40
1.0
 40
1.0
 40
1.0
 40
1.0
 10
66.2328733963
 20
111.211107002
 30
0.0
 10
66.2328733963
 20
111.6518037831
 30
0.0
 10
66.3094634019
 20
112.543494873
 30
0.0
 10
66.6417065823
 20
113.860467294
 30
0.0
 10
67.16011928
 20
115.1563213012
 30
0.0
 10
67.6007449977
 20
115.9918728458
 30
0.0
 10
67.8405685509
 20
116.4072594247
 30
0.0
  0
ENDSEC
  0
SECTION
  2
OBJECTS
  0
DICTIONARY
  5
C
100
AcDbDictionary
280
0
281
1
  3
ACAD_GROUP
350
D
  3
ACAD_MLINESTYLE
350
17
  3
ACAD_LAYOUT
350
1A
  3
ACAD_PLOTSETTINGS
350
19
  3
ACAD_PLOTSTYLENAME
350
E
  0
DICTIONARY
  5
D
102
{ACAD_REACTORS
330
C
102
}
100
AcDbDictionary
280
0
281
1
  0
ACDBDICTIONARYWDFLT
  5
E
102
{ACAD_REACTORS
330
C
102
}
100
AcDbDictionary
281
1
  3
Normal
350
F
100
AcDbDictionaryWithDefault
340
F
  0
DICTIONARY
  5
17
102
{ACAD_REACTORS
330
C
102
}
100
AcDbDictionary
280
0
281
1
  3
Standard
350
18
  0
DICTIONARY
  5
19
102
{ACAD_REACTORS
330
C
102
}
100
AcDbDictionary
281
1
  0
DICTIONARY
  5
1A
102
{ACAD_REACTORS
330
C
102
}
100
AcDbDictionary
281
1
  3
Model
350
28D
  3
Layout1
350
28E
  0
ACDBPLACEHOLDER
  5
F
102
{ACAD_REACTORS
330
E
102
}
  0
MLINESTYLE
  5
18
102
{ACAD_REACTORS
330
17
102
}
100
AcDbMlineStyle
  2
STANDARD
 70
0
  3

 62
256
 51
90.0
 52
90.0
 71
2
 49
0.5
 62
256
  6
BYLAYER
 49
-0.5
 62
256
  6
BYLAYER
  0
LAYOUT
  5
28D
102
{ACAD_REACTORS
330
1A
102
}
100
AcDbPlotSettings
  1

  2
none_device
  4

  6

 40
0.0
 41
0.0
 42
0.0
 43
0.0
 44
210.0
 45
297.0
 46
0.0
 47
0.0
 48
0.0
 49
0.0
140
0.0
141
0.0
142
1.0
143
1.0
 70
1024
 72
1
 73
0
 74
0
  7

 75
0
147
1.0
148
0.0
149
0.0
100
AcDbLayout
  1
Model
 70
0
 71
0
 10
0.0
 20
0.0
 11
210.0
 21
297.0
 12
0.0
 22
0.0
 32
0.0
 14
0.0
 24
0.0
 34
0.0
 15
0.0
 25
0.0
 35
0.0
146
0.0
 13
0.0
 23
0.0
 33
0.0
 16
1.0
 26
0.0
 36
0.0
 17
0.0
 27
1.0
 37
0.0
 76
0
330
210
345
0
346
0
  0
LAYOUT
  5
28E
102
{ACAD_REACTORS
330
1A
102
}
100
AcDbPlotSettings
  1

  2
none_device
  4

  6

 40
0.0
 41
0.0
 42
0.0
 43
0.0
 44
210.0
 45
297.0
 46
0.0
 47
0.0
 48
0.0
 49
0.0
140
0.0
141
0.0
142
1.0
143
1.0
 70
0
 72
1
 73
0
 74
0
  7

 75
0
147
1.0
148
0.0
149
0.0
100
AcDbLayout
  1
Layout1
 70
0
 71
1
 10
0.0
 20
0.0
 11
210.0
 21
297.0
 12
0.0
 22
0.0
 32
0.0
 14
0.0
 24
0.0
 34
0.0
 15
0.0
 25
0.0
 35
0.0
146
0.0
 13
0.0
 23
0.0
 33
0.0
 16
1.0
 26
0.0
 36
0.0
 17
0.0
 27
1.0
 37
0.0
 76
0
330
211
345
0
346
0
  0
ENDSEC
  0
EOF
