999
DXF file: C:\Users\sesa63760\Dev\_Creo\CAD\MCADID0003040_3D-CAD\drw0001_1.dxf
999
Pro/ENGINEER 2019471 by Parametric Technology Corporation
  0
SECTION
  2
HEADER
  9
$ACADVER
  1
AC1024
  9
$DWGCODEPAGE
  3
ANSI_1252
  9
$EXTMAX
 10
185.333228046
 20
262.1141368079
 30
0.0
  9
$EXTMIN
 10
0.0
 20
0.0
 30
0.0
  9
$LIMMIN
 10
0.0
 20
0.0
  9
$LIMMAX
 10
185.333228046
 20
262.1141368079
  9
$VIEWCTR
 10
92.666614023
 20
131.0570684039
  9
$VIEWSIZE
 40
262.1141368079
  9
$CLAYER
  8
0
  9
$LTSCALE
 40
17.0859585475
  9
$CELTYPE
  6
BYLAYER
  9
$DIMSCALE
 40
1.0
  9
$DIMASZ
 40
2.2063479529
  9
$DIMEXO
 40
1.0
  9
$DIMDLI
 40
11.8048440873
  9
$DIMEXE
 40
1.0
  9
$DIMCEN
 40
2.795884126
  9
$DIMLFAC
 40
1.0
  9
$DIMBLK
  1
_FILLED
  9
$DIMALT
 70
0
  9
$DIMALTF
 40
0.0393700787
  9
$DIMTXT
 40
3.0888871341
  9
$DIMTOL
 70
1
  9
$DIMLIM
 70
0
  9
$DIMTFAC
 40
1.0
  9
$DIMTP
 40
0.01
  9
$DIMTM
 40
0.01
  9
$DIMGAP
 40
0.625
  9
$DIMDSEP
 70
46
  9
$AUNITS
 70
0
  9
$PDMODE
 70
3
  9
$PDSIZE
 40
0.3125
  9
$HANDSEED
  5
2EA
  9
$TILEMODE
 70
1
  9
$MEASUREMENT
 70
1
  9
$INSUNITS
 70
4
  0
ENDSEC
  0
SECTION
  2
CLASSES
  0
CLASS
  1
ACDBDICTIONARYWDFLT
  2
AcDbDictionaryWithDefault
  3
AutoCAD 2000
 90
0
 91
1
280
0
281
0
  0
CLASS
  1
ACDBPLACEHOLDER
  2
AcDbPlaceHolder
  3
AutoCAD 2000
 90
0
 91
1
280
0
281
0
  0
CLASS
  1
LAYOUT
  2
AcDbLayout
  3
AutoCAD 2000
 90
0
 91
0
280
0
281
0
  0
ENDSEC
  0
SECTION
  2
TABLES
  0
TABLE
  2
VPORT
  5
8
100
AcDbSymbolTable
 70
2
  0
VPORT
  5
1F4
100
AcDbSymbolTableRecord
100
AcDbViewportTableRecord
  2
*ACTIVE
 70
0
 10
0.0
 20
0.0
 11
1.0
 21
1.0
 12
92.666614023
 22
131.0570684039
 13
0.0
 23
0.0
 14
1.0
 24
1.0
 15
0.0
 25
0.0
 16
0.0
 26
0.0
 36
1.0
 17
0.0
 27
0.0
 37
0.0
 40
262.1141368079
 41
0.7070707071
 42
50.0
 43
0.0
 44
0.0
 50
0.0
 51
0.0
 71
0
 72
100
 73
1
 74
1
 75
0
 76
0
 77
0
 78
0
  0
ENDTAB
  0
TABLE
  2
LTYPE
  5
5
100
AcDbSymbolTable
 70
6
  0
LTYPE
  5
14
100
AcDbSymbolTableRecord
100
AcDbLinetypeTableRecord
  2
BYBLOCK
 70
0
  3

 72
65
 73
0
 40
0.0
  0
LTYPE
  5
15
100
AcDbSymbolTableRecord
100
AcDbLinetypeTableRecord
  2
BYLAYER
 70
0
  3

 72
65
 73
0
 40
0.0
  0
LTYPE
  5
16
100
AcDbSymbolTableRecord
100
AcDbLinetypeTableRecord
  2
CONTINUOUS
 70
64
  3
Solid line
 72
65
 73
0
 40
0.0
  0
LTYPE
  5
1F5
100
AcDbSymbolTableRecord
100
AcDbLinetypeTableRecord
  2
CENTER
 70
64
  3
____ _ ____ _ ____ _ ____ _ ____ _ ____ _ ____
 72
65
 73
4
 40
0.6
 49
0.375
 74
0
 49
-0.075
 74
0
 49
0.075
 74
0
 49
-0.075
 74
0
  0
LTYPE
  5
1F6
100
AcDbSymbolTableRecord
100
AcDbLinetypeTableRecord
  2
HIDDEN
 70
64
  3
- - - - - - - - - - - - - - - - - - - -
 72
65
 73
2
 40
0.2
 49
0.1
 74
0
 49
-0.1
 74
0
  0
LTYPE
  5
1F7
100
AcDbSymbolTableRecord
100
AcDbLinetypeTableRecord
  2
PHANTOM
 70
64
  3
_____ _ _ _____ _ _ _____ _ _ _____
 72
65
 73
6
 40
0.8
 49
0.45
 74
0
 49
-0.05
 74
0
 49
0.1
 74
0
 49
-0.05
 74
0
 49
0.1
 74
0
 49
-0.05
 74
0
  0
LTYPE
  5
1F8
100
AcDbSymbolTableRecord
100
AcDbLinetypeTableRecord
  2
DOT
 70
64
  3
. . . . . . . . . . . . . . . . . . . .
 72
65
 73
2
 40
0.2
 49
0.1
 74
0
 49
-0.1
 74
0
  0
LTYPE
  5
1F9
100
AcDbSymbolTableRecord
100
AcDbLinetypeTableRecord
  2
DASHED
 70
64
  3
- - - - - - - - - - - - - - - - - - - -
 72
65
 73
2
 40
0.2
 49
0.1
 74
0
 49
-0.1
 74
0
  0
ENDTAB
  0
TABLE
  2
LAYER
  5
2
100
AcDbSymbolTable
 70
36
  0
LAYER
  5
10
100
AcDbSymbolTableRecord
100
AcDbLayerTableRecord
  2
0
 70
0
 62
7
  6
CONTINUOUS
370
-3
390
F
  0
LAYER
  5
1FA
100
AcDbSymbolTableRecord
100
AcDbLayerTableRecord
  2
DEFAULT_1
 70
0
 62
7
  6
CENTER
370
-3
390
F
  0
LAYER
  5
1FB
100
AcDbSymbolTableRecord
100
AcDbLayerTableRecord
  2
DEFAULT_2
 70
0
 62
7
  6
HIDDEN
370
-3
390
F
  0
LAYER
  5
1FC
100
AcDbSymbolTableRecord
100
AcDbLayerTableRecord
  2
DEFAULT_3
 70
0
 62
7
  6
PHANTOM
370
-3
390
F
  0
LAYER
  5
1FD
100
AcDbSymbolTableRecord
100
AcDbLayerTableRecord
  2
00_COMPONENTS
 70
0
 62
7
  6
CONTINUOUS
370
-3
390
F
  0
LAYER
  5
1FE
100
AcDbSymbolTableRecord
100
AcDbLayerTableRecord
  2
01_1_DEFAULT_DATUMS
 70
0
 62
7
  6
CONTINUOUS
370
-3
390
F
  0
LAYER
  5
1FF
100
AcDbSymbolTableRecord
100
AcDbLayerTableRecord
  2
01_PLANES
 70
0
 62
7
  6
CONTINUOUS
370
-3
390
F
  0
LAYER
  5
200
100
AcDbSymbolTableRecord
100
AcDbLayerTableRecord
  2
02_COORD_SYS
 70
0
 62
7
  6
CONTINUOUS
370
-3
390
F
  0
LAYER
  5
201
100
AcDbSymbolTableRecord
100
AcDbLayerTableRecord
  2
03_AXES
 70
0
 62
7
  6
CONTINUOUS
370
-3
390
F
  0
LAYER
  5
202
100
AcDbSymbolTableRecord
100
AcDbLayerTableRecord
  2
04_POINTS
 70
0
 62
7
  6
CONTINUOUS
370
-3
390
F
  0
LAYER
  5
203
100
AcDbSymbolTableRecord
100
AcDbLayerTableRecord
  2
05_CURVES
 70
0
 62
7
  6
CONTINUOUS
370
-3
390
F
  0
LAYER
  5
204
100
AcDbSymbolTableRecord
100
AcDbLayerTableRecord
  2
06_SURFS
 70
0
 62
7
  6
CONTINUOUS
370
-3
390
F
  0
LAYER
  5
205
100
AcDbSymbolTableRecord
100
AcDbLayerTableRecord
  2
07_COSMETICS
 70
0
 62
7
  6
CONTINUOUS
370
-3
390
F
  0
LAYER
  5
206
100
AcDbSymbolTableRecord
100
AcDbLayerTableRecord
  2
10_NOTES
 70
0
 62
7
  6
CONTINUOUS
370
-3
390
F
  0
LAYER
  5
207
100
AcDbSymbolTableRecord
100
AcDbLayerTableRecord
  2
11_NOTES_PUB
 70
0
 62
7
  6
CONTINUOUS
370
-3
390
F
  0
LAYER
  5
208
100
AcDbSymbolTableRecord
100
AcDbLayerTableRecord
  2
13_REF_GTOL
 70
0
 62
7
  6
CONTINUOUS
370
-3
390
F
  0
LAYER
  5
209
100
AcDbSymbolTableRecord
100
AcDbLayerTableRecord
  2
16_MISC
 70
0
 62
7
  6
CONTINUOUS
370
-3
390
F
  0
LAYER
  5
20A
100
AcDbSymbolTableRecord
100
AcDbLayerTableRecord
  2
17_NO_PRINT
 70
0
 62
7
  6
CONTINUOUS
370
-3
390
F
  0
LAYER
  5
20B
100
AcDbSymbolTableRecord
100
AcDbLayerTableRecord
  2
18_DATUM_CAMS_JOINTS
 70
0
 62
7
  6
CONTINUOUS
370
-3
390
F
  0
LAYER
  5
20C
100
AcDbSymbolTableRecord
100
AcDbLayerTableRecord
  2
19_DATUM_FUNCTIONAL
 70
0
 62
7
  6
CONTINUOUS
370
-3
390
F
  0
LAYER
  5
20D
100
AcDbSymbolTableRecord
100
AcDbLayerTableRecord
  2
20_DATUM_KINEMATIC_SCHEME
 70
0
 62
7
  6
CONTINUOUS
370
-3
390
F
  0
ENDTAB
  0
TABLE
  2
STYLE
  5
3
100
AcDbSymbolTable
 70
1
  0
STYLE
  5
11
100
AcDbSymbolTableRecord
100
AcDbTextStyleTableRecord
  2
STANDARD
 70
0
 40
0.0
 41
1.0
 50
0.0
 71
0
 42
0.2
  3
ARIAL.TTF
  4

  0
STYLE
  5
20E
100
AcDbSymbolTableRecord
100
AcDbTextStyleTableRecord
  2
TEXTSTYLE_1
 70
0
 40
0.0
 41
0.8
 50
0.0
 71
0
 42
0.2
  3
gdt
  4

  0
ENDTAB
  0
TABLE
  2
VIEW
  5
6
100
AcDbSymbolTable
 70
0
  0
ENDTAB
  0
TABLE
  2
UCS
  5
7
100
AcDbSymbolTable
 70
0
  0
ENDTAB
  0
TABLE
  2
APPID
  5
9
100
AcDbSymbolTable
 70
1
  0
APPID
  5
20F
100
AcDbSymbolTableRecord
100
AcDbRegAppTableRecord
  2
ACAD
 70
0
  0
ENDTAB
  0
TABLE
  2
BLOCK_RECORD
  5
1
100
AcDbSymbolTable
 70
0
  0
BLOCK_RECORD
  5
210
100
AcDbSymbolTableRecord
100
AcDbBlockTableRecord
  2
*Model_Space
  0
BLOCK_RECORD
  5
211
100
AcDbSymbolTableRecord
100
AcDbBlockTableRecord
  2
*Paper_Space
  0
BLOCK_RECORD
  5
212
100
AcDbSymbolTableRecord
100
AcDbBlockTableRecord
  2
_FILLED
  0
ENDTAB
  0
TABLE
  2
DIMSTYLE
  5
A
100
AcDbSymbolTable
 70
1
100
AcDbDimStyleTable
 71
0
  0
DIMSTYLE
105
213
100
AcDbSymbolTableRecord
100
AcDbDimStyleTableRecord
  2
STANDARD
 70
0
  3

  4

 40
1.0
 41
2.2063479529
 42
1.0
 43
0.38
 44
1.0
 45
0.0
 46
0.0
 47
0.01
 48
0.01
140
3.0888871341
141
0.09
142
0.0
143
25.4
144
1.0
145
0.0
146
1.0
147
0.625
 71
1
 72
0
 73
0
 74
0
 75
0
 76
0
 77
1
 78
8
 79
2
170
0
171
1
172
0
173
0
174
0
175
0
176
0
177
0
178
0
270
2
179
2
271
2
272
2
273
2
274
2
275
0
280
0
281
0
282
0
283
1
284
8
285
0
286
0
287
3
288
0
340
11
278
46
341
212
342
212
343
212
344
212
  0
ENDTAB
  0
ENDSEC
  0
SECTION
  2
BLOCKS
  0
BLOCK
  5
20
100
AcDbEntity
  8
0
100
AcDbBlockBegin
  2
*Model_Space
 70
0
 10
0.0
 20
0.0
 30
0.0
  3
*Model_Space
  1

  0
ENDBLK
  5
21
100
AcDbEntity
  8
0
100
AcDbBlockEnd
  0
BLOCK
  5
1C
100
AcDbEntity
  8
0
100
AcDbBlockBegin
  2
*Paper_Space
 70
0
 10
0.0
 20
0.0
 30
0.0
  3
*Paper_Space
  1

  0
ENDBLK
  5
1D
100
AcDbEntity
  8
0
100
AcDbBlockEnd
  0
BLOCK
  5
214
100
AcDbEntity
  8
0
100
AcDbBlockBegin
  2
_FILLED
 70
64
 10
0.0
 20
0.0
  3
_FILLED
  1

  0
SOLID
  5
215
100
AcDbEntity
  8
0
  6
BYBLOCK
 62
0
100
AcDbTrace
 10
0.0
 20
0.0
 11
-1.0
 21
0.25
 12
-1.0
 22
-0.25
 13
-1.0
 23
-0.25
  0
ENDBLK
  5
216
100
AcDbEntity
  8
0
  6
BYBLOCK
 62
0
100
AcDbBlockEnd
  0
ENDSEC
  0
SECTION
  2
ENTITIES
  0
LINE
  5
217
100
AcDbEntity
  8
0
100
AcDbLine
 62
7
  6
BYLAYER
 10
138.6925432659
 20
175.6270458679
 11
107.2617777017
 21
157.4805932283
  0
LINE
  5
218
100
AcDbEntity
  8
0
100
AcDbLine
 62
7
  6
BYLAYER
 10
90.6484784816
 20
126.838961546
 11
90.5169289551
 21
126.5483255425
  0
LINE
  5
219
100
AcDbEntity
  8
0
100
AcDbLine
 62
7
  6
BYLAYER
 10
117.2070537704
 20
150.0024523535
 11
109.1248569128
 21
145.3362216758
  0
LINE
  5
21A
100
AcDbEntity
  8
0
100
AcDbLine
 62
7
  6
BYLAYER
 10
109.4333296373
 20
142.7280291821
 11
106.2004508944
 21
140.8615369111
  0
LINE
  5
21B
100
AcDbEntity
  8
0
100
AcDbLine
 62
7
  6
BYLAYER
 10
157.9174849393
 20
168.6671477129
 11
154.3326289223
 21
166.5974424809
  0
LINE
  5
21C
100
AcDbEntity
  8
0
100
AcDbLine
 62
7
  6
BYLAYER
 10
90.0391097757
 20
127.7388482828
 11
21.6323028596
 21
88.2443956455
  0
LINE
  5
21D
100
AcDbEntity
  8
0
100
AcDbLine
 62
7
  6
BYLAYER
 10
90.5169623847
 20
126.5482674731
 11
22.2673000168
 21
87.1445417414
  0
LINE
  5
21E
100
AcDbEntity
  8
0
100
AcDbLine
 62
7
  6
BYLAYER
 10
115.1483040519
 20
132.8293440451
 11
111.9154253091
 21
130.9628517742
  0
LINE
  5
21F
100
AcDbEntity
  8
0
100
AcDbLine
 62
7
  6
BYLAYER
 10
125.3350173823
 20
135.924322381
 11
117.2528205247
 21
131.2580917033
  0
LINE
  5
220
100
AcDbEntity
  8
0
100
AcDbLine
 62
7
  6
BYLAYER
 10
166.7110590151
 20
159.4509142108
 11
135.2802934509
 21
141.3044615712
  0
LINE
  5
221
100
AcDbEntity
  8
0
100
AcDbLine
 62
7
  6
BYLAYER
 10
107.2617777017
 20
144.6223131633
 11
107.2617777017
 21
157.4805932283
  0
LINE
  5
222
100
AcDbEntity
  8
0
100
AcDbLine
 62
7
  6
BYLAYER
 10
166.7110590151
 20
146.5926341458
 11
135.2802934509
 21
128.4461815062
  0
LINE
  5
223
100
AcDbEntity
  8
0
100
AcDbLine
 62
7
  6
BYLAYER
 10
135.2802934509
 20
128.4461815062
 11
123.831261455
 21
135.0561336739
  0
LINE
  5
224
100
AcDbEntity
  8
0
100
AcDbLine
 62
7
  6
BYLAYER
 10
108.0452736547
 20
144.1699717973
 11
107.2617777017
 21
144.6223131633
  0
LINE
  5
225
100
AcDbEntity
  8
0
100
AcDbLine
 62
7
  6
BYLAYER
 10
107.2617777017
 20
157.4805932283
 11
119.8454581767
 21
150.2155662755
  0
LINE
  5
226
100
AcDbEntity
  8
0
100
AcDbLine
 62
7
  6
BYLAYER
 10
122.6966129759
 20
148.569488524
 11
135.2802934509
 21
141.3044615712
  0
LINE
  5
227
100
AcDbEntity
  8
0
100
AcDbLine
 62
7
  6
BYLAYER
 10
135.2802934509
 20
141.3044615712
 11
135.2802934509
 21
128.4461815062
  0
LINE
  5
228
100
AcDbEntity
  8
0
100
AcDbLine
 62
7
  6
BYLAYER
 10
166.7110590151
 20
159.4509142108
 11
138.6925432659
 21
175.6270458679
  0
LINE
  5
229
100
AcDbEntity
  8
0
100
AcDbLine
 62
7
  6
BYLAYER
 10
166.7110590151
 20
146.5926341458
 11
166.7110590151
 21
159.4509142108
  0
ARC
  5
22A
100
AcDbEntity
  8
0
100
AcDbCircle
 62
7
  6
BYLAYER
 10
111.8612789932
 20
136.939844131
 40
6.70994859
100
AcDbArc
 50
230.5736938103
 51
231.7288178732
  0
ARC
  5
22B
100
AcDbEntity
  8
0
100
AcDbCircle
 62
7
  6
BYLAYER
 10
111.7528944715
 20
136.8025064781
 40
6.5349947827
100
AcDbArc
 50
231.7290511768
 51
232.8302605827
  0
ARC
  5
22C
100
AcDbEntity
  8
0
100
AcDbCircle
 62
7
  6
BYLAYER
 10
111.1453790651
 20
137.7963662233
 40
6.50347534
100
AcDbArc
 50
186.8663246619
 51
187.6383929352
  0
ARC
  5
22D
100
AcDbEntity
  8
0
100
AcDbCircle
 62
7
  6
BYLAYER
 10
110.9776549149
 20
137.7765142497
 40
6.334580784
100
AcDbArc
 50
185.4071790365
 51
186.8694215489
  0
ARC
  5
22E
100
AcDbEntity
  8
0
100
AcDbCircle
 62
7
  6
BYLAYER
 10
110.7908362857
 20
137.7585873965
 40
6.1469041695
100
AcDbArc
 50
184.4090224579
 51
185.4049178216
  0
ARC
  5
22F
100
AcDbEntity
  8
0
100
AcDbCircle
 62
7
  6
BYLAYER
 10
111.4917283151
 20
136.449542277
 40
6.0959468016
100
AcDbArc
 50
232.7819186809
 51
236.9991672218
  0
ARC
  5
230
100
AcDbEntity
  8
0
100
AcDbCircle
 62
7
  6
BYLAYER
 10
110.4397739113
 20
137.7333679465
 40
5.7949422304
100
AcDbArc
 50
180.0646964531
 51
184.4272491853
  0
ARC
  5
231
100
AcDbEntity
  8
0
100
AcDbCircle
 62
7
  6
BYLAYER
 10
110.1736265056
 20
135.2515602125
 40
4.0268337641
100
AcDbArc
 50
239.7917995586
 51
243.2575403566
  0
ARC
  5
232
100
AcDbEntity
  8
0
100
AcDbCircle
 62
7
  6
BYLAYER
 10
108.9570298767
 20
137.2108381741
 40
3.9402171602
100
AcDbArc
 50
176.6887471827
 51
180.0361169449
  0
ARC
  5
233
100
AcDbEntity
  8
0
100
AcDbCircle
 62
7
  6
BYLAYER
 10
106.0131362039
 20
136.0273241413
 40
1.5541768348
100
AcDbArc
 50
130.1914413126
 51
142.102748444
  0
ARC
  5
234
100
AcDbEntity
  8
0
100
AcDbCircle
 62
7
  6
BYLAYER
 10
105.9731504351
 20
136.071719066
 40
1.4944605294
100
AcDbArc
 50
120.0234501169
 51
130.1187952121
  0
SPLINE
  5
235
100
AcDbEntity
  8
0
100
AcDbSpline
 62
7
  6
BYLAYER
 70
0
 71
3
 72
13
 73
9
 74
0
 42
0.0000001
 43
0.0000001
 44
0.0000000001
 40
0.0
 40
0.0
 40
0.0
 40
0.0
 40
0.2699738623
 40
0.5613347974
 40
0.6954779143
 40
0.8131813281
 40
0.9128760288
 40
1.0
 40
1.0
 40
1.0
 40
1.0
 10
21.5007867628
 20
87.9537015726
 30
0.0
 10
21.5007867628
 20
87.8402415307
 30
0.0
 10
21.5631487505
 20
87.6050917689
 30
0.0
 10
21.7247081555
 20
87.3555282312
 30
0.0
 10
21.8965731396
 20
87.2030474751
 30
0.0
 10
22.027629608
 20
87.1313951975
 30
0.0
 10
22.1558851125
 20
87.1059104194
 30
0.0
 10
22.2355942112
 20
87.1262254349
 30
0.0
 10
22.2672946724
 20
87.1445485903
 30
0.0
  0
SPLINE
  5
236
100
AcDbEntity
  8
0
100
AcDbSpline
 62
7
  6
BYLAYER
 70
0
 71
3
 72
11
 73
7
 74
0
 42
0.0000001
 43
0.0000001
 44
0.0000000001
 40
0.0
 40
0.0
 40
0.0
 40
0.0
 40
0.2380343355
 40
0.5016462722
 40
0.7643980784
 40
1.0
 40
1.0
 40
1.0
 40
1.0
 10
94.6896030831
 20
125.5428014676
 30
0.0
 10
94.6896030831
 20
125.842379996
 30
0.0
 10
94.5754439328
 20
126.4741104168
 30
0.0
 10
94.1791127199
 20
127.3587378929
 30
0.0
 10
93.601699271
 20
128.1334892935
 30
0.0
 10
93.1074338054
 20
128.5372511293
 30
0.0
 10
92.8473385562
 20
128.6796341231
 30
0.0
  0
SPLINE
  5
237
100
AcDbEntity
  8
0
100
AcDbSpline
 62
7
  6
BYLAYER
 70
0
 71
3
 72
11
 73
7
 74
0
 42
0.0000001
 43
0.0000001
 44
0.0000000001
 40
0.0
 40
0.0
 40
0.0
 40
0.0
 40
0.2177227832
 40
0.4508712161
 40
0.7104668615
 40
1.0
 40
1.0
 40
1.0
 40
1.0
 10
120.5779725703
 20
157.6880061144
 30
0.0
 10
120.5779763047
 20
157.5912905068
 30
0.0
 10
120.5424096559
 20
157.3896409857
 30
0.0
 10
120.3894621549
 20
157.1086035221
 30
0.0
 10
120.1476579554
 20
156.8547612926
 30
0.0
 10
119.9455261084
 20
156.7153818965
 30
0.0
 10
119.8341422532
 20
156.6510747816
 30
0.0
  0
SPLINE
  5
238
100
AcDbEntity
  8
0
100
AcDbSpline
 62
7
  6
BYLAYER
 70
0
 71
3
 72
11
 73
7
 74
0
 42
0.0000001
 43
0.0000001
 44
0.0000000001
 40
0.0
 40
0.0
 40
0.0
 40
0.0
 40
0.2380343355
 40
0.5016462722
 40
0.7643980784
 40
1.0
 40
1.0
 40
1.0
 40
1.0
 10
95.5876249564
 20
126.061271543
 30
0.0
 10
95.5876249564
 20
126.3608500714
 30
0.0
 10
95.4734658061
 20
126.9925804922
 30
0.0
 10
95.0771345931
 20
127.8772079683
 30
0.0
 10
94.4997211443
 20
128.6519593689
 30
0.0
 10
94.0054556787
 20
129.0557212047
 30
0.0
 10
93.7453604294
 20
129.1981041985
 30
0.0
  0
SPLINE
  5
239
100
AcDbEntity
  8
0
100
AcDbSpline
 62
7
  6
BYLAYER
 70
0
 71
3
 72
11
 73
7
 74
0
 42
0.0000001
 43
0.0000001
 44
0.0000000001
 40
0.0
 40
0.0
 40
0.0
 40
0.0
 40
0.2380343355
 40
0.5016462722
 40
0.7643980784
 40
1.0
 40
1.0
 40
1.0
 40
1.0
 10
96.4856468296
 20
126.5797416184
 30
0.0
 10
96.4856468296
 20
126.8793201468
 30
0.0
 10
96.3714876793
 20
127.5110505676
 30
0.0
 10
95.9751564664
 20
128.3956780437
 30
0.0
 10
95.3977430176
 20
129.1704294444
 30
0.0
 10
94.9034775519
 20
129.5741912802
 30
0.0
 10
94.6433823027
 20
129.716574274
 30
0.0
  0
SPLINE
  5
23A
100
AcDbEntity
  8
0
100
AcDbSpline
 62
7
  6
BYLAYER
 70
0
 71
3
 72
11
 73
7
 74
0
 42
0.0000001
 43
0.0000001
 44
0.0000000001
 40
0.0
 40
0.0
 40
0.0
 40
0.0
 40
0.2380343355
 40
0.5016462722
 40
0.7643980784
 40
1.0
 40
1.0
 40
1.0
 40
1.0
 10
97.3836687029
 20
127.0982116938
 30
0.0
 10
97.3836687029
 20
127.3977902223
 30
0.0
 10
97.2695095526
 20
128.0295206431
 30
0.0
 10
96.8731783397
 20
128.9141481191
 30
0.0
 10
96.2957648908
 20
129.6888995198
 30
0.0
 10
95.8014994252
 20
130.0926613556
 30
0.0
 10
95.5414041759
 20
130.2350443494
 30
0.0
  0
SPLINE
  5
23B
100
AcDbEntity
  8
0
100
AcDbSpline
 62
7
  6
BYLAYER
 70
0
 71
3
 72
11
 73
7
 74
0
 42
0.0000001
 43
0.0000001
 44
0.0000000001
 40
0.0
 40
0.0
 40
0.0
 40
0.0
 40
0.2380343355
 40
0.5016462722
 40
0.7643980784
 40
1.0
 40
1.0
 40
1.0
 40
1.0
 10
98.2816905762
 20
127.6166817693
 30
0.0
 10
98.2816905762
 20
127.9162602977
 30
0.0
 10
98.1675314258
 20
128.5479907185
 30
0.0
 10
97.7712002129
 20
129.4326181946
 30
0.0
 10
97.1937867641
 20
130.2073695952
 30
0.0
 10
96.6995212985
 20
130.611131431
 30
0.0
 10
96.4394260492
 20
130.7535144248
 30
0.0
  0
SPLINE
  5
23C
100
AcDbEntity
  8
0
100
AcDbSpline
 62
7
  6
BYLAYER
 70
0
 71
3
 72
11
 73
7
 74
0
 42
0.0000001
 43
0.0000001
 44
0.0000000001
 40
0.0
 40
0.0
 40
0.0
 40
0.0
 40
0.2380343355
 40
0.5016462722
 40
0.7643980784
 40
1.0
 40
1.0
 40
1.0
 40
1.0
 10
99.1797124494
 20
128.1351518447
 30
0.0
 10
99.1797124494
 20
128.4347303731
 30
0.0
 10
99.0655532991
 20
129.0664607939
 30
0.0
 10
98.6692220862
 20
129.95108827
 30
0.0
 10
98.0918086373
 20
130.7258396706
 30
0.0
 10
97.5975431717
 20
131.1296015064
 30
0.0
 10
97.3374479225
 20
131.2719845002
 30
0.0
  0
SPLINE
  5
23D
100
AcDbEntity
  8
0
100
AcDbSpline
 62
7
  6
BYLAYER
 70
0
 71
3
 72
11
 73
7
 74
0
 42
0.0000001
 43
0.0000001
 44
0.0000000001
 40
0.0
 40
0.0
 40
0.0
 40
0.0
 40
0.2380343355
 40
0.5016462722
 40
0.7643980784
 40
1.0
 40
1.0
 40
1.0
 40
1.0
 10
100.0777343227
 20
128.6536219201
 30
0.0
 10
100.0777343227
 20
128.9532004485
 30
0.0
 10
99.9635751724
 20
129.5849308693
 30
0.0
 10
99.5672439594
 20
130.4695583454
 30
0.0
 10
98.9898305106
 20
131.244309746
 30
0.0
 10
98.495565045
 20
131.6480715818
 30
0.0
 10
98.2354697957
 20
131.7904545756
 30
0.0
  0
SPLINE
  5
23E
100
AcDbEntity
  8
0
100
AcDbSpline
 62
7
  6
BYLAYER
 70
0
 71
3
 72
11
 73
7
 74
0
 42
0.0000001
 43
0.0000001
 44
0.0000000001
 40
0.0
 40
0.0
 40
0.0
 40
0.0
 40
0.2380343355
 40
0.5016462722
 40
0.7643980784
 40
1.0
 40
1.0
 40
1.0
 40
1.0
 10
100.975756196
 20
129.1720919955
 30
0.0
 10
100.975756196
 20
129.4716705239
 30
0.0
 10
100.8615970456
 20
130.1034009447
 30
0.0
 10
100.4652658327
 20
130.9880284208
 30
0.0
 10
99.8878523839
 20
131.7627798214
 30
0.0
 10
99.3935869183
 20
132.1665416572
 30
0.0
 10
99.133491669
 20
132.308924651
 30
0.0
  0
SPLINE
  5
23F
100
AcDbEntity
  8
0
100
AcDbSpline
 62
7
  6
BYLAYER
 70
0
 71
3
 72
11
 73
7
 74
0
 42
0.0000001
 43
0.0000001
 44
0.0000000001
 40
0.0
 40
0.0
 40
0.0
 40
0.0
 40
0.2380343355
 40
0.5016462722
 40
0.7643980784
 40
1.0
 40
1.0
 40
1.0
 40
1.0
 10
101.8737780692
 20
129.6905620709
 30
0.0
 10
101.8737780692
 20
129.9901405993
 30
0.0
 10
101.7596189189
 20
130.6218710201
 30
0.0
 10
101.363287706
 20
131.5064984962
 30
0.0
 10
100.7858742571
 20
132.2812498969
 30
0.0
 10
100.2916087915
 20
132.6850117327
 30
0.0
 10
100.0315135423
 20
132.8273947265
 30
0.0
  0
SPLINE
  5
240
100
AcDbEntity
  8
0
100
AcDbSpline
 62
7
  6
BYLAYER
 70
0
 71
3
 72
11
 73
7
 74
0
 42
0.0000001
 43
0.0000001
 44
0.0000000001
 40
0.0
 40
0.0
 40
0.0
 40
0.0
 40
0.2380343355
 40
0.5016462722
 40
0.7643980784
 40
1.0
 40
1.0
 40
1.0
 40
1.0
 10
102.7717999425
 20
130.2090321463
 30
0.0
 10
102.7717999425
 20
130.5086106748
 30
0.0
 10
102.6576407922
 20
131.1403410956
 30
0.0
 10
102.2613095792
 20
132.0249685716
 30
0.0
 10
101.6838961304
 20
132.7997199723
 30
0.0
 10
101.1896306648
 20
133.2034818081
 30
0.0
 10
100.9295354155
 20
133.3458648019
 30
0.0
  0
SPLINE
  5
241
100
AcDbEntity
  8
0
100
AcDbSpline
 62
7
  6
BYLAYER
 70
0
 71
3
 72
11
 73
7
 74
0
 42
0.0000001
 43
0.0000001
 44
0.0000000001
 40
0.0
 40
0.0
 40
0.0
 40
0.0
 40
0.2380343355
 40
0.5016462722
 40
0.7643980784
 40
1.0
 40
1.0
 40
1.0
 40
1.0
 10
103.6698218157
 20
130.7275022218
 30
0.0
 10
103.6698218157
 20
131.0270807502
 30
0.0
 10
103.5556626654
 20
131.658811171
 30
0.0
 10
103.1593314525
 20
132.5434386471
 30
0.0
 10
102.5819180036
 20
133.3181900477
 30
0.0
 10
102.087652538
 20
133.7219518835
 30
0.0
 10
101.8275572888
 20
133.8643348773
 30
0.0
  0
SPLINE
  5
242
100
AcDbEntity
  8
0
100
AcDbSpline
 62
7
  6
BYLAYER
 70
0
 71
3
 72
11
 73
7
 74
0
 42
0.0000001
 43
0.0000001
 44
0.0000000001
 40
0.0
 40
0.0
 40
0.0
 40
0.0
 40
0.2380343355
 40
0.5016462722
 40
0.7643980784
 40
1.0
 40
1.0
 40
1.0
 40
1.0
 10
104.567843689
 20
131.2459722972
 30
0.0
 10
104.567843689
 20
131.5455508256
 30
0.0
 10
104.4536845387
 20
132.1772812464
 30
0.0
 10
104.0573533258
 20
133.0619087225
 30
0.0
 10
103.4799398769
 20
133.8366601231
 30
0.0
 10
102.9856744113
 20
134.2404219589
 30
0.0
 10
102.725579162
 20
134.3828049527
 30
0.0
  0
SPLINE
  5
243
100
AcDbEntity
  8
0
100
AcDbSpline
 62
7
  6
BYLAYER
 70
0
 71
3
 72
11
 73
7
 74
0
 42
0.0000001
 43
0.0000001
 44
0.0000000001
 40
0.0
 40
0.0
 40
0.0
 40
0.0
 40
0.2380343355
 40
0.5016462722
 40
0.7643980784
 40
1.0
 40
1.0
 40
1.0
 40
1.0
 10
105.4658655623
 20
131.7644423726
 30
0.0
 10
105.4658655623
 20
132.064020901
 30
0.0
 10
105.3517064119
 20
132.6957513218
 30
0.0
 10
104.955375199
 20
133.5803787979
 30
0.0
 10
104.3779617502
 20
134.3551301985
 30
0.0
 10
103.8836962846
 20
134.7588920343
 30
0.0
 10
103.6236010353
 20
134.9012750281
 30
0.0
  0
SPLINE
  5
244
100
AcDbEntity
  8
0
100
AcDbSpline
 62
7
  6
BYLAYER
 70
0
 71
3
 72
11
 73
7
 74
0
 42
0.0000001
 43
0.0000001
 44
0.0000000001
 40
0.0
 40
0.0
 40
0.0
 40
0.0
 40
0.2380343355
 40
0.5016462722
 40
0.7643980784
 40
1.0
 40
1.0
 40
1.0
 40
1.0
 10
106.3638874355
 20
132.282912448
 30
0.0
 10
106.3638874355
 20
132.5824909764
 30
0.0
 10
106.2497282852
 20
133.2142213972
 30
0.0
 10
105.8533970723
 20
134.0988488733
 30
0.0
 10
105.2759836234
 20
134.873600274
 30
0.0
 10
104.7817181578
 20
135.2773621097
 30
0.0
 10
104.5216229086
 20
135.4197451035
 30
0.0
  0
SPLINE
  5
245
100
AcDbEntity
  8
0
100
AcDbSpline
 62
7
  6
BYLAYER
 70
0
 71
3
 72
11
 73
7
 74
0
 42
0.0000001
 43
0.0000001
 44
0.0000000001
 40
0.0
 40
0.0
 40
0.0
 40
0.0
 40
0.2380343355
 40
0.5016462722
 40
0.7643980784
 40
1.0
 40
1.0
 40
1.0
 40
1.0
 10
107.2619093088
 20
132.8013825234
 30
0.0
 10
107.2619093088
 20
133.1009610518
 30
0.0
 10
107.1477501585
 20
133.7326914726
 30
0.0
 10
106.7514189455
 20
134.6173189487
 30
0.0
 10
106.1740054967
 20
135.3920703494
 30
0.0
 10
105.6797400311
 20
135.7958321852
 30
0.0
 10
105.4196447818
 20
135.938215179
 30
0.0
  0
SPLINE
  5
246
100
AcDbEntity
  8
0
100
AcDbSpline
 62
7
  6
BYLAYER
 70
0
 71
3
 72
11
 73
7
 74
0
 42
0.0000001
 43
0.0000001
 44
0.0000000001
 40
0.0
 40
0.0
 40
0.0
 40
0.0
 40
0.2380343355
 40
0.5016462722
 40
0.7643980784
 40
1.0
 40
1.0
 40
1.0
 40
1.0
 10
108.159931182
 20
133.3198525989
 30
0.0
 10
108.159931182
 20
133.6194311272
 30
0.0
 10
108.0457720318
 20
134.2511615479
 30
0.0
 10
107.649440819
 20
135.1357890239
 30
0.0
 10
107.0720273703
 20
135.9105404244
 30
0.0
 10
106.5777619048
 20
136.3143022603
 30
0.0
 10
106.3176666556
 20
136.4566852541
 30
0.0
  0
SPLINE
  5
247
100
AcDbEntity
  8
0
100
AcDbSpline
 62
7
  6
BYLAYER
 70
0
 71
3
 72
18
 73
14
 74
0
 42
0.0000001
 43
0.0000001
 44
0.0000000001
 40
0.0
 40
0.0
 40
0.0
 40
0.0
 40
0.132481436
 40
0.278678232
 40
0.4295145878
 40
0.5749043199
 40
0.7059451375
 40
0.7643814752
 40
0.8177679734
 40
0.8665725302
 40
0.9119558653
 40
0.9557146983
 40
1.0
 40
1.0
 40
1.0
 40
1.0
 10
109.0579530553
 20
133.8383226743
 30
0.0
 10
109.0579530553
 20
134.074803269
 30
0.0
 10
108.9860156809
 20
134.5727986277
 30
0.0
 10
108.722192184
 20
135.2969446827
 30
0.0
 10
108.3200920666
 20
135.9819350582
 30
0.0
 10
107.8181631428
 20
136.5617036732
 30
0.0
 10
107.3364786725
 20
136.9269742515
 30
0.0
 10
106.9416005966
 20
137.1097084933
 30
0.0
 10
106.6634149259
 20
137.1856014176
 30
0.0
 10
106.398399931
 20
137.2024476212
 30
0.0
 10
106.1532547855
 20
137.158566516
 30
0.0
 10
105.9362781591
 20
137.0532393445
 30
0.0
 10
105.8176906056
 20
136.9466937701
 30
0.0
 10
105.7660785349
 20
136.8868185221
 30
0.0
  0
SPLINE
  5
248
100
AcDbEntity
  8
0
100
AcDbSpline
 62
7
  6
BYLAYER
 70
0
 71
3
 72
17
 73
13
 74
0
 42
0.0000001
 43
0.0000001
 44
0.0000000001
 40
0.0
 40
0.0
 40
0.0
 40
0.0
 40
0.0443540186
 40
0.0881715358
 40
0.1336231069
 40
0.1825130901
 40
0.2359941355
 40
0.2945295438
 40
0.4257856535
 40
0.5713990439
 40
0.7224635753
 40
1.0
 40
1.0
 40
1.0
 40
1.0
 10
106.66461299
 20
137.4059762975
 30
0.0
 10
106.7163426972
 20
137.4657273468
 30
0.0
 10
106.8350288058
 20
137.5720534541
 30
0.0
 10
107.0519867104
 20
137.6772391907
 30
0.0
 10
107.2971102898
 20
137.7209430633
 30
0.0
 10
107.5620883545
 20
137.7039325131
 30
0.0
 10
107.840228036
 20
137.6279248132
 30
0.0
 10
108.2350260095
 20
137.4450726204
 30
0.0
 10
108.7164806846
 20
137.0799442913
 30
0.0
 10
109.2185932519
 20
136.4994277694
 30
0.0
 10
109.7377411337
 20
135.6160423248
 30
0.0
 10
109.9524340456
 20
134.8513107514
 30
0.0
 10
109.9559749295
 20
134.3567927502
 30
0.0
  0
SPLINE
  5
249
100
AcDbEntity
  8
0
100
AcDbSpline
 62
7
  6
BYLAYER
 70
0
 71
3
 72
11
 73
7
 74
0
 42
0.0000001
 43
0.0000001
 44
0.0000000001
 40
0.0
 40
0.0
 40
0.0
 40
0.0
 40
0.2177227832
 40
0.4508712161
 40
0.7104668615
 40
1.0
 40
1.0
 40
1.0
 40
1.0
 10
138.1793478486
 20
147.5260772529
 30
0.0
 10
138.1793515831
 20
147.4293616453
 30
0.0
 10
138.1437849343
 20
147.2277121242
 30
0.0
 10
137.9908374333
 20
146.9466746605
 30
0.0
 10
137.7490332338
 20
146.6928324311
 30
0.0
 10
137.5469013867
 20
146.553453035
 30
0.0
 10
137.4355175316
 20
146.4891459201
 30
0.0
  0
SPLINE
  5
24A
100
AcDbEntity
  8
0
100
AcDbSpline
 62
7
  6
BYLAYER
 70
0
 71
3
 72
16
 73
12
 74
0
 42
0.0000001
 43
0.0000001
 44
0.0000000001
 40
0.0
 40
0.0
 40
0.0
 40
0.0
 40
0.1287403799
 40
0.2704210658
 40
0.4176258714
 40
0.5620278603
 40
0.695753962
 40
0.8130690845
 40
0.9124719932
 40
0.9571212513
 40
1.0
 40
1.0
 40
1.0
 40
1.0
 10
137.4355175316
 20
146.4891459201
 30
0.0
 10
137.2475058856
 20
146.3805979936
 30
0.0
 10
136.8217481519
 20
146.2049768651
 30
0.0
 10
136.1279422179
 20
146.0660873773
 30
0.0
 10
135.3940460445
 20
146.0459022539
 30
0.0
 10
134.6802710334
 20
146.1460082496
 30
0.0
 10
134.0435824175
 20
146.3591492838
 30
0.0
 10
133.5334054322
 20
146.6687490578
 30
0.0
 10
133.2363034238
 20
147.0100471409
 30
0.0
 10
133.1187714404
 20
147.3055216263
 30
0.0
 10
133.0995726028
 20
147.4537705462
 30
0.0
 10
133.0995698108
 20
147.5260776202
 30
0.0
  0
SPLINE
  5
24B
100
AcDbEntity
  8
0
100
AcDbSpline
 62
7
  6
BYLAYER
 70
0
 71
3
 72
16
 73
12
 74
0
 42
0.0000001
 43
0.0000001
 44
0.0000000001
 40
0.0
 40
0.0
 40
0.0
 40
0.0
 40
0.1287403799
 40
0.2704210658
 40
0.4176258714
 40
0.5620278603
 40
0.695753962
 40
0.8130690845
 40
0.9124719932
 40
0.9571212513
 40
1.0
 40
1.0
 40
1.0
 40
1.0
 10
119.8341422532
 20
156.6510747816
 30
0.0
 10
119.6461306073
 20
156.5425268551
 30
0.0
 10
119.2203728735
 20
156.3669057266
 30
0.0
 10
118.5265669395
 20
156.2280162389
 30
0.0
 10
117.7926707661
 20
156.2078311154
 30
0.0
 10
117.078895755
 20
156.3079371111
 30
0.0
 10
116.4422071391
 20
156.5210781454
 30
0.0
 10
115.9320301539
 20
156.8306779194
 30
0.0
 10
115.6349281454
 20
157.1719760025
 30
0.0
 10
115.5173961621
 20
157.4674504878
 30
0.0
 10
115.4981973244
 20
157.6156994078
 30
0.0
 10
115.4981945324
 20
157.6880064818
 30
0.0
  0
SPLINE
  5
24C
100
AcDbEntity
  8
0
100
AcDbSpline
 62
7
  6
BYLAYER
 70
0
 71
3
 72
17
 73
13
 74
0
 42
0.0000001
 43
0.0000001
 44
0.0000000001
 40
0.0
 40
0.0
 40
0.0
 40
0.0
 40
0.0428592926
 40
0.087485474
 40
0.1353198781
 40
0.1872819044
 40
0.3045421965
 40
0.4382074305
 40
0.582548911
 40
0.7297129633
 40
0.8713059682
 40
1.0
 40
1.0
 40
1.0
 40
1.0
 10
157.9174916554
 20
168.6671360952
 30
0.0
 10
158.0145473457
 20
168.7231806685
 30
0.0
 10
158.2285239759
 20
168.8120313278
 30
0.0
 10
158.5816734009
 20
168.8638668035
 30
0.0
 10
158.9609449766
 20
168.8359229881
 30
0.0
 10
159.512017667
 20
168.6893558024
 30
0.0
 10
160.216478607
 20
168.3041522792
 30
0.0
 10
160.9947960114
 20
167.6148716031
 30
0.0
 10
161.6828263914
 20
166.7342575611
 30
0.0
 10
162.2242978256
 20
165.7334296394
 30
0.0
 10
162.5757291227
 20
164.6944821001
 30
0.0
 10
162.6698671145
 20
163.9868854375
 30
0.0
 10
162.6698671145
 20
163.6503567596
 30
0.0
  0
SPLINE
  5
24D
100
AcDbEntity
  8
0
100
AcDbSpline
 62
7
  6
BYLAYER
 70
0
 71
3
 72
11
 73
7
 74
0
 42
0.0000001
 43
0.0000001
 44
0.0000000001
 40
0.0
 40
0.0
 40
0.0
 40
0.0
 40
0.2659216153
 40
0.5177505723
 40
0.7607701554
 40
1.0
 40
1.0
 40
1.0
 40
1.0
 10
107.0765145644
 20
141.4228248371
 30
0.0
 10
107.0942811783
 20
141.8302084077
 30
0.0
 10
107.1952676769
 20
142.6232137236
 30
0.0
 10
107.5849219293
 20
143.7337658355
 30
0.0
 10
108.2214955744
 20
144.6789249051
 30
0.0
 10
108.8071628341
 20
145.1528020059
 30
0.0
 10
109.1248569141
 20
145.3362216736
 30
0.0
  0
SPLINE
  5
24E
100
AcDbEntity
  8
0
100
AcDbSpline
 62
7
  6
BYLAYER
 70
0
 71
3
 72
11
 73
7
 74
0
 42
0.0000001
 43
0.0000001
 44
0.0000000001
 40
0.0
 40
0.0
 40
0.0
 40
0.0
 40
0.2397969067
 40
0.4829574067
 40
0.7348024233
 40
1.0
 40
1.0
 40
1.0
 40
1.0
 10
117.2528205234
 20
131.2580917055
 30
0.0
 10
116.9414072363
 20
131.0782982335
 30
0.0
 10
116.2540682067
 20
130.8114084217
 30
0.0
 10
115.1424157172
 20
130.7253298931
 30
0.0
 10
114.0097838783
 20
130.9235519999
 30
0.0
 10
113.2858399881
 20
131.2156924942
 30
0.0
 10
112.9305446898
 20
131.3943352597
 30
0.0
  0
SPLINE
  5
24F
100
AcDbEntity
  8
0
100
AcDbSpline
 62
7
  6
BYLAYER
 70
0
 71
3
 72
11
 73
7
 74
0
 42
0.0000001
 43
0.0000001
 44
0.0000000001
 40
0.0
 40
0.0
 40
0.0
 40
0.0
 40
0.2830429971
 40
0.5427815118
 40
0.7801621697
 40
1.0
 40
1.0
 40
1.0
 40
1.0
 10
162.6698671145
 20
163.6503567596
 30
0.0
 10
162.6698671145
 20
163.4897955292
 30
0.0
 10
162.6498753021
 20
163.1812984122
 30
0.0
 10
162.5517749178
 20
162.7475009406
 30
0.0
 10
162.3874279011
 20
162.3724469592
 30
0.0
 10
162.2304030903
 20
162.1621575904
 30
0.0
 10
162.1431868562
 20
162.0730219909
 30
0.0
  0
SPLINE
  5
250
100
AcDbEntity
  8
0
100
AcDbSpline
 62
7
  6
BYLAYER
 70
0
 71
3
 72
11
 73
7
 74
0
 42
0.0000001
 43
0.0000001
 44
0.0000000001
 40
0.0
 40
0.0
 40
0.0
 40
0.0
 40
0.2618177692
 40
0.5124776749
 40
0.7572086523
 40
1.0
 40
1.0
 40
1.0
 40
1.0
 10
104.6448353753
 20
137.7268244954
 30
0.0
 10
104.6448353753
 20
138.0460857391
 30
0.0
 10
104.6995269149
 20
138.6732587805
 30
0.0
 10
104.9802777224
 20
139.5622459919
 30
0.0
 10
105.4750500101
 20
140.3287239423
 30
0.0
 10
105.9440547051
 20
140.7135073828
 30
0.0
 10
106.2004508957
 20
140.8615369089
 30
0.0
  0
SPLINE
  5
251
100
AcDbEntity
  8
0
100
AcDbSpline
 62
7
  6
BYLAYER
 70
0
 71
3
 72
11
 73
7
 74
0
 42
0.0000001
 43
0.0000001
 44
0.0000000001
 40
0.0
 40
0.0
 40
0.0
 40
0.0
 40
0.2414284398
 40
0.4850939784
 40
0.7360462659
 40
1.0
 40
1.0
 40
1.0
 40
1.0
 10
111.9154253078
 20
130.9628517764
 30
0.0
 10
111.6400660784
 20
130.8038740001
 30
0.0
 10
111.0252951984
 20
130.5808673831
 30
0.0
 10
110.0414855288
 20
130.565492008
 30
0.0
 10
109.0667201813
 20
130.827339008
 30
0.0
 10
108.4631590009
 20
131.1478552275
 30
0.0
 10
108.1715634233
 20
131.3370993679
 30
0.0
  0
SPLINE
  5
252
100
AcDbEntity
  8
0
100
AcDbSpline
 62
7
  6
BYLAYER
 70
0
 71
3
 72
9
 73
5
 74
0
 42
0.0000001
 43
0.0000001
 44
0.0000000001
 40
0.0
 40
0.0
 40
0.0
 40
0.0
 40
0.7477843708
 40
1.0
 40
1.0
 40
1.0
 40
1.0
 10
105.6847360764
 20
137.500443215
 30
0.0
 10
105.7743732801
 20
137.6154154812
 30
0.0
 10
105.9168568382
 20
137.7537706737
 30
0.0
 10
106.0808288717
 20
137.8595385256
 30
0.0
 10
106.1234123971
 20
137.8841239887
 30
0.0
  0
SPLINE
  5
253
100
AcDbEntity
  8
0
100
AcDbSpline
 62
7
  6
BYLAYER
 70
0
 71
3
 72
16
 73
12
 74
0
 42
0.0000001
 43
0.0000001
 44
0.0000000001
 40
0.0
 40
0.0
 40
0.0
 40
0.0
 40
0.054126304
 40
0.1080141825
 40
0.2181578611
 40
0.3351105445
 40
0.4615633813
 40
0.5961921468
 40
0.7345276856
 40
0.8707217933
 40
1.0
 40
1.0
 40
1.0
 40
1.0
 10
106.1234123971
 20
137.8841239887
 30
0.0
 10
106.2189736673
 20
137.9392959845
 30
0.0
 10
106.4228065037
 20
138.0282554581
 30
0.0
 10
106.8622051501
 20
138.1140753812
 30
0.0
 10
107.4454383427
 20
138.0486858593
 30
0.0
 10
108.1082406572
 20
137.7449877991
 30
0.0
 10
108.7195491409
 20
137.2665283085
 30
0.0
 10
109.2569154697
 20
136.6491137781
 30
0.0
 10
109.6928421642
 20
135.9333896879
 30
0.0
 10
110.0005532117
 20
135.1658469539
 30
0.0
 10
110.1079627567
 20
134.6309101628
 30
0.0
 10
110.1302445882
 20
134.3683009832
 30
0.0
  0
SPLINE
  5
254
100
AcDbEntity
  8
0
100
AcDbSpline
 62
7
  6
BYLAYER
 70
0
 71
3
 72
9
 73
5
 74
0
 42
0.0000001
 43
0.0000001
 44
0.0000000001
 40
0.0
 40
0.0
 40
0.0
 40
0.0
 40
0.2532965705
 40
1.0
 40
1.0
 40
1.0
 40
1.0
 10
110.1302445882
 20
134.3683009832
 30
0.0
 10
110.1321793495
 20
134.3454982766
 30
0.0
 10
110.1389128375
 20
134.2554011185
 30
0.0
 10
110.1419639919
 20
134.1650202868
 30
0.0
 10
110.1419639919
 20
134.097557712
 30
0.0
  0
SPLINE
  5
255
100
AcDbEntity
  8
0
100
AcDbSpline
 62
7
  6
BYLAYER
 70
0
 71
3
 72
11
 73
7
 74
0
 42
0.0000001
 43
0.0000001
 44
0.0000000001
 40
0.0
 40
0.0
 40
0.0
 40
0.0
 40
0.2635158875
 40
0.5150423013
 40
0.7583920011
 40
1.0
 40
1.0
 40
1.0
 40
1.0
 10
110.1419639919
 20
134.097557712
 30
0.0
 10
110.1419639919
 20
133.9222607285
 30
0.0
 10
110.1126710471
 20
133.5783376533
 30
0.0
 10
109.9595651148
 20
133.092573254
 30
0.0
 10
109.6920584284
 20
132.6743212845
 30
0.0
 10
109.4375888855
 20
132.4652157781
 30
0.0
 10
109.298398183
 20
132.3848544682
 30
0.0
  0
SPLINE
  5
256
100
AcDbEntity
  8
0
100
AcDbSpline
 62
7
  6
BYLAYER
 70
0
 71
3
 72
9
 73
5
 74
0
 42
0.0000001
 43
0.0000001
 44
0.0000000001
 40
0.0
 40
0.0
 40
0.0
 40
0.0
 40
0.2521563683
 40
1.0
 40
1.0
 40
1.0
 40
1.0
 10
109.298398183
 20
132.3848544682
 30
0.0
 10
109.2677801288
 20
132.3671772319
 30
0.0
 10
109.1438947057
 20
132.3014020034
 30
0.0
 10
109.0106786664
 20
132.2533803603
 30
0.0
 10
108.908919376
 20
132.2280916728
 30
0.0
  0
SPLINE
  5
257
100
AcDbEntity
  8
0
100
AcDbSpline
 62
7
  6
BYLAYER
 70
0
 71
3
 72
9
 73
5
 74
0
 42
0.0000001
 43
0.0000001
 44
0.0000000001
 40
0.0
 40
0.0
 40
0.0
 40
0.0
 40
0.2521563683
 40
1.0
 40
1.0
 40
1.0
 40
1.0
 10
108.4003763098
 20
131.8663843928
 30
0.0
 10
108.3697582555
 20
131.8487071565
 30
0.0
 10
108.2458728324
 20
131.782931928
 30
0.0
 10
108.1126567931
 20
131.7349102849
 30
0.0
 10
108.0108975027
 20
131.7096215974
 30
0.0
  0
SPLINE
  5
258
100
AcDbEntity
  8
0
100
AcDbSpline
 62
7
  6
BYLAYER
 70
0
 71
3
 72
9
 73
5
 74
0
 42
0.0000001
 43
0.0000001
 44
0.0000000001
 40
0.0
 40
0.0
 40
0.0
 40
0.0
 40
0.2574832771
 40
1.0
 40
1.0
 40
1.0
 40
1.0
 10
109.2439421187
 20
133.5790876366
 30
0.0
 10
109.2439421187
 20
133.5139056069
 30
0.0
 10
109.2359148963
 20
133.2609302263
 30
0.0
 10
109.1928322237
 20
133.008203179
 30
0.0
 10
109.1366198978
 20
132.8288366998
 30
0.0
  0
SPLINE
  5
259
100
AcDbEntity
  8
0
100
AcDbSpline
 62
7
  6
BYLAYER
 70
0
 71
3
 72
9
 73
5
 74
0
 42
0.0000001
 43
0.0000001
 44
0.0000000001
 40
0.0
 40
0.0
 40
0.0
 40
0.0
 40
0.5050903287
 40
1.0
 40
1.0
 40
1.0
 40
1.0
 10
109.1366198978
 20
132.8288366998
 30
0.0
 10
109.0745130094
 20
132.6306614112
 30
0.0
 10
108.8919279381
 20
132.2522831233
 30
0.0
 10
108.5766069724
 20
131.968130606
 30
0.0
 10
108.4003763098
 20
131.8663843928
 30
0.0
  0
SPLINE
  5
25A
100
AcDbEntity
  8
0
100
AcDbSpline
 62
7
  6
BYLAYER
 70
0
 71
3
 72
9
 73
5
 74
0
 42
0.0000001
 43
0.0000001
 44
0.0000000001
 40
0.0
 40
0.0
 40
0.0
 40
0.0
 40
0.4688739134
 40
1.0
 40
1.0
 40
1.0
 40
1.0
 10
119.8454581767
 20
150.2155662755
 30
0.0
 10
120.3436792822
 20
150.0752242252
 30
0.0
 10
121.3619967122
 20
149.6153572707
 30
0.0
 10
122.2549124024
 20
148.955087884
 30
0.0
 10
122.6966129759
 20
148.569488524
 30
0.0
  0
SPLINE
  5
25B
100
AcDbEntity
  8
0
100
AcDbSpline
 62
7
  6
BYLAYER
 70
0
 71
3
 72
9
 73
5
 74
0
 42
0.0000001
 43
0.0000001
 44
0.0000000001
 40
0.0
 40
0.0
 40
0.0
 40
0.0
 40
0.4494986026
 40
1.0
 40
1.0
 40
1.0
 40
1.0
 10
21.6323082041
 20
88.2443887966
 30
0.0
 10
21.5894634707
 20
88.2196241502
 30
0.0
 10
21.515591076
 20
88.1269506752
 30
0.0
 10
21.5007867628
 20
88.014308299
 30
0.0
 10
21.5007867628
 20
87.9537015726
 30
0.0
  0
SPLINE
  5
25C
100
AcDbEntity
  8
0
100
AcDbSpline
 62
7
  6
BYLAYER
 70
0
 71
3
 72
16
 73
12
 74
0
 42
0.0000001
 43
0.0000001
 44
0.0000000001
 40
0.0
 40
0.0
 40
0.0
 40
0.0
 40
0.054126304
 40
0.1080141825
 40
0.2181578611
 40
0.3351105445
 40
0.4615633813
 40
0.5961921469
 40
0.7345276856
 40
0.8707217933
 40
1.0
 40
1.0
 40
1.0
 40
1.0
 10
105.2253905238
 20
137.3656539133
 30
0.0
 10
105.3209517941
 20
137.4208259091
 30
0.0
 10
105.5247846305
 20
137.5097853827
 30
0.0
 10
105.9641832769
 20
137.5956053057
 30
0.0
 10
106.5474164695
 20
137.5302157838
 30
0.0
 10
107.2102187841
 20
137.2265177236
 30
0.0
 10
107.8215272678
 20
136.748058233
 30
0.0
 10
108.3588935965
 20
136.1306437025
 30
0.0
 10
108.794820291
 20
135.4149196123
 30
0.0
 10
109.1025313385
 20
134.6473768783
 30
0.0
 10
109.2099408835
 20
134.1124400871
 30
0.0
 10
109.232222715
 20
133.8498309075
 30
0.0
  0
SPLINE
  5
25D
100
AcDbEntity
  8
0
100
AcDbSpline
 62
7
  6
BYLAYER
 70
0
 71
3
 72
9
 73
5
 74
0
 42
0.0000001
 43
0.0000001
 44
0.0000000001
 40
0.0
 40
0.0
 40
0.0
 40
0.0
 40
0.2532965705
 40
1.0
 40
1.0
 40
1.0
 40
1.0
 10
109.232222715
 20
133.8498309075
 30
0.0
 10
109.2341574763
 20
133.8270282009
 30
0.0
 10
109.2408909643
 20
133.7369310429
 30
0.0
 10
109.2439421187
 20
133.6465502113
 30
0.0
 10
109.2439421187
 20
133.5790876366
 30
0.0
  0
SPLINE
  5
25E
100
AcDbEntity
  8
0
100
AcDbSpline
 62
7
  6
BYLAYER
 70
0
 71
3
 72
10
 73
6
 74
0
 42
0.0000001
 43
0.0000001
 44
0.0000000001
 40
0.0
 40
0.0
 40
0.0
 40
0.0
 40
0.5082981959
 40
0.7541593801
 40
1.0
 40
1.0
 40
1.0
 40
1.0
 10
90.0389322933
 20
127.7385300788
 30
0.0
 10
90.0764743131
 20
128.0089971205
 30
0.0
 10
90.2016646523
 20
128.4097858554
 30
0.0
 10
90.5306866577
 20
128.840164218
 30
0.0
 10
90.7426672613
 20
129.0040996508
 30
0.0
 10
90.8570405517
 20
129.0701327066
 30
0.0
  0
SPLINE
  5
25F
100
AcDbEntity
  8
0
100
AcDbSpline
 62
7
  6
BYLAYER
 70
0
 71
3
 72
11
 73
7
 74
0
 42
0.0000001
 43
0.0000001
 44
0.0000000001
 40
0.0
 40
0.0
 40
0.0
 40
0.0
 40
0.2392060642
 40
0.4812699124
 40
0.7331590703
 40
1.0
 40
1.0
 40
1.0
 40
1.0
 10
90.8570405517
 20
129.0701327066
 30
0.0
 10
91.0109613339
 20
129.1589983812
 30
0.0
 10
91.3565248981
 20
129.281757528
 30
0.0
 10
91.9097689244
 20
129.2801959905
 30
0.0
 10
92.4582691859
 20
129.1208439633
 30
0.0
 10
92.7970463543
 20
128.9307776366
 30
0.0
 10
92.9609689564
 20
128.8192499508
 30
0.0
  0
SPLINE
  5
260
100
AcDbEntity
  8
0
100
AcDbSpline
 62
7
  6
BYLAYER
 70
0
 71
3
 72
11
 73
7
 74
0
 42
0.0000001
 43
0.0000001
 44
0.0000000001
 40
0.0
 40
0.0
 40
0.0
 40
0.0
 40
0.2424476523
 40
0.4993528129
 40
0.756478045
 40
1.0
 40
1.0
 40
1.0
 40
1.0
 10
92.9609689564
 20
128.8192499508
 30
0.0
 10
93.2205302746
 20
128.642652747
 30
0.0
 10
93.7059111085
 20
128.2044754262
 30
0.0
 10
94.2822832357
 20
127.4050412242
 30
0.0
 10
94.6943360979
 20
126.5082285672
 30
0.0
 10
94.8372133154
 20
125.8685123441
 30
0.0
 10
94.8638727428
 20
125.5543097008
 30
0.0
  0
SPLINE
  5
261
100
AcDbEntity
  8
0
100
AcDbSpline
 62
7
  6
BYLAYER
 70
0
 71
3
 72
9
 73
5
 74
0
 42
0.0000001
 43
0.0000001
 44
0.0000000001
 40
0.0
 40
0.0
 40
0.0
 40
0.0
 40
0.2532965705
 40
1.0
 40
1.0
 40
1.0
 40
1.0
 10
94.8638727428
 20
125.5543097008
 30
0.0
 10
94.8658075041
 20
125.5315069942
 30
0.0
 10
94.8725409921
 20
125.4414098363
 30
0.0
 10
94.8755921465
 20
125.3510290047
 30
0.0
 10
94.8755921465
 20
125.2835664299
 30
0.0
  0
SPLINE
  5
262
100
AcDbEntity
  8
0
100
AcDbSpline
 62
7
  6
BYLAYER
 70
0
 71
3
 72
9
 73
5
 74
0
 42
0.0000001
 43
0.0000001
 44
0.0000000001
 40
0.0
 40
0.0
 40
0.0
 40
0.0
 40
0.2574832771
 40
1.0
 40
1.0
 40
1.0
 40
1.0
 10
94.8755921465
 20
125.2835664299
 30
0.0
 10
94.8755921465
 20
125.2183844002
 30
0.0
 10
94.8675649241
 20
124.9654090196
 30
0.0
 10
94.8244822515
 20
124.7126819724
 30
0.0
 10
94.7682699256
 20
124.5333154932
 30
0.0
  0
SPLINE
  5
263
100
AcDbEntity
  8
0
100
AcDbSpline
 62
7
  6
BYLAYER
 70
0
 71
3
 72
9
 73
5
 74
0
 42
0.0000001
 43
0.0000001
 44
0.0000000001
 40
0.0
 40
0.0
 40
0.0
 40
0.0
 40
0.5050903287
 40
1.0
 40
1.0
 40
1.0
 40
1.0
 10
94.7682699256
 20
124.5333154932
 30
0.0
 10
94.7061630372
 20
124.3351402046
 30
0.0
 10
94.5235779659
 20
123.9567619166
 30
0.0
 10
94.2082570002
 20
123.6726093993
 30
0.0
 10
94.0320263376
 20
123.5708631861
 30
0.0
  0
SPLINE
  5
264
100
AcDbEntity
  8
0
100
AcDbSpline
 62
7
  6
BYLAYER
 70
0
 71
3
 72
14
 73
10
 74
0
 42
0.0000001
 43
0.0000001
 44
0.0000000001
 40
0.0
 40
0.0
 40
0.0
 40
0.0
 40
0.1080916085
 40
0.2180376638
 40
0.3332742712
 40
0.456496403
 40
0.5879879412
 40
0.7253687788
 40
1.0
 40
1.0
 40
1.0
 40
1.0
 10
94.0320263376
 20
123.5708631861
 30
0.0
 10
93.8641248697
 20
123.4739258071
 30
0.0
 10
93.4821753276
 20
123.3457482871
 30
0.0
 10
92.874503236
 20
123.374480602
 30
0.0
 10
92.2791066112
 20
123.5865989375
 30
0.0
 10
91.7182102476
 20
123.9495143572
 30
0.0
 10
91.2047067201
 20
124.4353027429
 30
0.0
 10
90.6103766411
 20
125.2108382903
 30
0.0
 10
90.2908869216
 20
125.8940111908
 30
0.0
 10
90.1578797779
 20
126.3682991159
 30
0.0
  0
SPLINE
  5
265
100
AcDbEntity
  8
0
100
AcDbSpline
 62
7
  6
BYLAYER
 70
0
 71
3
 72
9
 73
5
 74
0
 42
0.0000001
 43
0.0000001
 44
0.0000000001
 40
0.0
 40
0.0
 40
0.0
 40
0.0
 40
0.7477843708
 40
1.0
 40
1.0
 40
1.0
 40
1.0
 10
103.8886923299
 20
136.4635030642
 30
0.0
 10
103.9783295336
 20
136.5784753304
 30
0.0
 10
104.1208130917
 20
136.7168305229
 30
0.0
 10
104.2847851252
 20
136.8225983748
 30
0.0
 10
104.3273686506
 20
136.8471838379
 30
0.0
  0
SPLINE
  5
266
100
AcDbEntity
  8
0
100
AcDbSpline
 62
7
  6
BYLAYER
 70
0
 71
3
 72
9
 73
5
 74
0
 42
0.0000001
 43
0.0000001
 44
0.0000000001
 40
0.0
 40
0.0
 40
0.0
 40
0.0
 40
0.2521563683
 40
1.0
 40
1.0
 40
1.0
 40
1.0
 10
94.9300482108
 20
124.0893332615
 30
0.0
 10
94.8994301566
 20
124.0716560252
 30
0.0
 10
94.7755447335
 20
124.0058807967
 30
0.0
 10
94.6423286942
 20
123.9578591536
 30
0.0
 10
94.5405694038
 20
123.9325704661
 30
0.0
  0
SPLINE
  5
267
100
AcDbEntity
  8
0
100
AcDbSpline
 62
7
  6
BYLAYER
 70
0
 71
3
 72
9
 73
5
 74
0
 42
0.0000001
 43
0.0000001
 44
0.0000000001
 40
0.0
 40
0.0
 40
0.0
 40
0.0
 40
0.2574832771
 40
1.0
 40
1.0
 40
1.0
 40
1.0
 10
95.7736140198
 20
125.8020365053
 30
0.0
 10
95.7736140198
 20
125.7368544756
 30
0.0
 10
95.7655867973
 20
125.483879095
 30
0.0
 10
95.7225041248
 20
125.2311520478
 30
0.0
 10
95.6662917989
 20
125.0517855686
 30
0.0
  0
SPLINE
  5
268
100
AcDbEntity
  8
0
100
AcDbSpline
 62
7
  6
BYLAYER
 70
0
 71
3
 72
9
 73
5
 74
0
 42
0.0000001
 43
0.0000001
 44
0.0000000001
 40
0.0
 40
0.0
 40
0.0
 40
0.0
 40
0.5050903287
 40
1.0
 40
1.0
 40
1.0
 40
1.0
 10
95.6662917989
 20
125.0517855686
 30
0.0
 10
95.6041849105
 20
124.85361028
 30
0.0
 10
95.4215998392
 20
124.475231992
 30
0.0
 10
95.1062788735
 20
124.1910794747
 30
0.0
 10
94.9300482108
 20
124.0893332615
 30
0.0
  0
SPLINE
  5
269
100
AcDbEntity
  8
0
100
AcDbSpline
 62
7
  6
BYLAYER
 70
0
 71
3
 72
11
 73
7
 74
0
 42
0.0000001
 43
0.0000001
 44
0.0000000001
 40
0.0
 40
0.0
 40
0.0
 40
0.0
 40
0.2392060642
 40
0.4812699124
 40
0.7331590703
 40
1.0
 40
1.0
 40
1.0
 40
1.0
 10
91.7550624249
 20
129.588602782
 30
0.0
 10
91.9089832072
 20
129.6774684566
 30
0.0
 10
92.2545467713
 20
129.8002276034
 30
0.0
 10
92.8077907977
 20
129.7986660659
 30
0.0
 10
93.3562910591
 20
129.6393140387
 30
0.0
 10
93.6950682276
 20
129.449247712
 30
0.0
 10
93.8589908297
 20
129.3377200262
 30
0.0
  0
SPLINE
  5
26A
100
AcDbEntity
  8
0
100
AcDbSpline
 62
7
  6
BYLAYER
 70
0
 71
3
 72
11
 73
7
 74
0
 42
0.0000001
 43
0.0000001
 44
0.0000000001
 40
0.0
 40
0.0
 40
0.0
 40
0.0
 40
0.2424476523
 40
0.4993528129
 40
0.756478045
 40
1.0
 40
1.0
 40
1.0
 40
1.0
 10
93.8589908297
 20
129.3377200262
 30
0.0
 10
94.1185521479
 20
129.1611228225
 30
0.0
 10
94.6039329818
 20
128.7229455016
 30
0.0
 10
95.180305109
 20
127.9235112997
 30
0.0
 10
95.5923579712
 20
127.0266986426
 30
0.0
 10
95.7352351887
 20
126.3869824195
 30
0.0
 10
95.7618946161
 20
126.0727797762
 30
0.0
  0
SPLINE
  5
26B
100
AcDbEntity
  8
0
100
AcDbSpline
 62
7
  6
BYLAYER
 70
0
 71
3
 72
9
 73
5
 74
0
 42
0.0000001
 43
0.0000001
 44
0.0000000001
 40
0.0
 40
0.0
 40
0.0
 40
0.0
 40
0.2532965705
 40
1.0
 40
1.0
 40
1.0
 40
1.0
 10
95.7618946161
 20
126.0727797762
 30
0.0
 10
95.7638293773
 20
126.0499770697
 30
0.0
 10
95.7705628653
 20
125.9598799117
 30
0.0
 10
95.7736140198
 20
125.8694990801
 30
0.0
 10
95.7736140198
 20
125.8020365053
 30
0.0
  0
SPLINE
  5
26C
100
AcDbEntity
  8
0
100
AcDbSpline
 62
7
  6
BYLAYER
 70
0
 71
3
 72
9
 73
5
 74
0
 42
0.0000001
 43
0.0000001
 44
0.0000000001
 40
0.0
 40
0.0
 40
0.0
 40
0.0
 40
0.7477843708
 40
1.0
 40
1.0
 40
1.0
 40
1.0
 10
91.3163861042
 20
129.2049220083
 30
0.0
 10
91.4060233079
 20
129.3198942746
 30
0.0
 10
91.548506866
 20
129.458249467
 30
0.0
 10
91.7124788995
 20
129.5640173189
 30
0.0
 10
91.7550624249
 20
129.588602782
 30
0.0
  0
SPLINE
  5
26D
100
AcDbEntity
  8
0
100
AcDbSpline
 62
7
  6
BYLAYER
 70
0
 71
3
 72
11
 73
7
 74
0
 42
0.0000001
 43
0.0000001
 44
0.0000000001
 40
0.0
 40
0.0
 40
0.0
 40
0.0
 40
0.2392060641
 40
0.4812699124
 40
0.7331590703
 40
1.0
 40
1.0
 40
1.0
 40
1.0
 10
104.3273686506
 20
136.8471838379
 30
0.0
 10
104.4812894328
 20
136.9360495125
 30
0.0
 10
104.8268529971
 20
137.0588086593
 30
0.0
 10
105.3800970236
 20
137.0572471217
 30
0.0
 10
105.9285972852
 20
136.8978950944
 30
0.0
 10
106.2673744537
 20
136.7078287676
 30
0.0
 10
106.4312970558
 20
136.5963010817
 30
0.0
  0
SPLINE
  5
26E
100
AcDbEntity
  8
0
100
AcDbSpline
 62
7
  6
BYLAYER
 70
0
 71
3
 72
11
 73
7
 74
0
 42
0.0000001
 43
0.0000001
 44
0.0000000001
 40
0.0
 40
0.0
 40
0.0
 40
0.0
 40
0.2424476523
 40
0.4993528129
 40
0.756478045
 40
1.0
 40
1.0
 40
1.0
 40
1.0
 10
106.4312970558
 20
136.5963010817
 30
0.0
 10
106.6908583739
 20
136.419703878
 30
0.0
 10
107.1762392077
 20
135.9815265571
 30
0.0
 10
107.7526113348
 20
135.1820923552
 30
0.0
 10
108.1646641969
 20
134.2852796983
 30
0.0
 10
108.3075414143
 20
133.6455634753
 30
0.0
 10
108.3342008417
 20
133.331360832
 30
0.0
  0
SPLINE
  5
26F
100
AcDbEntity
  8
0
100
AcDbSpline
 62
7
  6
BYLAYER
 70
0
 71
3
 72
9
 73
5
 74
0
 42
0.0000001
 43
0.0000001
 44
0.0000000001
 40
0.0
 40
0.0
 40
0.0
 40
0.0
 40
0.2532965705
 40
1.0
 40
1.0
 40
1.0
 40
1.0
 10
108.3342008417
 20
133.331360832
 30
0.0
 10
108.336135603
 20
133.3085581255
 30
0.0
 10
108.342869091
 20
133.2184609675
 30
0.0
 10
108.3459202454
 20
133.1280801359
 30
0.0
 10
108.3459202454
 20
133.0606175611
 30
0.0
  0
SPLINE
  5
270
100
AcDbEntity
  8
0
100
AcDbSpline
 62
7
  6
BYLAYER
 70
0
 71
3
 72
9
 73
5
 74
0
 42
0.0000001
 43
0.0000001
 44
0.0000000001
 40
0.0
 40
0.0
 40
0.0
 40
0.0
 40
0.7477843708
 40
1.0
 40
1.0
 40
1.0
 40
1.0
 10
92.2144079775
 20
129.7233920838
 30
0.0
 10
92.3040451812
 20
129.83836435
 30
0.0
 10
92.4465287393
 20
129.9767195424
 30
0.0
 10
92.6105007728
 20
130.0824873944
 30
0.0
 10
92.6530842982
 20
130.1070728575
 30
0.0
  0
SPLINE
  5
271
100
AcDbEntity
  8
0
100
AcDbSpline
 62
7
  6
BYLAYER
 70
0
 71
3
 72
11
 73
7
 74
0
 42
0.0000001
 43
0.0000001
 44
0.0000000001
 40
0.0
 40
0.0
 40
0.0
 40
0.0
 40
0.2392060642
 40
0.4812699124
 40
0.7331590703
 40
1.0
 40
1.0
 40
1.0
 40
1.0
 10
92.6530842982
 20
130.1070728575
 30
0.0
 10
92.8070050804
 20
130.1959385321
 30
0.0
 10
93.1525686446
 20
130.3186976788
 30
0.0
 10
93.705812671
 20
130.3171361413
 30
0.0
 10
94.2543129324
 20
130.1577841141
 30
0.0
 10
94.5930901009
 20
129.9677177874
 30
0.0
 10
94.7570127029
 20
129.8561901016
 30
0.0
  0
SPLINE
  5
272
100
AcDbEntity
  8
0
100
AcDbSpline
 62
7
  6
BYLAYER
 70
0
 71
3
 72
11
 73
7
 74
0
 42
0.0000001
 43
0.0000001
 44
0.0000000001
 40
0.0
 40
0.0
 40
0.0
 40
0.0
 40
0.2424476523
 40
0.4993528129
 40
0.756478045
 40
1.0
 40
1.0
 40
1.0
 40
1.0
 10
94.7570127029
 20
129.8561901016
 30
0.0
 10
95.0165740212
 20
129.6795928979
 30
0.0
 10
95.5019548551
 20
129.241415577
 30
0.0
 10
96.0783269822
 20
128.4419813751
 30
0.0
 10
96.4903798445
 20
127.545168718
 30
0.0
 10
96.6332570619
 20
126.905452495
 30
0.0
 10
96.6599164893
 20
126.5912498516
 30
0.0
  0
SPLINE
  5
273
100
AcDbEntity
  8
0
100
AcDbSpline
 62
7
  6
BYLAYER
 70
0
 71
3
 72
9
 73
5
 74
0
 42
0.0000001
 43
0.0000001
 44
0.0000000001
 40
0.0
 40
0.0
 40
0.0
 40
0.0
 40
0.2532965705
 40
1.0
 40
1.0
 40
1.0
 40
1.0
 10
96.6599164893
 20
126.5912498516
 30
0.0
 10
96.6618512506
 20
126.5684471451
 30
0.0
 10
96.6685847386
 20
126.4783499871
 30
0.0
 10
96.671635893
 20
126.3879691555
 30
0.0
 10
96.671635893
 20
126.3205065807
 30
0.0
  0
SPLINE
  5
274
100
AcDbEntity
  8
0
100
AcDbSpline
 62
7
  6
BYLAYER
 70
0
 71
3
 72
9
 73
5
 74
0
 42
0.0000001
 43
0.0000001
 44
0.0000000001
 40
0.0
 40
0.0
 40
0.0
 40
0.0
 40
0.2574832771
 40
1.0
 40
1.0
 40
1.0
 40
1.0
 10
96.671635893
 20
126.3205065807
 30
0.0
 10
96.671635893
 20
126.2553245511
 30
0.0
 10
96.6636086706
 20
126.0023491704
 30
0.0
 10
96.6205259981
 20
125.7496221232
 30
0.0
 10
96.5643136722
 20
125.570255644
 30
0.0
  0
SPLINE
  5
275
100
AcDbEntity
  8
0
100
AcDbSpline
 62
7
  6
BYLAYER
 70
0
 71
3
 72
9
 73
5
 74
0
 42
0.0000001
 43
0.0000001
 44
0.0000000001
 40
0.0
 40
0.0
 40
0.0
 40
0.0
 40
0.5050903287
 40
1.0
 40
1.0
 40
1.0
 40
1.0
 10
96.5643136722
 20
125.570255644
 30
0.0
 10
96.5022067837
 20
125.3720803554
 30
0.0
 10
96.3196217124
 20
124.9937020674
 30
0.0
 10
96.0043007467
 20
124.7095495501
 30
0.0
 10
95.8280700841
 20
124.6078033369
 30
0.0
  0
SPLINE
  5
276
100
AcDbEntity
  8
0
100
AcDbSpline
 62
7
  6
BYLAYER
 70
0
 71
3
 72
9
 73
5
 74
0
 42
0.0000001
 43
0.0000001
 44
0.0000000001
 40
0.0
 40
0.0
 40
0.0
 40
0.0
 40
0.2521563683
 40
1.0
 40
1.0
 40
1.0
 40
1.0
 10
95.8280700841
 20
124.6078033369
 30
0.0
 10
95.7974520299
 20
124.5901261006
 30
0.0
 10
95.6735666067
 20
124.5243508722
 30
0.0
 10
95.5403505674
 20
124.476329229
 30
0.0
 10
95.4385912771
 20
124.4510405416
 30
0.0
  0
SPLINE
  5
277
100
AcDbEntity
  8
0
100
AcDbSpline
 62
7
  6
BYLAYER
 70
0
 71
3
 72
9
 73
5
 74
0
 42
0.0000001
 43
0.0000001
 44
0.0000000001
 40
0.0
 40
0.0
 40
0.0
 40
0.0
 40
0.2574832771
 40
1.0
 40
1.0
 40
1.0
 40
1.0
 10
108.3459202454
 20
133.0606175611
 30
0.0
 10
108.3459202454
 20
132.9954355315
 30
0.0
 10
108.337893023
 20
132.7424601508
 30
0.0
 10
108.2948103505
 20
132.4897331036
 30
0.0
 10
108.2385980246
 20
132.3103666244
 30
0.0
  0
SPLINE
  5
278
100
AcDbEntity
  8
0
100
AcDbSpline
 62
7
  6
BYLAYER
 70
0
 71
3
 72
9
 73
5
 74
0
 42
0.0000001
 43
0.0000001
 44
0.0000000001
 40
0.0
 40
0.0
 40
0.0
 40
0.0
 40
0.5050903287
 40
1.0
 40
1.0
 40
1.0
 40
1.0
 10
108.2385980246
 20
132.3103666244
 30
0.0
 10
108.1764911361
 20
132.1121913358
 30
0.0
 10
107.9939060648
 20
131.7338130479
 30
0.0
 10
107.6785850991
 20
131.4496605305
 30
0.0
 10
107.5023544365
 20
131.3479143174
 30
0.0
  0
SPLINE
  5
279
100
AcDbEntity
  8
0
100
AcDbSpline
 62
7
  6
BYLAYER
 70
0
 71
3
 72
9
 73
5
 74
0
 42
0.0000001
 43
0.0000001
 44
0.0000000001
 40
0.0
 40
0.0
 40
0.0
 40
0.0
 40
0.2521563683
 40
1.0
 40
1.0
 40
1.0
 40
1.0
 10
96.7260919574
 20
125.1262734124
 30
0.0
 10
96.6954739031
 20
125.108596176
 30
0.0
 10
96.57158848
 20
125.0428209476
 30
0.0
 10
96.4383724407
 20
124.9947993044
 30
0.0
 10
96.3366131503
 20
124.969510617
 30
0.0
  0
SPLINE
  5
27A
100
AcDbEntity
  8
0
100
AcDbSpline
 62
7
  6
BYLAYER
 70
0
 71
3
 72
9
 73
5
 74
0
 42
0.0000001
 43
0.0000001
 44
0.0000000001
 40
0.0
 40
0.0
 40
0.0
 40
0.0
 40
0.2574832771
 40
1.0
 40
1.0
 40
1.0
 40
1.0
 10
97.5696577663
 20
126.8389766561
 30
0.0
 10
97.5696577663
 20
126.7737946265
 30
0.0
 10
97.5616305439
 20
126.5208192458
 30
0.0
 10
97.5185478713
 20
126.2680921986
 30
0.0
 10
97.4623355454
 20
126.0887257194
 30
0.0
  0
SPLINE
  5
27B
100
AcDbEntity
  8
0
100
AcDbSpline
 62
7
  6
BYLAYER
 70
0
 71
3
 72
9
 73
5
 74
0
 42
0.0000001
 43
0.0000001
 44
0.0000000001
 40
0.0
 40
0.0
 40
0.0
 40
0.0
 40
0.5050903287
 40
1.0
 40
1.0
 40
1.0
 40
1.0
 10
97.4623355454
 20
126.0887257194
 30
0.0
 10
97.400228657
 20
125.8905504308
 30
0.0
 10
97.2176435857
 20
125.5121721429
 30
0.0
 10
96.90232262
 20
125.2280196255
 30
0.0
 10
96.7260919574
 20
125.1262734124
 30
0.0
  0
SPLINE
  5
27C
100
AcDbEntity
  8
0
100
AcDbSpline
 62
7
  6
BYLAYER
 70
0
 71
3
 72
11
 73
7
 74
0
 42
0.0000001
 43
0.0000001
 44
0.0000000001
 40
0.0
 40
0.0
 40
0.0
 40
0.0
 40
0.2392060642
 40
0.4812699124
 40
0.7331590703
 40
1.0
 40
1.0
 40
1.0
 40
1.0
 10
93.5511061714
 20
130.6255429329
 30
0.0
 10
93.7050269537
 20
130.7144086075
 30
0.0
 10
94.0505905179
 20
130.8371677543
 30
0.0
 10
94.6038345442
 20
130.8356062167
 30
0.0
 10
95.1523348057
 20
130.6762541895
 30
0.0
 10
95.4911119741
 20
130.4861878629
 30
0.0
 10
95.6550345762
 20
130.374660177
 30
0.0
  0
SPLINE
  5
27D
100
AcDbEntity
  8
0
100
AcDbSpline
 62
7
  6
BYLAYER
 70
0
 71
3
 72
11
 73
7
 74
0
 42
0.0000001
 43
0.0000001
 44
0.0000000001
 40
0.0
 40
0.0
 40
0.0
 40
0.0
 40
0.2424476523
 40
0.4993528129
 40
0.756478045
 40
1.0
 40
1.0
 40
1.0
 40
1.0
 10
95.6550345762
 20
130.374660177
 30
0.0
 10
95.9145958944
 20
130.1980629733
 30
0.0
 10
96.3999767283
 20
129.7598856524
 30
0.0
 10
96.9763488555
 20
128.9604514505
 30
0.0
 10
97.3884017177
 20
128.0636387935
 30
0.0
 10
97.5312789352
 20
127.4239225704
 30
0.0
 10
97.5579383626
 20
127.109719927
 30
0.0
  0
SPLINE
  5
27E
100
AcDbEntity
  8
0
100
AcDbSpline
 62
7
  6
BYLAYER
 70
0
 71
3
 72
9
 73
5
 74
0
 42
0.0000001
 43
0.0000001
 44
0.0000000001
 40
0.0
 40
0.0
 40
0.0
 40
0.0
 40
0.2532965705
 40
1.0
 40
1.0
 40
1.0
 40
1.0
 10
97.5579383626
 20
127.109719927
 30
0.0
 10
97.5598731239
 20
127.0869172205
 30
0.0
 10
97.5666066119
 20
126.9968200625
 30
0.0
 10
97.5696577663
 20
126.9064392309
 30
0.0
 10
97.5696577663
 20
126.8389766561
 30
0.0
  0
SPLINE
  5
27F
100
AcDbEntity
  8
0
100
AcDbSpline
 62
7
  6
BYLAYER
 70
0
 71
3
 72
9
 73
5
 74
0
 42
0.0000001
 43
0.0000001
 44
0.0000000001
 40
0.0
 40
0.0
 40
0.0
 40
0.0
 40
0.7477843708
 40
1.0
 40
1.0
 40
1.0
 40
1.0
 10
93.1124298507
 20
130.2418621592
 30
0.0
 10
93.2020670544
 20
130.3568344254
 30
0.0
 10
93.3445506125
 20
130.4951896179
 30
0.0
 10
93.508522646
 20
130.6009574698
 30
0.0
 10
93.5511061714
 20
130.6255429329
 30
0.0
  0
SPLINE
  5
280
100
AcDbEntity
  8
0
100
AcDbSpline
 62
7
  6
BYLAYER
 70
0
 71
3
 72
9
 73
5
 74
0
 42
0.0000001
 43
0.0000001
 44
0.0000000001
 40
0.0
 40
0.0
 40
0.0
 40
0.0
 40
0.7477843708
 40
1.0
 40
1.0
 40
1.0
 40
1.0
 10
94.010451724
 20
130.7603322346
 30
0.0
 10
94.1000889277
 20
130.8753045008
 30
0.0
 10
94.2425724858
 20
131.0136596933
 30
0.0
 10
94.4065445193
 20
131.1194275452
 30
0.0
 10
94.4491280447
 20
131.1440130083
 30
0.0
  0
SPLINE
  5
281
100
AcDbEntity
  8
0
100
AcDbSpline
 62
7
  6
BYLAYER
 70
0
 71
3
 72
11
 73
7
 74
0
 42
0.0000001
 43
0.0000001
 44
0.0000000001
 40
0.0
 40
0.0
 40
0.0
 40
0.0
 40
0.2392060642
 40
0.4812699124
 40
0.7331590703
 40
1.0
 40
1.0
 40
1.0
 40
1.0
 10
94.4491280447
 20
131.1440130083
 30
0.0
 10
94.6030488269
 20
131.2328786829
 30
0.0
 10
94.9486123911
 20
131.3556378297
 30
0.0
 10
95.5018564175
 20
131.3540762922
 30
0.0
 10
96.0503566789
 20
131.194724265
 30
0.0
 10
96.3891338474
 20
131.0046579383
 30
0.0
 10
96.5530564494
 20
130.8931302525
 30
0.0
  0
SPLINE
  5
282
100
AcDbEntity
  8
0
100
AcDbSpline
 62
7
  6
BYLAYER
 70
0
 71
3
 72
11
 73
7
 74
0
 42
0.0000001
 43
0.0000001
 44
0.0000000001
 40
0.0
 40
0.0
 40
0.0
 40
0.0
 40
0.2424476523
 40
0.4993528129
 40
0.756478045
 40
1.0
 40
1.0
 40
1.0
 40
1.0
 10
96.5530564494
 20
130.8931302525
 30
0.0
 10
96.8126177677
 20
130.7165330487
 30
0.0
 10
97.2979986016
 20
130.2783557279
 30
0.0
 10
97.8743707288
 20
129.4789215259
 30
0.0
 10
98.286423591
 20
128.5821088689
 30
0.0
 10
98.4293008085
 20
127.9423926458
 30
0.0
 10
98.4559602359
 20
127.6281900025
 30
0.0
  0
SPLINE
  5
283
100
AcDbEntity
  8
0
100
AcDbSpline
 62
7
  6
BYLAYER
 70
0
 71
3
 72
9
 73
5
 74
0
 42
0.0000001
 43
0.0000001
 44
0.0000000001
 40
0.0
 40
0.0
 40
0.0
 40
0.0
 40
0.2532965705
 40
1.0
 40
1.0
 40
1.0
 40
1.0
 10
98.4559602359
 20
127.6281900025
 30
0.0
 10
98.4578949971
 20
127.6053872959
 30
0.0
 10
98.4646284851
 20
127.5152901379
 30
0.0
 10
98.4676796395
 20
127.4249093063
 30
0.0
 10
98.4676796395
 20
127.3574467316
 30
0.0
  0
SPLINE
  5
284
100
AcDbEntity
  8
0
100
AcDbSpline
 62
7
  6
BYLAYER
 70
0
 71
3
 72
9
 73
5
 74
0
 42
0.0000001
 43
0.0000001
 44
0.0000000001
 40
0.0
 40
0.0
 40
0.0
 40
0.0
 40
0.2521563683
 40
1.0
 40
1.0
 40
1.0
 40
1.0
 10
107.5023544365
 20
131.3479143174
 30
0.0
 10
107.4717363823
 20
131.330237081
 30
0.0
 10
107.3478509591
 20
131.2644618526
 30
0.0
 10
107.2146349198
 20
131.2164402094
 30
0.0
 10
107.1128756295
 20
131.191151522
 30
0.0
  0
SPLINE
  5
285
100
AcDbEntity
  8
0
100
AcDbSpline
 62
7
  6
BYLAYER
 70
0
 71
3
 72
9
 73
5
 74
0
 42
0.0000001
 43
0.0000001
 44
0.0000000001
 40
0.0
 40
0.0
 40
0.0
 40
0.0
 40
0.2574832771
 40
1.0
 40
1.0
 40
1.0
 40
1.0
 10
98.4676796395
 20
127.3574467316
 30
0.0
 10
98.4676796395
 20
127.2922647019
 30
0.0
 10
98.4596524171
 20
127.0392893213
 30
0.0
 10
98.4165697446
 20
126.786562274
 30
0.0
 10
98.3603574187
 20
126.6071957948
 30
0.0
  0
SPLINE
  5
286
100
AcDbEntity
  8
0
100
AcDbSpline
 62
7
  6
BYLAYER
 70
0
 71
3
 72
9
 73
5
 74
0
 42
0.0000001
 43
0.0000001
 44
0.0000000001
 40
0.0
 40
0.0
 40
0.0
 40
0.0
 40
0.5050903287
 40
1.0
 40
1.0
 40
1.0
 40
1.0
 10
98.3603574187
 20
126.6071957948
 30
0.0
 10
98.2982505303
 20
126.4090205062
 30
0.0
 10
98.1156654589
 20
126.0306422183
 30
0.0
 10
97.8003444933
 20
125.746489701
 30
0.0
 10
97.6241138306
 20
125.6447434878
 30
0.0
  0
SPLINE
  5
287
100
AcDbEntity
  8
0
100
AcDbSpline
 62
7
  6
BYLAYER
 70
0
 71
3
 72
9
 73
5
 74
0
 42
0.0000001
 43
0.0000001
 44
0.0000000001
 40
0.0
 40
0.0
 40
0.0
 40
0.0
 40
0.2521563683
 40
1.0
 40
1.0
 40
1.0
 40
1.0
 10
97.6241138306
 20
125.6447434878
 30
0.0
 10
97.5934957764
 20
125.6270662515
 30
0.0
 10
97.4696103533
 20
125.561291023
 30
0.0
 10
97.336394314
 20
125.5132693799
 30
0.0
 10
97.2346350236
 20
125.4879806924
 30
0.0
  0
SPLINE
  5
288
100
AcDbEntity
  8
0
100
AcDbSpline
 62
7
  6
BYLAYER
 70
0
 71
3
 72
9
 73
5
 74
0
 42
0.0000001
 43
0.0000001
 44
0.0000000001
 40
0.0
 40
0.0
 40
0.0
 40
0.0
 40
0.2521563683
 40
1.0
 40
1.0
 40
1.0
 40
1.0
 10
98.5221357039
 20
126.1632135632
 30
0.0
 10
98.4915176497
 20
126.1455363269
 30
0.0
 10
98.3676322265
 20
126.0797610984
 30
0.0
 10
98.2344161872
 20
126.0317394553
 30
0.0
 10
98.1326568969
 20
126.0064507678
 30
0.0
  0
SPLINE
  5
289
100
AcDbEntity
  8
0
100
AcDbSpline
 62
7
  6
BYLAYER
 70
0
 71
3
 72
9
 73
5
 74
0
 42
0.0000001
 43
0.0000001
 44
0.0000000001
 40
0.0
 40
0.0
 40
0.0
 40
0.0
 40
0.2574832771
 40
1.0
 40
1.0
 40
1.0
 40
1.0
 10
99.3657015128
 20
127.875916807
 30
0.0
 10
99.3657015128
 20
127.8107347773
 30
0.0
 10
99.3576742904
 20
127.5577593967
 30
0.0
 10
99.3145916179
 20
127.3050323494
 30
0.0
 10
99.2583792919
 20
127.1256658702
 30
0.0
  0
SPLINE
  5
28A
100
AcDbEntity
  8
0
100
AcDbSpline
 62
7
  6
BYLAYER
 70
0
 71
3
 72
9
 73
5
 74
0
 42
0.0000001
 43
0.0000001
 44
0.0000000001
 40
0.0
 40
0.0
 40
0.0
 40
0.0
 40
0.5050903287
 40
1.0
 40
1.0
 40
1.0
 40
1.0
 10
99.2583792919
 20
127.1256658702
 30
0.0
 10
99.1962724035
 20
126.9274905817
 30
0.0
 10
99.0136873322
 20
126.5491122937
 30
0.0
 10
98.6983663665
 20
126.2649597764
 30
0.0
 10
98.5221357039
 20
126.1632135632
 30
0.0
  0
SPLINE
  5
28B
100
AcDbEntity
  8
0
100
AcDbSpline
 62
7
  6
BYLAYER
 70
0
 71
3
 72
9
 73
5
 74
0
 42
0.0000001
 43
0.0000001
 44
0.0000000001
 40
0.0
 40
0.0
 40
0.0
 40
0.0
 40
0.2521563683
 40
1.0
 40
1.0
 40
1.0
 40
1.0
 10
106.6043325632
 20
130.8294442419
 30
0.0
 10
106.573714509
 20
130.8117670056
 30
0.0
 10
106.4498290859
 20
130.7459917772
 30
0.0
 10
106.3166130466
 20
130.697970134
 30
0.0
 10
106.2148537562
 20
130.6726814466
 30
0.0
  0
SPLINE
  5
28C
100
AcDbEntity
  8
0
100
AcDbSpline
 62
7
  6
BYLAYER
 70
0
 71
3
 72
11
 73
7
 74
0
 42
0.0000001
 43
0.0000001
 44
0.0000000001
 40
0.0
 40
0.0
 40
0.0
 40
0.0
 40
0.2392060642
 40
0.4812699124
 40
0.7331590703
 40
1.0
 40
1.0
 40
1.0
 40
1.0
 10
95.347149918
 20
131.6624830837
 30
0.0
 10
95.5010707002
 20
131.7513487583
 30
0.0
 10
95.8466342644
 20
131.8741079051
 30
0.0
 10
96.3998782908
 20
131.8725463676
 30
0.0
 10
96.9483785522
 20
131.7131943404
 30
0.0
 10
97.2871557207
 20
131.5231280137
 30
0.0
 10
97.4510783227
 20
131.4116003279
 30
0.0
  0
SPLINE
  5
28D
100
AcDbEntity
  8
0
100
AcDbSpline
 62
7
  6
BYLAYER
 70
0
 71
3
 72
11
 73
7
 74
0
 42
0.0000001
 43
0.0000001
 44
0.0000000001
 40
0.0
 40
0.0
 40
0.0
 40
0.0
 40
0.2424476523
 40
0.4993528129
 40
0.756478045
 40
1.0
 40
1.0
 40
1.0
 40
1.0
 10
97.4510783227
 20
131.4116003279
 30
0.0
 10
97.7106396409
 20
131.2350031241
 30
0.0
 10
98.1960204749
 20
130.7968258033
 30
0.0
 10
98.772392602
 20
129.9973916013
 30
0.0
 10
99.1844454642
 20
129.1005789443
 30
0.0
 10
99.3273226817
 20
128.4608627212
 30
0.0
 10
99.3539821091
 20
128.1466600779
 30
0.0
  0
SPLINE
  5
28E
100
AcDbEntity
  8
0
100
AcDbSpline
 62
7
  6
BYLAYER
 70
0
 71
3
 72
9
 73
5
 74
0
 42
0.0000001
 43
0.0000001
 44
0.0000000001
 40
0.0
 40
0.0
 40
0.0
 40
0.0
 40
0.2532965705
 40
1.0
 40
1.0
 40
1.0
 40
1.0
 10
99.3539821091
 20
128.1466600779
 30
0.0
 10
99.3559168704
 20
128.1238573713
 30
0.0
 10
99.3626503584
 20
128.0337602133
 30
0.0
 10
99.3657015128
 20
127.9433793818
 30
0.0
 10
99.3657015128
 20
127.875916807
 30
0.0
  0
SPLINE
  5
28F
100
AcDbEntity
  8
0
100
AcDbSpline
 62
7
  6
BYLAYER
 70
0
 71
3
 72
9
 73
5
 74
0
 42
0.0000001
 43
0.0000001
 44
0.0000000001
 40
0.0
 40
0.0
 40
0.0
 40
0.0
 40
0.7477843708
 40
1.0
 40
1.0
 40
1.0
 40
1.0
 10
94.9084735973
 20
131.27880231
 30
0.0
 10
94.9981108009
 20
131.3937745762
 30
0.0
 10
95.140594359
 20
131.5321297687
 30
0.0
 10
95.3045663926
 20
131.6378976206
 30
0.0
 10
95.347149918
 20
131.6624830837
 30
0.0
  0
SPLINE
  5
290
100
AcDbEntity
  8
0
100
AcDbSpline
 62
7
  6
BYLAYER
 70
0
 71
3
 72
9
 73
5
 74
0
 42
0.0000001
 43
0.0000001
 44
0.0000000001
 40
0.0
 40
0.0
 40
0.0
 40
0.0
 40
0.2574832771
 40
1.0
 40
1.0
 40
1.0
 40
1.0
 10
107.4478983722
 20
132.5421474857
 30
0.0
 10
107.4478983722
 20
132.4769654561
 30
0.0
 10
107.4398711498
 20
132.2239900754
 30
0.0
 10
107.3967884772
 20
131.9712630282
 30
0.0
 10
107.3405761513
 20
131.791896549
 30
0.0
  0
SPLINE
  5
291
100
AcDbEntity
  8
0
100
AcDbSpline
 62
7
  6
BYLAYER
 70
0
 71
3
 72
9
 73
5
 74
0
 42
0.0000001
 43
0.0000001
 44
0.0000000001
 40
0.0
 40
0.0
 40
0.0
 40
0.0
 40
0.5050903287
 40
1.0
 40
1.0
 40
1.0
 40
1.0
 10
107.3405761513
 20
131.791896549
 30
0.0
 10
107.2784692629
 20
131.5937212604
 30
0.0
 10
107.0958841916
 20
131.2153429724
 30
0.0
 10
106.7805632259
 20
130.9311904551
 30
0.0
 10
106.6043325632
 20
130.8294442419
 30
0.0
  0
SPLINE
  5
292
100
AcDbEntity
  8
0
100
AcDbSpline
 62
7
  6
BYLAYER
 70
0
 71
3
 72
9
 73
5
 74
0
 42
0.0000001
 43
0.0000001
 44
0.0000000001
 40
0.0
 40
0.0
 40
0.0
 40
0.0
 40
0.7477843708
 40
1.0
 40
1.0
 40
1.0
 40
1.0
 10
95.8064954705
 20
131.7972723854
 30
0.0
 10
95.8961326742
 20
131.9122446516
 30
0.0
 10
96.0386162323
 20
132.0505998441
 30
0.0
 10
96.2025882658
 20
132.156367696
 30
0.0
 10
96.2451717912
 20
132.1809531591
 30
0.0
  0
SPLINE
  5
293
100
AcDbEntity
  8
0
100
AcDbSpline
 62
7
  6
BYLAYER
 70
0
 71
3
 72
11
 73
7
 74
0
 42
0.0000001
 43
0.0000001
 44
0.0000000001
 40
0.0
 40
0.0
 40
0.0
 40
0.0
 40
0.2392060642
 40
0.4812699124
 40
0.7331590703
 40
1.0
 40
1.0
 40
1.0
 40
1.0
 10
96.2451717912
 20
132.1809531591
 30
0.0
 10
96.3990925735
 20
132.2698188337
 30
0.0
 10
96.7446561377
 20
132.3925779805
 30
0.0
 10
97.297900164
 20
132.391016443
 30
0.0
 10
97.8464004255
 20
132.2316644158
 30
0.0
 10
98.1851775939
 20
132.0415980891
 30
0.0
 10
98.349100196
 20
131.9300704033
 30
0.0
  0
SPLINE
  5
294
100
AcDbEntity
  8
0
100
AcDbSpline
 62
7
  6
BYLAYER
 70
0
 71
3
 72
11
 73
7
 74
0
 42
0.0000001
 43
0.0000001
 44
0.0000000001
 40
0.0
 40
0.0
 40
0.0
 40
0.0
 40
0.2424476523
 40
0.4993528129
 40
0.756478045
 40
1.0
 40
1.0
 40
1.0
 40
1.0
 10
98.349100196
 20
131.9300704033
 30
0.0
 10
98.6086615142
 20
131.7534731995
 30
0.0
 10
99.0940423481
 20
131.3152958787
 30
0.0
 10
99.6704144753
 20
130.5158616767
 30
0.0
 10
100.0824673375
 20
129.6190490197
 30
0.0
 10
100.225344555
 20
128.9793327966
 30
0.0
 10
100.2520039824
 20
128.6651301533
 30
0.0
  0
SPLINE
  5
295
100
AcDbEntity
  8
0
100
AcDbSpline
 62
7
  6
BYLAYER
 70
0
 71
3
 72
9
 73
5
 74
0
 42
0.0000001
 43
0.0000001
 44
0.0000000001
 40
0.0
 40
0.0
 40
0.0
 40
0.0
 40
0.2532965705
 40
1.0
 40
1.0
 40
1.0
 40
1.0
 10
100.2520039824
 20
128.6651301533
 30
0.0
 10
100.2539387436
 20
128.6423274467
 30
0.0
 10
100.2606722317
 20
128.5522302888
 30
0.0
 10
100.2637233861
 20
128.4618494572
 30
0.0
 10
100.2637233861
 20
128.3943868824
 30
0.0
  0
SPLINE
  5
296
100
AcDbEntity
  8
0
100
AcDbSpline
 62
7
  6
BYLAYER
 70
0
 71
3
 72
9
 73
5
 74
0
 42
0.0000001
 43
0.0000001
 44
0.0000000001
 40
0.0
 40
0.0
 40
0.0
 40
0.0
 40
0.2574832771
 40
1.0
 40
1.0
 40
1.0
 40
1.0
 10
100.2637233861
 20
128.3943868824
 30
0.0
 10
100.2637233861
 20
128.3292048527
 30
0.0
 10
100.2556961637
 20
128.0762294721
 30
0.0
 10
100.2126134911
 20
127.8235024249
 30
0.0
 10
100.1564011652
 20
127.6441359457
 30
0.0
  0
SPLINE
  5
297
100
AcDbEntity
  8
0
100
AcDbSpline
 62
7
  6
BYLAYER
 70
0
 71
3
 72
9
 73
5
 74
0
 42
0.0000001
 43
0.0000001
 44
0.0000000001
 40
0.0
 40
0.0
 40
0.0
 40
0.0
 40
0.5050903287
 40
1.0
 40
1.0
 40
1.0
 40
1.0
 10
100.1564011652
 20
127.6441359457
 30
0.0
 10
100.0942942768
 20
127.4459606571
 30
0.0
 10
99.9117092055
 20
127.0675823691
 30
0.0
 10
99.5963882398
 20
126.7834298518
 30
0.0
 10
99.4201575771
 20
126.6816836386
 30
0.0
  0
SPLINE
  5
298
100
AcDbEntity
  8
0
100
AcDbSpline
 62
7
  6
BYLAYER
 70
0
 71
3
 72
11
 73
7
 74
0
 42
0.0000001
 43
0.0000001
 44
0.0000000001
 40
0.0
 40
0.0
 40
0.0
 40
0.0
 40
0.2392060642
 40
0.4812699124
 40
0.7331590703
 40
1.0
 40
1.0
 40
1.0
 40
1.0
 10
103.4293467773
 20
136.3287137625
 30
0.0
 10
103.5832675596
 20
136.4175794371
 30
0.0
 10
103.9288311237
 20
136.5403385838
 30
0.0
 10
104.4820751501
 20
136.5387770463
 30
0.0
 10
105.0305754115
 20
136.3794250191
 30
0.0
 10
105.36935258
 20
136.1893586924
 30
0.0
 10
105.5332751821
 20
136.0778310066
 30
0.0
  0
SPLINE
  5
299
100
AcDbEntity
  8
0
100
AcDbSpline
 62
7
  6
BYLAYER
 70
0
 71
3
 72
11
 73
7
 74
0
 42
0.0000001
 43
0.0000001
 44
0.0000000001
 40
0.0
 40
0.0
 40
0.0
 40
0.0
 40
0.2424476523
 40
0.4993528129
 40
0.756478045
 40
1.0
 40
1.0
 40
1.0
 40
1.0
 10
105.5332751821
 20
136.0778310066
 30
0.0
 10
105.7928365003
 20
135.9012338029
 30
0.0
 10
106.2782173342
 20
135.463056482
 30
0.0
 10
106.8545894614
 20
134.6636222801
 30
0.0
 10
107.2666423236
 20
133.766809623
 30
0.0
 10
107.4095195411
 20
133.1270934
 30
0.0
 10
107.4361789685
 20
132.8128907566
 30
0.0
  0
SPLINE
  5
29A
100
AcDbEntity
  8
0
100
AcDbSpline
 62
7
  6
BYLAYER
 70
0
 71
3
 72
9
 73
5
 74
0
 42
0.0000001
 43
0.0000001
 44
0.0000000001
 40
0.0
 40
0.0
 40
0.0
 40
0.0
 40
0.2532965705
 40
1.0
 40
1.0
 40
1.0
 40
1.0
 10
107.4361789685
 20
132.8128907566
 30
0.0
 10
107.4381137297
 20
132.7900880501
 30
0.0
 10
107.4448472177
 20
132.6999908921
 30
0.0
 10
107.4478983722
 20
132.6096100605
 30
0.0
 10
107.4478983722
 20
132.5421474857
 30
0.0
  0
SPLINE
  5
29B
100
AcDbEntity
  8
0
100
AcDbSpline
 62
7
  6
BYLAYER
 70
0
 71
3
 72
9
 73
5
 74
0
 42
0.0000001
 43
0.0000001
 44
0.0000000001
 40
0.0
 40
0.0
 40
0.0
 40
0.0
 40
0.2521563683
 40
1.0
 40
1.0
 40
1.0
 40
1.0
 10
99.4201575771
 20
126.6816836386
 30
0.0
 10
99.3895395229
 20
126.6640064023
 30
0.0
 10
99.2656540998
 20
126.5982311738
 30
0.0
 10
99.1324380605
 20
126.5502095307
 30
0.0
 10
99.0306787701
 20
126.5249208432
 30
0.0
  0
SPLINE
  5
29C
100
AcDbEntity
  8
0
100
AcDbSpline
 62
7
  6
BYLAYER
 70
0
 71
3
 72
9
 73
5
 74
0
 42
0.0000001
 43
0.0000001
 44
0.0000000001
 40
0.0
 40
0.0
 40
0.0
 40
0.0
 40
0.2521563683
 40
1.0
 40
1.0
 40
1.0
 40
1.0
 10
100.3181794504
 20
127.200153714
 30
0.0
 10
100.2875613962
 20
127.1824764777
 30
0.0
 10
100.163675973
 20
127.1167012492
 30
0.0
 10
100.0304599337
 20
127.0686796061
 30
0.0
 10
99.9287006434
 20
127.0433909186
 30
0.0
  0
SPLINE
  5
29D
100
AcDbEntity
  8
0
100
AcDbSpline
 62
7
  6
BYLAYER
 70
0
 71
3
 72
9
 73
5
 74
0
 42
0.0000001
 43
0.0000001
 44
0.0000000001
 40
0.0
 40
0.0
 40
0.0
 40
0.0
 40
0.2574832771
 40
1.0
 40
1.0
 40
1.0
 40
1.0
 10
101.1617452593
 20
128.9128569578
 30
0.0
 10
101.1617452593
 20
128.8476749281
 30
0.0
 10
101.1537180369
 20
128.5946995475
 30
0.0
 10
101.1106353644
 20
128.3419725003
 30
0.0
 10
101.0544230385
 20
128.1626060211
 30
0.0
  0
SPLINE
  5
29E
100
AcDbEntity
  8
0
100
AcDbSpline
 62
7
  6
BYLAYER
 70
0
 71
3
 72
9
 73
5
 74
0
 42
0.0000001
 43
0.0000001
 44
0.0000000001
 40
0.0
 40
0.0
 40
0.0
 40
0.0
 40
0.5050903287
 40
1.0
 40
1.0
 40
1.0
 40
1.0
 10
101.0544230385
 20
128.1626060211
 30
0.0
 10
100.99231615
 20
127.9644307325
 30
0.0
 10
100.8097310787
 20
127.5860524445
 30
0.0
 10
100.494410113
 20
127.3018999272
 30
0.0
 10
100.3181794504
 20
127.200153714
 30
0.0
  0
SPLINE
  5
29F
100
AcDbEntity
  8
0
100
AcDbSpline
 62
7
  6
BYLAYER
 70
0
 71
3
 72
9
 73
5
 74
0
 42
0.0000001
 43
0.0000001
 44
0.0000000001
 40
0.0
 40
0.0
 40
0.0
 40
0.0
 40
0.7477843708
 40
1.0
 40
1.0
 40
1.0
 40
1.0
 10
102.9906704566
 20
135.9450329888
 30
0.0
 10
103.0803076603
 20
136.060005255
 30
0.0
 10
103.2227912184
 20
136.1983604474
 30
0.0
 10
103.3867632519
 20
136.3041282994
 30
0.0
 10
103.4293467773
 20
136.3287137625
 30
0.0
  0
SPLINE
  5
2A0
100
AcDbEntity
  8
0
100
AcDbSpline
 62
7
  6
BYLAYER
 70
0
 71
3
 72
11
 73
7
 74
0
 42
0.0000001
 43
0.0000001
 44
0.0000000001
 40
0.0
 40
0.0
 40
0.0
 40
0.0
 40
0.2392060642
 40
0.4812699124
 40
0.7331590703
 40
1.0
 40
1.0
 40
1.0
 40
1.0
 10
97.1431936645
 20
132.6994232345
 30
0.0
 10
97.2971144467
 20
132.7882889091
 30
0.0
 10
97.6426780109
 20
132.9110480559
 30
0.0
 10
98.1959220373
 20
132.9094865184
 30
0.0
 10
98.7444222987
 20
132.7501344912
 30
0.0
 10
99.0831994672
 20
132.5600681645
 30
0.0
 10
99.2471220692
 20
132.4485404787
 30
0.0
  0
SPLINE
  5
2A1
100
AcDbEntity
  8
0
100
AcDbSpline
 62
7
  6
BYLAYER
 70
0
 71
3
 72
11
 73
7
 74
0
 42
0.0000001
 43
0.0000001
 44
0.0000000001
 40
0.0
 40
0.0
 40
0.0
 40
0.0
 40
0.2424476523
 40
0.4993528129
 40
0.756478045
 40
1.0
 40
1.0
 40
1.0
 40
1.0
 10
99.2471220692
 20
132.4485404787
 30
0.0
 10
99.5066833875
 20
132.271943275
 30
0.0
 10
99.9920642214
 20
131.8337659541
 30
0.0
 10
100.5684363486
 20
131.0343317522
 30
0.0
 10
100.9804892108
 20
130.1375190951
 30
0.0
 10
101.1233664282
 20
129.497802872
 30
0.0
 10
101.1500258557
 20
129.1836002287
 30
0.0
  0
SPLINE
  5
2A2
100
AcDbEntity
  8
0
100
AcDbSpline
 62
7
  6
BYLAYER
 70
0
 71
3
 72
9
 73
5
 74
0
 42
0.0000001
 43
0.0000001
 44
0.0000000001
 40
0.0
 40
0.0
 40
0.0
 40
0.0
 40
0.2532965705
 40
1.0
 40
1.0
 40
1.0
 40
1.0
 10
101.1500258557
 20
129.1836002287
 30
0.0
 10
101.1519606169
 20
129.1607975222
 30
0.0
 10
101.1586941049
 20
129.0707003642
 30
0.0
 10
101.1617452593
 20
128.9803195326
 30
0.0
 10
101.1617452593
 20
128.9128569578
 30
0.0
  0
SPLINE
  5
2A3
100
AcDbEntity
  8
0
100
AcDbSpline
 62
7
  6
BYLAYER
 70
0
 71
3
 72
9
 73
5
 74
0
 42
0.0000001
 43
0.0000001
 44
0.0000000001
 40
0.0
 40
0.0
 40
0.0
 40
0.0
 40
0.7477843708
 40
1.0
 40
1.0
 40
1.0
 40
1.0
 10
96.7045173438
 20
132.3157424609
 30
0.0
 10
96.7941545475
 20
132.4307147271
 30
0.0
 10
96.9366381056
 20
132.5690699195
 30
0.0
 10
97.1006101391
 20
132.6748377714
 30
0.0
 10
97.1431936645
 20
132.6994232345
 30
0.0
  0
SPLINE
  5
2A4
100
AcDbEntity
  8
0
100
AcDbSpline
 62
7
  6
BYLAYER
 70
0
 71
3
 72
9
 73
5
 74
0
 42
0.0000001
 43
0.0000001
 44
0.0000000001
 40
0.0
 40
0.0
 40
0.0
 40
0.0
 40
0.7477843708
 40
1.0
 40
1.0
 40
1.0
 40
1.0
 10
102.0926485833
 20
135.4265629134
 30
0.0
 10
102.182285787
 20
135.5415351796
 30
0.0
 10
102.3247693451
 20
135.679890372
 30
0.0
 10
102.4887413787
 20
135.7856582239
 30
0.0
 10
102.5313249041
 20
135.810243687
 30
0.0
  0
SPLINE
  5
2A5
100
AcDbEntity
  8
0
100
AcDbSpline
 62
7
  6
BYLAYER
 70
0
 71
3
 72
9
 73
5
 74
0
 42
0.0000001
 43
0.0000001
 44
0.0000000001
 40
0.0
 40
0.0
 40
0.0
 40
0.0
 40
0.7477843708
 40
1.0
 40
1.0
 40
1.0
 40
1.0
 10
97.602539217
 20
132.8342125363
 30
0.0
 10
97.6921764207
 20
132.9491848025
 30
0.0
 10
97.8346599788
 20
133.0875399949
 30
0.0
 10
97.9986320123
 20
133.1933078469
 30
0.0
 10
98.0412155378
 20
133.21789331
 30
0.0
  0
SPLINE
  5
2A6
100
AcDbEntity
  8
0
100
AcDbSpline
 62
7
  6
BYLAYER
 70
0
 71
3
 72
11
 73
7
 74
0
 42
0.0000001
 43
0.0000001
 44
0.0000000001
 40
0.0
 40
0.0
 40
0.0
 40
0.0
 40
0.2392060642
 40
0.4812699124
 40
0.7331590703
 40
1.0
 40
1.0
 40
1.0
 40
1.0
 10
98.0412155378
 20
133.21789331
 30
0.0
 10
98.19513632
 20
133.3067589846
 30
0.0
 10
98.5406998842
 20
133.4295181313
 30
0.0
 10
99.0939439105
 20
133.4279565938
 30
0.0
 10
99.642444172
 20
133.2686045666
 30
0.0
 10
99.9812213404
 20
133.0785382399
 30
0.0
 10
100.1451439425
 20
132.9670105541
 30
0.0
  0
SPLINE
  5
2A7
100
AcDbEntity
  8
0
100
AcDbSpline
 62
7
  6
BYLAYER
 70
0
 71
3
 72
11
 73
7
 74
0
 42
0.0000001
 43
0.0000001
 44
0.0000000001
 40
0.0
 40
0.0
 40
0.0
 40
0.0
 40
0.2424476523
 40
0.4993528129
 40
0.756478045
 40
1.0
 40
1.0
 40
1.0
 40
1.0
 10
100.1451439425
 20
132.9670105541
 30
0.0
 10
100.4047052607
 20
132.7904133504
 30
0.0
 10
100.8900860946
 20
132.3522360295
 30
0.0
 10
101.4664582218
 20
131.5528018276
 30
0.0
 10
101.878511084
 20
130.6559891705
 30
0.0
 10
102.0213883015
 20
130.0162729475
 30
0.0
 10
102.0480477289
 20
129.7020703041
 30
0.0
  0
SPLINE
  5
2A8
100
AcDbEntity
  8
0
100
AcDbSpline
 62
7
  6
BYLAYER
 70
0
 71
3
 72
9
 73
5
 74
0
 42
0.0000001
 43
0.0000001
 44
0.0000000001
 40
0.0
 40
0.0
 40
0.0
 40
0.0
 40
0.2532965705
 40
1.0
 40
1.0
 40
1.0
 40
1.0
 10
102.0480477289
 20
129.7020703041
 30
0.0
 10
102.0499824902
 20
129.6792675976
 30
0.0
 10
102.0567159782
 20
129.5891704396
 30
0.0
 10
102.0597671326
 20
129.498789608
 30
0.0
 10
102.0597671326
 20
129.4313270332
 30
0.0
  0
SPLINE
  5
2A9
100
AcDbEntity
  8
0
100
AcDbSpline
 62
7
  6
BYLAYER
 70
0
 71
3
 72
9
 73
5
 74
0
 42
0.0000001
 43
0.0000001
 44
0.0000000001
 40
0.0
 40
0.0
 40
0.0
 40
0.0
 40
0.2574832771
 40
1.0
 40
1.0
 40
1.0
 40
1.0
 10
102.0597671326
 20
129.4313270332
 30
0.0
 10
102.0597671326
 20
129.3661450036
 30
0.0
 10
102.0517399102
 20
129.1131696229
 30
0.0
 10
102.0086572376
 20
128.8604425757
 30
0.0
 10
101.9524449117
 20
128.6810760965
 30
0.0
  0
SPLINE
  5
2AA
100
AcDbEntity
  8
0
100
AcDbSpline
 62
7
  6
BYLAYER
 70
0
 71
3
 72
9
 73
5
 74
0
 42
0.0000001
 43
0.0000001
 44
0.0000000001
 40
0.0
 40
0.0
 40
0.0
 40
0.0
 40
0.5050903287
 40
1.0
 40
1.0
 40
1.0
 40
1.0
 10
101.9524449117
 20
128.6810760965
 30
0.0
 10
101.8903380233
 20
128.4829008079
 30
0.0
 10
101.707752952
 20
128.1045225199
 30
0.0
 10
101.3924319863
 20
127.8203700026
 30
0.0
 10
101.2162013237
 20
127.7186237894
 30
0.0
  0
SPLINE
  5
2AB
100
AcDbEntity
  8
0
100
AcDbSpline
 62
7
  6
BYLAYER
 70
0
 71
3
 72
11
 73
7
 74
0
 42
0.0000001
 43
0.0000001
 44
0.0000000001
 40
0.0
 40
0.0
 40
0.0
 40
0.0
 40
0.2392060642
 40
0.4812699124
 40
0.7331590703
 40
1.0
 40
1.0
 40
1.0
 40
1.0
 10
102.5313249041
 20
135.810243687
 30
0.0
 10
102.6852456863
 20
135.8991093616
 30
0.0
 10
103.0308092505
 20
136.0218685084
 30
0.0
 10
103.5840532768
 20
136.0203069709
 30
0.0
 10
104.1325535383
 20
135.8609549437
 30
0.0
 10
104.4713307067
 20
135.670888617
 30
0.0
 10
104.6352533088
 20
135.5593609312
 30
0.0
  0
SPLINE
  5
2AC
100
AcDbEntity
  8
0
100
AcDbSpline
 62
7
  6
BYLAYER
 70
0
 71
3
 72
11
 73
7
 74
0
 42
0.0000001
 43
0.0000001
 44
0.0000000001
 40
0.0
 40
0.0
 40
0.0
 40
0.0
 40
0.2424476523
 40
0.4993528129
 40
0.756478045
 40
1.0
 40
1.0
 40
1.0
 40
1.0
 10
104.6352533088
 20
135.5593609312
 30
0.0
 10
104.894814627
 20
135.3827637275
 30
0.0
 10
105.3801954609
 20
134.9445864066
 30
0.0
 10
105.9565675881
 20
134.1451522047
 30
0.0
 10
106.3686204503
 20
133.2483395476
 30
0.0
 10
106.5114976678
 20
132.6086233245
 30
0.0
 10
106.5381570952
 20
132.2944206812
 30
0.0
  0
SPLINE
  5
2AD
100
AcDbEntity
  8
0
100
AcDbSpline
 62
7
  6
BYLAYER
 70
0
 71
3
 72
9
 73
5
 74
0
 42
0.0000001
 43
0.0000001
 44
0.0000000001
 40
0.0
 40
0.0
 40
0.0
 40
0.0
 40
0.2532965705
 40
1.0
 40
1.0
 40
1.0
 40
1.0
 10
106.5381570952
 20
132.2944206812
 30
0.0
 10
106.5400918565
 20
132.2716179747
 30
0.0
 10
106.5468253445
 20
132.1815208167
 30
0.0
 10
106.5498764989
 20
132.0911399851
 30
0.0
 10
106.5498764989
 20
132.0236774103
 30
0.0
  0
SPLINE
  5
2AE
100
AcDbEntity
  8
0
100
AcDbSpline
 62
7
  6
BYLAYER
 70
0
 71
3
 72
9
 73
5
 74
0
 42
0.0000001
 43
0.0000001
 44
0.0000000001
 40
0.0
 40
0.0
 40
0.0
 40
0.0
 40
0.2521563683
 40
1.0
 40
1.0
 40
1.0
 40
1.0
 10
101.2162013237
 20
127.7186237894
 30
0.0
 10
101.1855832694
 20
127.7009465531
 30
0.0
 10
101.0616978463
 20
127.6351713247
 30
0.0
 10
100.928481807
 20
127.5871496815
 30
0.0
 10
100.8267225166
 20
127.5618609941
 30
0.0
  0
SPLINE
  5
2AF
100
AcDbEntity
  8
0
100
AcDbSpline
 62
7
  6
BYLAYER
 70
0
 71
3
 72
9
 73
5
 74
0
 42
0.0000001
 43
0.0000001
 44
0.0000000001
 40
0.0
 40
0.0
 40
0.0
 40
0.0
 40
0.2574832771
 40
1.0
 40
1.0
 40
1.0
 40
1.0
 10
106.5498764989
 20
132.0236774103
 30
0.0
 10
106.5498764989
 20
131.9584953806
 30
0.0
 10
106.5418492765
 20
131.70552
 30
0.0
 10
106.4987666039
 20
131.4527929528
 30
0.0
 10
106.442554278
 20
131.2734264736
 30
0.0
  0
SPLINE
  5
2B0
100
AcDbEntity
  8
0
100
AcDbSpline
 62
7
  6
BYLAYER
 70
0
 71
3
 72
9
 73
5
 74
0
 42
0.0000001
 43
0.0000001
 44
0.0000000001
 40
0.0
 40
0.0
 40
0.0
 40
0.0
 40
0.5050903287
 40
1.0
 40
1.0
 40
1.0
 40
1.0
 10
106.442554278
 20
131.2734264736
 30
0.0
 10
106.3804473896
 20
131.075251185
 30
0.0
 10
106.1978623183
 20
130.696872897
 30
0.0
 10
105.8825413526
 20
130.4127203797
 30
0.0
 10
105.70631069
 20
130.3109741665
 30
0.0
  0
SPLINE
  5
2B1
100
AcDbEntity
  8
0
100
AcDbSpline
 62
7
  6
BYLAYER
 70
0
 71
3
 72
9
 73
5
 74
0
 42
0.0000001
 43
0.0000001
 44
0.0000000001
 40
0.0
 40
0.0
 40
0.0
 40
0.0
 40
0.2521563683
 40
1.0
 40
1.0
 40
1.0
 40
1.0
 10
102.1142231969
 20
128.2370938649
 30
0.0
 10
102.0836051427
 20
128.2194166285
 30
0.0
 10
101.9597197196
 20
128.1536414001
 30
0.0
 10
101.8265036803
 20
128.1056197569
 30
0.0
 10
101.7247443899
 20
128.0803310695
 30
0.0
  0
SPLINE
  5
2B2
100
AcDbEntity
  8
0
100
AcDbSpline
 62
7
  6
BYLAYER
 70
0
 71
3
 72
9
 73
5
 74
0
 42
0.0000001
 43
0.0000001
 44
0.0000000001
 40
0.0
 40
0.0
 40
0.0
 40
0.0
 40
0.2574832771
 40
1.0
 40
1.0
 40
1.0
 40
1.0
 10
102.9577890058
 20
129.9497971086
 30
0.0
 10
102.9577890058
 20
129.884615079
 30
0.0
 10
102.9497617834
 20
129.6316396983
 30
0.0
 10
102.9066791109
 20
129.3789126511
 30
0.0
 10
102.850466785
 20
129.1995461719
 30
0.0
  0
SPLINE
  5
2B3
100
AcDbEntity
  8
0
100
AcDbSpline
 62
7
  6
BYLAYER
 70
0
 71
3
 72
9
 73
5
 74
0
 42
0.0000001
 43
0.0000001
 44
0.0000000001
 40
0.0
 40
0.0
 40
0.0
 40
0.0
 40
0.5050903287
 40
1.0
 40
1.0
 40
1.0
 40
1.0
 10
102.850466785
 20
129.1995461719
 30
0.0
 10
102.7883598966
 20
129.0013708833
 30
0.0
 10
102.6057748252
 20
128.6229925954
 30
0.0
 10
102.2904538596
 20
128.338840078
 30
0.0
 10
102.1142231969
 20
128.2370938649
 30
0.0
  0
SPLINE
  5
2B4
100
AcDbEntity
  8
0
100
AcDbSpline
 62
7
  6
BYLAYER
 70
0
 71
3
 72
11
 73
7
 74
0
 42
0.0000001
 43
0.0000001
 44
0.0000000001
 40
0.0
 40
0.0
 40
0.0
 40
0.0
 40
0.2392060642
 40
0.4812699124
 40
0.7331590703
 40
1.0
 40
1.0
 40
1.0
 40
1.0
 10
98.939237411
 20
133.7363633854
 30
0.0
 10
99.0931581932
 20
133.82522906
 30
0.0
 10
99.4387217574
 20
133.9479882068
 30
0.0
 10
99.9919657838
 20
133.9464266692
 30
0.0
 10
100.5404660452
 20
133.787074642
 30
0.0
 10
100.8792432137
 20
133.5970083154
 30
0.0
 10
101.0431658157
 20
133.4854806295
 30
0.0
  0
SPLINE
  5
2B5
100
AcDbEntity
  8
0
100
AcDbSpline
 62
7
  6
BYLAYER
 70
0
 71
3
 72
11
 73
7
 74
0
 42
0.0000001
 43
0.0000001
 44
0.0000000001
 40
0.0
 40
0.0
 40
0.0
 40
0.0
 40
0.2424476523
 40
0.4993528129
 40
0.756478045
 40
1.0
 40
1.0
 40
1.0
 40
1.0
 10
101.0431658157
 20
133.4854806295
 30
0.0
 10
101.302727134
 20
133.3088834258
 30
0.0
 10
101.7881079679
 20
132.8707061049
 30
0.0
 10
102.3644800951
 20
132.071271903
 30
0.0
 10
102.7765329573
 20
131.174459246
 30
0.0
 10
102.9194101748
 20
130.5347430229
 30
0.0
 10
102.9460696022
 20
130.2205403795
 30
0.0
  0
SPLINE
  5
2B6
100
AcDbEntity
  8
0
100
AcDbSpline
 62
7
  6
BYLAYER
 70
0
 71
3
 72
9
 73
5
 74
0
 42
0.0000001
 43
0.0000001
 44
0.0000000001
 40
0.0
 40
0.0
 40
0.0
 40
0.0
 40
0.2532965705
 40
1.0
 40
1.0
 40
1.0
 40
1.0
 10
102.9460696022
 20
130.2205403795
 30
0.0
 10
102.9480043634
 20
130.197737673
 30
0.0
 10
102.9547378514
 20
130.107640515
 30
0.0
 10
102.9577890058
 20
130.0172596834
 30
0.0
 10
102.9577890058
 20
129.9497971086
 30
0.0
  0
SPLINE
  5
2B7
100
AcDbEntity
  8
0
100
AcDbSpline
 62
7
  6
BYLAYER
 70
0
 71
3
 72
9
 73
5
 74
0
 42
0.0000001
 43
0.0000001
 44
0.0000000001
 40
0.0
 40
0.0
 40
0.0
 40
0.0
 40
0.7477843708
 40
1.0
 40
1.0
 40
1.0
 40
1.0
 10
98.5005610903
 20
133.3526826117
 30
0.0
 10
98.590198294
 20
133.4676548779
 30
0.0
 10
98.7326818521
 20
133.6060100704
 30
0.0
 10
98.8966538856
 20
133.7117779223
 30
0.0
 10
98.939237411
 20
133.7363633854
 30
0.0
  0
SPLINE
  5
2B8
100
AcDbEntity
  8
0
100
AcDbSpline
 62
7
  6
BYLAYER
 70
0
 71
3
 72
9
 73
5
 74
0
 42
0.0000001
 43
0.0000001
 44
0.0000000001
 40
0.0
 40
0.0
 40
0.0
 40
0.0
 40
0.2521563683
 40
1.0
 40
1.0
 40
1.0
 40
1.0
 10
105.70631069
 20
130.3109741665
 30
0.0
 10
105.6756926358
 20
130.2932969302
 30
0.0
 10
105.5518072126
 20
130.2275217017
 30
0.0
 10
105.4185911733
 20
130.1795000586
 30
0.0
 10
105.316831883
 20
130.1542113711
 30
0.0
  0
SPLINE
  5
2B9
100
AcDbEntity
  8
0
100
AcDbSpline
 62
7
  6
BYLAYER
 70
0
 71
3
 72
9
 73
5
 74
0
 42
0.0000001
 43
0.0000001
 44
0.0000000001
 40
0.0
 40
0.0
 40
0.0
 40
0.0
 40
0.7477843708
 40
1.0
 40
1.0
 40
1.0
 40
1.0
 10
99.3985829636
 20
133.8711526871
 30
0.0
 10
99.4882201673
 20
133.9861249533
 30
0.0
 10
99.6307037254
 20
134.1244801458
 30
0.0
 10
99.7946757589
 20
134.2302479977
 30
0.0
 10
99.8372592843
 20
134.2548334608
 30
0.0
  0
SPLINE
  5
2BA
100
AcDbEntity
  8
0
100
AcDbSpline
 62
7
  6
BYLAYER
 70
0
 71
3
 72
11
 73
7
 74
0
 42
0.0000001
 43
0.0000001
 44
0.0000000001
 40
0.0
 40
0.0
 40
0.0
 40
0.0
 40
0.2392060642
 40
0.4812699124
 40
0.7331590703
 40
1.0
 40
1.0
 40
1.0
 40
1.0
 10
99.8372592843
 20
134.2548334608
 30
0.0
 10
99.9911800665
 20
134.3436991354
 30
0.0
 10
100.3367436307
 20
134.4664582822
 30
0.0
 10
100.8899876571
 20
134.4648967447
 30
0.0
 10
101.4384879185
 20
134.3055447175
 30
0.0
 10
101.777265087
 20
134.1154783908
 30
0.0
 10
101.941187689
 20
134.003950705
 30
0.0
  0
SPLINE
  5
2BB
100
AcDbEntity
  8
0
100
AcDbSpline
 62
7
  6
BYLAYER
 70
0
 71
3
 72
11
 73
7
 74
0
 42
0.0000001
 43
0.0000001
 44
0.0000000001
 40
0.0
 40
0.0
 40
0.0
 40
0.0
 40
0.2424476523
 40
0.4993528129
 40
0.756478045
 40
1.0
 40
1.0
 40
1.0
 40
1.0
 10
101.941187689
 20
134.003950705
 30
0.0
 10
102.2007490072
 20
133.8273535012
 30
0.0
 10
102.6861298412
 20
133.3891761804
 30
0.0
 10
103.2625019683
 20
132.5897419784
 30
0.0
 10
103.6745548306
 20
131.6929293214
 30
0.0
 10
103.817432048
 20
131.0532130983
 30
0.0
 10
103.8440914754
 20
130.739010455
 30
0.0
  0
SPLINE
  5
2BC
100
AcDbEntity
  8
0
100
AcDbSpline
 62
7
  6
BYLAYER
 70
0
 71
3
 72
9
 73
5
 74
0
 42
0.0000001
 43
0.0000001
 44
0.0000000001
 40
0.0
 40
0.0
 40
0.0
 40
0.0
 40
0.2532965705
 40
1.0
 40
1.0
 40
1.0
 40
1.0
 10
103.8440914754
 20
130.739010455
 30
0.0
 10
103.8460262367
 20
130.7162077484
 30
0.0
 10
103.8527597247
 20
130.6261105904
 30
0.0
 10
103.8558108791
 20
130.5357297588
 30
0.0
 10
103.8558108791
 20
130.4682671841
 30
0.0
  0
SPLINE
  5
2BD
100
AcDbEntity
  8
0
100
AcDbSpline
 62
7
  6
BYLAYER
 70
0
 71
3
 72
9
 73
5
 74
0
 42
0.0000001
 43
0.0000001
 44
0.0000000001
 40
0.0
 40
0.0
 40
0.0
 40
0.0
 40
0.2574832771
 40
1.0
 40
1.0
 40
1.0
 40
1.0
 10
103.8558108791
 20
130.4682671841
 30
0.0
 10
103.8558108791
 20
130.4030851544
 30
0.0
 10
103.8477836567
 20
130.1501097738
 30
0.0
 10
103.8047009842
 20
129.8973827265
 30
0.0
 10
103.7484886582
 20
129.7180162473
 30
0.0
  0
SPLINE
  5
2BE
100
AcDbEntity
  8
0
100
AcDbSpline
 62
7
  6
BYLAYER
 70
0
 71
3
 72
9
 73
5
 74
0
 42
0.0000001
 43
0.0000001
 44
0.0000000001
 40
0.0
 40
0.0
 40
0.0
 40
0.0
 40
0.5050903287
 40
1.0
 40
1.0
 40
1.0
 40
1.0
 10
103.7484886582
 20
129.7180162473
 30
0.0
 10
103.6863817698
 20
129.5198409587
 30
0.0
 10
103.5037966985
 20
129.1414626708
 30
0.0
 10
103.1884757328
 20
128.8573101535
 30
0.0
 10
103.0122450702
 20
128.7555639403
 30
0.0
  0
SPLINE
  5
2BF
100
AcDbEntity
  8
0
100
AcDbSpline
 62
7
  6
BYLAYER
 70
0
 71
3
 72
9
 73
5
 74
0
 42
0.0000001
 43
0.0000001
 44
0.0000000001
 40
0.0
 40
0.0
 40
0.0
 40
0.0
 40
0.2521563683
 40
1.0
 40
1.0
 40
1.0
 40
1.0
 10
104.8082888167
 20
129.7925040911
 30
0.0
 10
104.7776707625
 20
129.7748268548
 30
0.0
 10
104.6537853393
 20
129.7090516263
 30
0.0
 10
104.5205693
 20
129.6610299832
 30
0.0
 10
104.4188100097
 20
129.6357412957
 30
0.0
  0
SPLINE
  5
2C0
100
AcDbEntity
  8
0
100
AcDbSpline
 62
7
  6
BYLAYER
 70
0
 71
3
 72
9
 73
5
 74
0
 42
0.0000001
 43
0.0000001
 44
0.0000000001
 40
0.0
 40
0.0
 40
0.0
 40
0.0
 40
0.2521563683
 40
1.0
 40
1.0
 40
1.0
 40
1.0
 10
103.0122450702
 20
128.7555639403
 30
0.0
 10
102.981627016
 20
128.737886704
 30
0.0
 10
102.8577415928
 20
128.6721114755
 30
0.0
 10
102.7245255535
 20
128.6240898324
 30
0.0
 10
102.6227662632
 20
128.5988011449
 30
0.0
  0
SPLINE
  5
2C1
100
AcDbEntity
  8
0
100
AcDbSpline
 62
7
  6
BYLAYER
 70
0
 71
3
 72
9
 73
5
 74
0
 42
0.0000001
 43
0.0000001
 44
0.0000000001
 40
0.0
 40
0.0
 40
0.0
 40
0.0
 40
0.2521563683
 40
1.0
 40
1.0
 40
1.0
 40
1.0
 10
103.9102669434
 20
129.2740340157
 30
0.0
 10
103.8796488892
 20
129.2563567794
 30
0.0
 10
103.7557634661
 20
129.1905815509
 30
0.0
 10
103.6225474268
 20
129.1425599078
 30
0.0
 10
103.5207881364
 20
129.1172712203
 30
0.0
  0
SPLINE
  5
2C2
100
AcDbEntity
  8
0
100
AcDbSpline
 62
7
  6
BYLAYER
 70
0
 71
3
 72
9
 73
5
 74
0
 42
0.0000001
 43
0.0000001
 44
0.0000000001
 40
0.0
 40
0.0
 40
0.0
 40
0.0
 40
0.2574832771
 40
1.0
 40
1.0
 40
1.0
 40
1.0
 10
104.7538327524
 20
130.9867372595
 30
0.0
 10
104.7538327524
 20
130.9215552298
 30
0.0
 10
104.74580553
 20
130.6685798492
 30
0.0
 10
104.7027228574
 20
130.4158528019
 30
0.0
 10
104.6465105315
 20
130.2364863227
 30
0.0
  0
SPLINE
  5
2C3
100
AcDbEntity
  8
0
100
AcDbSpline
 62
7
  6
BYLAYER
 70
0
 71
3
 72
9
 73
5
 74
0
 42
0.0000001
 43
0.0000001
 44
0.0000000001
 40
0.0
 40
0.0
 40
0.0
 40
0.0
 40
0.5050903287
 40
1.0
 40
1.0
 40
1.0
 40
1.0
 10
104.6465105315
 20
130.2364863227
 30
0.0
 10
104.5844036431
 20
130.0383110342
 30
0.0
 10
104.4018185718
 20
129.6599327462
 30
0.0
 10
104.0864976061
 20
129.3757802289
 30
0.0
 10
103.9102669434
 20
129.2740340157
 30
0.0
  0
SPLINE
  5
2C4
100
AcDbEntity
  8
0
100
AcDbSpline
 62
7
  6
BYLAYER
 70
0
 71
3
 72
9
 73
5
 74
0
 42
0.0000001
 43
0.0000001
 44
0.0000000001
 40
0.0
 40
0.0
 40
0.0
 40
0.0
 40
0.2574832771
 40
1.0
 40
1.0
 40
1.0
 40
1.0
 10
105.6518546256
 20
131.5052073349
 30
0.0
 10
105.6518546256
 20
131.4400253052
 30
0.0
 10
105.6438274032
 20
131.1870499246
 30
0.0
 10
105.6007447307
 20
130.9343228774
 30
0.0
 10
105.5445324048
 20
130.7549563982
 30
0.0
  0
SPLINE
  5
2C5
100
AcDbEntity
  8
0
100
AcDbSpline
 62
7
  6
BYLAYER
 70
0
 71
3
 72
9
 73
5
 74
0
 42
0.0000001
 43
0.0000001
 44
0.0000000001
 40
0.0
 40
0.0
 40
0.0
 40
0.0
 40
0.5050903287
 40
1.0
 40
1.0
 40
1.0
 40
1.0
 10
105.5445324048
 20
130.7549563982
 30
0.0
 10
105.4824255164
 20
130.5567811096
 30
0.0
 10
105.299840445
 20
130.1784028216
 30
0.0
 10
104.9845194794
 20
129.8942503043
 30
0.0
 10
104.8082888167
 20
129.7925040911
 30
0.0
  0
SPLINE
  5
2C6
100
AcDbEntity
  8
0
100
AcDbSpline
 62
7
  6
BYLAYER
 70
0
 71
3
 72
11
 73
7
 74
0
 42
0.0000001
 43
0.0000001
 44
0.0000000001
 40
0.0
 40
0.0
 40
0.0
 40
0.0
 40
0.2392060642
 40
0.4812699124
 40
0.7331590703
 40
1.0
 40
1.0
 40
1.0
 40
1.0
 10
100.7352811575
 20
134.7733035362
 30
0.0
 10
100.8892019398
 20
134.8621692108
 30
0.0
 10
101.234765504
 20
134.9849283576
 30
0.0
 10
101.7880095303
 20
134.9833668201
 30
0.0
 10
102.3365097918
 20
134.8240147929
 30
0.0
 10
102.6752869602
 20
134.6339484662
 30
0.0
 10
102.8392095623
 20
134.5224207804
 30
0.0
  0
SPLINE
  5
2C7
100
AcDbEntity
  8
0
100
AcDbSpline
 62
7
  6
BYLAYER
 70
0
 71
3
 72
11
 73
7
 74
0
 42
0.0000001
 43
0.0000001
 44
0.0000000001
 40
0.0
 40
0.0
 40
0.0
 40
0.0
 40
0.2424476523
 40
0.4993528129
 40
0.756478045
 40
1.0
 40
1.0
 40
1.0
 40
1.0
 10
102.8392095623
 20
134.5224207804
 30
0.0
 10
103.0987708805
 20
134.3458235766
 30
0.0
 10
103.5841517144
 20
133.9076462558
 30
0.0
 10
104.1605238416
 20
133.1082120538
 30
0.0
 10
104.5725767038
 20
132.2113993968
 30
0.0
 10
104.7154539213
 20
131.5716831737
 30
0.0
 10
104.7421133487
 20
131.2574805304
 30
0.0
  0
SPLINE
  5
2C8
100
AcDbEntity
  8
0
100
AcDbSpline
 62
7
  6
BYLAYER
 70
0
 71
3
 72
9
 73
5
 74
0
 42
0.0000001
 43
0.0000001
 44
0.0000000001
 40
0.0
 40
0.0
 40
0.0
 40
0.0
 40
0.2532965705
 40
1.0
 40
1.0
 40
1.0
 40
1.0
 10
104.7421133487
 20
131.2574805304
 30
0.0
 10
104.7440481099
 20
131.2346778238
 30
0.0
 10
104.750781598
 20
131.1445806658
 30
0.0
 10
104.7538327524
 20
131.0541998343
 30
0.0
 10
104.7538327524
 20
130.9867372595
 30
0.0
  0
SPLINE
  5
2C9
100
AcDbEntity
  8
0
100
AcDbSpline
 62
7
  6
BYLAYER
 70
0
 71
3
 72
9
 73
5
 74
0
 42
0.0000001
 43
0.0000001
 44
0.0000000001
 40
0.0
 40
0.0
 40
0.0
 40
0.0
 40
0.7477843708
 40
1.0
 40
1.0
 40
1.0
 40
1.0
 10
100.2966048368
 20
134.3896227625
 30
0.0
 10
100.3862420405
 20
134.5045950287
 30
0.0
 10
100.5287255986
 20
134.6429502212
 30
0.0
 10
100.6926976321
 20
134.7487180731
 30
0.0
 10
100.7352811575
 20
134.7733035362
 30
0.0
  0
SPLINE
  5
2CA
100
AcDbEntity
  8
0
100
AcDbSpline
 62
7
  6
BYLAYER
 70
0
 71
3
 72
11
 73
7
 74
0
 42
0.0000001
 43
0.0000001
 44
0.0000000001
 40
0.0
 40
0.0
 40
0.0
 40
0.0
 40
0.2392060642
 40
0.4812699124
 40
0.7331590703
 40
1.0
 40
1.0
 40
1.0
 40
1.0
 10
101.6333030308
 20
135.2917736116
 30
0.0
 10
101.787223813
 20
135.3806392862
 30
0.0
 10
102.1327873772
 20
135.503398433
 30
0.0
 10
102.6860314036
 20
135.5018368955
 30
0.0
 10
103.234531665
 20
135.3424848683
 30
0.0
 10
103.5733088335
 20
135.1524185416
 30
0.0
 10
103.7372314355
 20
135.0408908558
 30
0.0
  0
SPLINE
  5
2CB
100
AcDbEntity
  8
0
100
AcDbSpline
 62
7
  6
BYLAYER
 70
0
 71
3
 72
11
 73
7
 74
0
 42
0.0000001
 43
0.0000001
 44
0.0000000001
 40
0.0
 40
0.0
 40
0.0
 40
0.0
 40
0.2424476523
 40
0.4993528129
 40
0.756478045
 40
1.0
 40
1.0
 40
1.0
 40
1.0
 10
103.7372314355
 20
135.0408908558
 30
0.0
 10
103.9967927538
 20
134.864293652
 30
0.0
 10
104.4821735877
 20
134.4261163312
 30
0.0
 10
105.0585457149
 20
133.6266821292
 30
0.0
 10
105.4705985771
 20
132.7298694722
 30
0.0
 10
105.6134757946
 20
132.0901532491
 30
0.0
 10
105.640135222
 20
131.7759506058
 30
0.0
  0
SPLINE
  5
2CC
100
AcDbEntity
  8
0
100
AcDbSpline
 62
7
  6
BYLAYER
 70
0
 71
3
 72
9
 73
5
 74
0
 42
0.0000001
 43
0.0000001
 44
0.0000000001
 40
0.0
 40
0.0
 40
0.0
 40
0.0
 40
0.2532965705
 40
1.0
 40
1.0
 40
1.0
 40
1.0
 10
105.640135222
 20
131.7759506058
 30
0.0
 10
105.6420699832
 20
131.7531478992
 30
0.0
 10
105.6488034712
 20
131.6630507413
 30
0.0
 10
105.6518546256
 20
131.5726699097
 30
0.0
 10
105.6518546256
 20
131.5052073349
 30
0.0
  0
SPLINE
  5
2CD
100
AcDbEntity
  8
0
100
AcDbSpline
 62
7
  6
BYLAYER
 70
0
 71
3
 72
9
 73
5
 74
0
 42
0.0000001
 43
0.0000001
 44
0.0000000001
 40
0.0
 40
0.0
 40
0.0
 40
0.0
 40
0.7477843708
 40
1.0
 40
1.0
 40
1.0
 40
1.0
 10
101.1946267101
 20
134.9080928379
 30
0.0
 10
101.2842639138
 20
135.0230651041
 30
0.0
 10
101.4267474719
 20
135.1614202966
 30
0.0
 10
101.5907195054
 20
135.2671881485
 30
0.0
 10
101.6333030308
 20
135.2917736116
 30
0.0
  0
SPLINE
  5
2CE
100
AcDbEntity
  8
0
100
AcDbSpline
 62
7
  6
BYLAYER
 70
0
 71
3
 72
15
 73
11
 74
0
 42
0.0000001
 43
0.0000001
 44
0.0000000001
 40
0.0
 40
0.0
 40
0.0
 40
0.0
 40
0.1413409845
 40
0.268225228
 40
0.3834789309
 40
0.4926723594
 40
0.6031655595
 40
0.7218793997
 40
0.8536055475
 40
1.0
 40
1.0
 40
1.0
 40
1.0
 10
108.3616281538
 20
131.6554439551
 30
0.0
 10
108.5483621726
 20
131.561531369
 30
0.0
 10
108.9185727322
 20
131.4115316468
 30
0.0
 10
109.4824463977
 20
131.313752081
 30
0.0
 10
110.007179046
 20
131.3633011837
 30
0.0
 10
110.4693754313
 20
131.5654352167
 30
0.0
 10
110.8427039606
 20
131.9116925583
 30
0.0
 10
111.1116293477
 20
132.3805557518
 30
0.0
 10
111.2713157609
 20
132.9500317694
 30
0.0
 10
111.3030189559
 20
133.3626013449
 30
0.0
 10
111.3030189559
 20
133.5790941128
 30
0.0
  0
SPLINE
  5
2CF
100
AcDbEntity
  8
0
100
AcDbSpline
 62
7
  6
BYLAYER
 70
0
 71
3
 72
20
 73
16
 74
0
 42
0.0000001
 43
0.0000001
 44
0.0000000001
 40
0.0
 40
0.0
 40
0.0
 40
0.0
 40
0.138016436
 40
0.2908684931
 40
0.4443584518
 40
0.5168630219
 40
0.5843924994
 40
0.6459410414
 40
0.7012072881
 40
0.7508607891
 40
0.7967653183
 40
0.8418507073
 40
0.8892980611
 40
0.9415908631
 40
1.0
 40
1.0
 40
1.0
 40
1.0
 10
111.3030189559
 20
133.5790941128
 30
0.0
 10
111.3030189559
 20
134.0831065721
 30
0.0
 10
111.1177233864
 20
135.146247991
 30
0.0
 10
110.4693502879
 20
136.645298624
 30
0.0
 10
109.6569161377
 20
137.781541321
 30
0.0
 10
108.8852235163
 20
138.529071425
 30
0.0
 10
108.2901298524
 20
138.9669071987
 30
0.0
 10
107.6885763865
 20
139.2766081711
 30
0.0
 10
107.0998732516
 20
139.4463331107
 30
0.0
 10
106.5425795551
 20
139.4664010427
 30
0.0
 10
106.0383445068
 20
139.3282634689
 30
0.0
 10
105.6158131697
 20
139.0332102468
 30
0.0
 10
105.2977685414
 20
138.6005075652
 30
0.0
 10
105.0927416154
 20
138.0545852915
 30
0.0
 10
105.0357581119
 20
137.6513668752
 30
0.0
 10
105.0233909411
 20
137.4384255069
 30
0.0
  0
SPLINE
  5
2D0
100
AcDbEntity
  8
0
100
AcDbSpline
 62
7
  6
BYLAYER
 70
0
 71
3
 72
17
 73
13
 74
0
 42
0.0000001
 43
0.0000001
 44
0.0000000001
 40
0.0
 40
0.0
 40
0.0
 40
0.0
 40
0.1286899717
 40
0.2702716869
 40
0.4174299604
 40
0.5617760468
 40
0.6954466698
 40
0.8127105524
 40
0.8646769018
 40
0.9125094087
 40
0.9571396285
 40
1.0
 40
1.0
 40
1.0
 40
1.0
 10
113.0990701792
 20
133.5790984295
 30
0.0
 10
113.0990701792
 20
134.0675950483
 30
0.0
 10
112.9624275272
 20
135.0946986852
 30
0.0
 10
112.45233031
 20
136.602785585
 30
0.0
 10
111.6663797376
 20
138.0555873187
 30
0.0
 10
110.6676748101
 20
139.3339572016
 30
0.0
 10
109.5378375035
 20
140.3346320358
 30
0.0
 10
108.5151579753
 20
140.8937076118
 30
0.0
 10
107.7152119619
 20
141.1066477796
 30
0.0
 10
107.1646317192
 20
141.1470167561
 30
0.0
 10
106.6519322606
 20
141.0720057177
 30
0.0
 10
106.3413739862
 20
140.9428398813
 30
0.0
 10
106.2004618895
 20
140.8615178602
 30
0.0
  0
SPLINE
  5
2D1
100
AcDbEntity
  8
0
100
AcDbSpline
 62
7
  6
BYLAYER
 70
0
 71
3
 72
15
 73
11
 74
0
 42
0.0000001
 43
0.0000001
 44
0.0000000001
 40
0.0
 40
0.0
 40
0.0
 40
0.0
 40
0.1312903798
 40
0.2512959091
 40
0.3639091298
 40
0.4746886118
 40
0.5896429842
 40
0.7137438999
 40
0.8502188562
 40
1.0
 40
1.0
 40
1.0
 40
1.0
 10
113.4121048128
 20
131.6835713952
 30
0.0
 10
113.6623656936
 20
131.6077696728
 30
0.0
 10
114.1562155152
 20
131.5044563778
 30
0.0
 10
114.8880483293
 20
131.5187877451
 30
0.0
 10
115.5527905336
 20
131.7155019287
 30
0.0
 10
116.1237062066
 20
132.0916429119
 30
0.0
 10
116.578465997
 20
132.6308137428
 30
0.0
 10
116.9057655931
 20
133.3106854539
 30
0.0
 10
117.1008475278
 20
134.1091913484
 30
0.0
 10
117.1401753397
 20
134.680654944
 30
0.0
 10
117.1401753397
 20
134.9789715191
 30
0.0
  0
SPLINE
  5
2D2
100
AcDbEntity
  8
0
100
AcDbSpline
 62
7
  6
BYLAYER
 70
0
 71
3
 72
21
 73
17
 74
0
 42
0.0000001
 43
0.0000001
 44
0.0000000001
 40
0.0
 40
0.0
 40
0.0
 40
0.0
 40
0.0661024267
 40
0.137167301
 40
0.2886486125
 40
0.4424082459
 40
0.516131649
 40
0.5857260287
 40
0.6500957721
 40
0.7086329583
 40
0.761411607
 40
0.8094018287
 40
0.8545840607
 40
0.8996972342
 40
0.9474867162
 40
1.0
 40
1.0
 40
1.0
 40
1.0
 10
117.1401753397
 20
134.9789715191
 30
0.0
 10
117.1401753397
 20
135.3309156126
 30
0.0
 10
117.0809448141
 20
136.0618938116
 30
0.0
 10
116.7563312161
 20
137.5673653678
 30
0.0
 10
115.9919552832
 20
139.4375878032
 30
0.0
 10
114.8616690428
 20
141.1274640349
 30
0.0
 10
113.7767568886
 20
142.2827078272
 30
0.0
 10
112.9259263477
 20
142.9938111631
 30
0.0
 10
112.0534811621
 20
143.5388590828
 30
0.0
 10
111.1852666845
 20
143.9003424212
 30
0.0
 10
110.3460106249
 20
144.064792318
 30
0.0
 10
109.5603596211
 20
144.0209225411
 30
0.0
 10
108.8584293337
 20
143.7610931462
 30
0.0
 10
108.275753221
 20
143.2928273354
 30
0.0
 10
107.8372548669
 20
142.6430597236
 30
0.0
 10
107.6567132288
 20
142.1348330224
 30
0.0
 10
107.5889048664
 20
141.8635878021
 30
0.0
  0
SPLINE
  5
2D3
100
AcDbEntity
  8
0
100
AcDbSpline
 62
7
  6
BYLAYER
 70
0
 71
3
 72
11
 73
7
 74
0
 42
0.0000001
 43
0.0000001
 44
0.0000000001
 40
0.0
 40
0.0
 40
0.0
 40
0.0
 40
0.289747828
 40
0.5490817881
 40
0.7822231511
 40
1.0
 40
1.0
 40
1.0
 40
1.0
 10
116.3319489238
 20
135.4455907015
 30
0.0
 10
116.3319489238
 20
135.1559766304
 30
0.0
 10
116.2881079793
 20
134.6052761981
 30
0.0
 10
116.0650057109
 20
133.8486519128
 30
0.0
 10
115.6895143693
 20
133.2347491577
 30
0.0
 10
115.3368194987
 20
132.9381783352
 30
0.0
 10
115.1482878031
 20
132.8293721848
 30
0.0
  0
SPLINE
  5
2D4
100
AcDbEntity
  8
0
100
AcDbSpline
 62
7
  6
BYLAYER
 70
0
 71
3
 72
11
 73
7
 74
0
 42
0.0000001
 43
0.0000001
 44
0.0000000001
 40
0.0
 40
0.0
 40
0.0
 40
0.0
 40
0.2177227832
 40
0.4508712161
 40
0.7104668615
 40
1.0
 40
1.0
 40
1.0
 40
1.0
 10
133.0995698108
 20
147.5260776202
 30
0.0
 10
133.0995660763
 20
147.6227932278
 30
0.0
 10
133.1351327251
 20
147.8244427489
 30
0.0
 10
133.2880802261
 20
148.1054802126
 30
0.0
 10
133.5298844256
 20
148.359322442
 30
0.0
 10
133.7320162727
 20
148.4987018381
 30
0.0
 10
133.8434001278
 20
148.563008953
 30
0.0
  0
SPLINE
  5
2D5
100
AcDbEntity
  8
0
100
AcDbSpline
 62
7
  6
BYLAYER
 70
0
 71
3
 72
17
 73
13
 74
0
 42
0.0000001
 43
0.0000001
 44
0.0000000001
 40
0.0
 40
0.0
 40
0.0
 40
0.0
 40
0.1286894632
 40
0.2702727859
 40
0.4174298265
 40
0.5617756708
 40
0.6954458487
 40
0.8127120018
 40
0.8646756037
 40
0.9125101567
 40
0.9571402996
 40
1.0
 40
1.0
 40
1.0
 40
1.0
 10
118.936226563
 20
134.9789758358
 30
0.0
 10
118.936226563
 20
135.6737241347
 30
0.0
 10
118.7418729343
 20
137.1344966133
 30
0.0
 10
118.016442791
 20
139.2793445508
 30
0.0
 10
116.898652492
 20
141.3455560016
 30
0.0
 10
115.4782438089
 20
143.163668074
 30
0.0
 10
113.8713208707
 20
144.5867578393
 30
0.0
 10
112.416918271
 20
145.3821085553
 30
0.0
 10
111.2791619914
 20
145.6847186639
 30
0.0
 10
110.4961290011
 20
145.7423499292
 30
0.0
 10
109.7669690132
 20
145.6355097895
 30
0.0
 10
109.3252656888
 20
145.4518718177
 30
0.0
 10
109.1248799912
 20
145.3361816983
 30
0.0
  0
SPLINE
  5
2D6
100
AcDbEntity
  8
0
100
AcDbSpline
 62
7
  6
BYLAYER
 70
0
 71
3
 72
11
 73
7
 74
0
 42
0.0000001
 43
0.0000001
 44
0.0000000001
 40
0.0
 40
0.0
 40
0.0
 40
0.0
 40
0.2509675461
 40
0.5134585712
 40
0.7688129244
 40
1.0
 40
1.0
 40
1.0
 40
1.0
 10
122.6966129759
 20
148.569488524
 30
0.0
 10
123.3373535033
 20
148.0101296457
 30
0.0
 10
124.5150591827
 20
146.7088396878
 30
0.0
 10
125.8743527437
 20
144.4692575157
 30
0.0
 10
126.7719405644
 20
142.0793423775
 30
0.0
 10
127.0184234223
 20
140.4287163959
 30
0.0
 10
127.0184234223
 20
139.6452065145
 30
0.0
  0
SPLINE
  5
2D7
100
AcDbEntity
  8
0
100
AcDbSpline
 62
7
  6
BYLAYER
 70
0
 71
3
 72
11
 73
7
 74
0
 42
0.0000001
 43
0.0000001
 44
0.0000000001
 40
0.0
 40
0.0
 40
0.0
 40
0.0
 40
0.289777617
 40
0.5490601333
 40
0.782219954
 40
1.0
 40
1.0
 40
1.0
 40
1.0
 10
127.0184234223
 20
139.6452065145
 30
0.0
 10
127.0184234223
 20
139.2332668363
 30
0.0
 10
126.9561590807
 20
138.4500519773
 30
0.0
 10
126.6387059687
 20
137.3740398752
 30
0.0
 10
126.1048710423
 20
136.5008170253
 30
0.0
 10
125.6030826625
 20
136.0791995014
 30
0.0
 10
125.334976412
 20
135.9243932212
 30
0.0
  0
SPLINE
  5
2D8
100
AcDbEntity
  8
0
100
AcDbSpline
 62
7
  6
BYLAYER
 70
0
 71
3
 72
16
 73
12
 74
0
 42
0.0000001
 43
0.0000001
 44
0.0000000001
 40
0.0
 40
0.0
 40
0.0
 40
0.0
 40
0.1287403799
 40
0.2704210658
 40
0.4176258714
 40
0.5620278603
 40
0.695753962
 40
0.8130690845
 40
0.9124719932
 40
0.9571212513
 40
1.0
 40
1.0
 40
1.0
 40
1.0
 10
133.8434001278
 20
148.563008953
 30
0.0
 10
134.0314117738
 20
148.6715568795
 30
0.0
 10
134.4571695075
 20
148.847178008
 30
0.0
 10
135.1509754415
 20
148.9860674958
 30
0.0
 10
135.8848716149
 20
149.0062526192
 30
0.0
 10
136.5986466261
 20
148.9061466235
 30
0.0
 10
137.235335242
 20
148.6930055893
 30
0.0
 10
137.7455122272
 20
148.3834058153
 30
0.0
 10
138.0426142357
 20
148.0421077322
 30
0.0
 10
138.160146219
 20
147.7466332468
 30
0.0
 10
138.1793450567
 20
147.5983843269
 30
0.0
 10
138.1793478486
 20
147.5260772529
 30
0.0
  0
SPLINE
  5
2D9
100
AcDbEntity
  8
0
100
AcDbSpline
 62
7
  6
BYLAYER
 70
0
 71
3
 72
16
 73
12
 74
0
 42
0.0000001
 43
0.0000001
 44
0.0000000001
 40
0.0
 40
0.0
 40
0.0
 40
0.0
 40
0.1287403799
 40
0.2704210658
 40
0.4176258714
 40
0.5620278603
 40
0.695753962
 40
0.8130690845
 40
0.9124719932
 40
0.9571212513
 40
1.0
 40
1.0
 40
1.0
 40
1.0
 10
116.2420248495
 20
158.7249378146
 30
0.0
 10
116.4300364954
 20
158.833485741
 30
0.0
 10
116.8557942292
 20
159.0091068695
 30
0.0
 10
117.5496001632
 20
159.1479963573
 30
0.0
 10
118.2834963366
 20
159.1681814807
 30
0.0
 10
118.9972713477
 20
159.068075485
 30
0.0
 10
119.6339599636
 20
158.8549344508
 30
0.0
 10
120.1441369489
 20
158.5453346768
 30
0.0
 10
120.4412389573
 20
158.2040365937
 30
0.0
 10
120.5587709406
 20
157.9085621083
 30
0.0
 10
120.5779697783
 20
157.7603131884
 30
0.0
 10
120.5779725703
 20
157.6880061144
 30
0.0
  0
SPLINE
  5
2DA
100
AcDbEntity
  8
0
100
AcDbSpline
 62
7
  6
BYLAYER
 70
0
 71
3
 72
11
 73
7
 74
0
 42
0.0000001
 43
0.0000001
 44
0.0000000001
 40
0.0
 40
0.0
 40
0.0
 40
0.0
 40
0.2177227832
 40
0.4508712161
 40
0.7104668615
 40
1.0
 40
1.0
 40
1.0
 40
1.0
 10
115.4981945324
 20
157.6880064818
 30
0.0
 10
115.498190798
 20
157.7847220893
 30
0.0
 10
115.5337574468
 20
157.9863716104
 30
0.0
 10
115.6867049478
 20
158.2674090741
 30
0.0
 10
115.9285091473
 20
158.5212513035
 30
0.0
 10
116.1306409943
 20
158.6606306997
 30
0.0
 10
116.2420248495
 20
158.7249378146
 30
0.0
  0
SPLINE
  5
2DB
100
AcDbEntity
  8
0
100
AcDbSpline
 62
7
  6
BYLAYER
 70
0
 71
3
 72
13
 73
9
 74
0
 42
0.0000001
 43
0.0000001
 44
0.0000000001
 40
0.0
 40
0.0
 40
0.0
 40
0.0
 40
0.2699738623
 40
0.5613347974
 40
0.6954779143
 40
0.8131813281
 40
0.9128760288
 40
1.0
 40
1.0
 40
1.0
 40
1.0
 10
22.3988161137
 20
87.4352358143
 30
0.0
 10
22.3988161137
 20
87.5486958563
 30
0.0
 10
22.3364541259
 20
87.783845618
 30
0.0
 10
22.174894721
 20
88.0334091557
 30
0.0
 10
22.0030297368
 20
88.1858899118
 30
0.0
 10
21.8719732684
 20
88.2575421895
 30
0.0
 10
21.743717764
 20
88.2830269676
 30
0.0
 10
21.6640086653
 20
88.2627119521
 30
0.0
 10
21.6323082041
 20
88.2443887966
 30
0.0
  0
SPLINE
  5
2DC
100
AcDbEntity
  8
0
100
AcDbSpline
 62
7
  6
BYLAYER
 70
0
 71
3
 72
11
 73
7
 74
0
 42
0.0000001
 43
0.0000001
 44
0.0000000001
 40
0.0
 40
0.0
 40
0.0
 40
0.0
 40
0.2318562063
 40
0.4716760126
 40
0.7263165768
 40
1.0
 40
1.0
 40
1.0
 40
1.0
 10
117.2070947406
 20
150.0023815133
 30
0.0
 10
117.3888405534
 20
150.1073227191
 30
0.0
 10
117.7851275258
 20
150.2778742159
 30
0.0
 10
118.4368251837
 20
150.3962365055
 30
0.0
 10
119.1360465735
 20
150.3789097886
 30
0.0
 10
119.6070102558
 20
150.2827337835
 30
0.0
 10
119.8454581767
 20
150.2155662755
 30
0.0
  0
SPLINE
  5
2DD
100
AcDbEntity
  8
0
100
AcDbSpline
 62
7
  6
BYLAYER
 70
0
 71
3
 72
11
 73
7
 74
0
 42
0.0000001
 43
0.0000001
 44
0.0000000001
 40
0.0
 40
0.0
 40
0.0
 40
0.0
 40
0.2177778175
 40
0.4509366686
 40
0.7102284219
 40
1.0
 40
1.0
 40
1.0
 40
1.0
 10
117.2527974427
 20
131.2581316787
 30
0.0
 10
117.5209095361
 20
131.4129227665
 30
0.0
 10
118.0226441565
 20
131.8346020249
 30
0.0
 10
118.5565368596
 20
132.7077889973
 30
0.0
 10
118.8739497456
 20
133.7838287882
 30
0.0
 10
118.936226563
 20
134.567043902
 30
0.0
 10
118.936226563
 20
134.9789758358
 30
0.0
  0
SPLINE
  5
2DE
100
AcDbEntity
  8
0
100
AcDbSpline
 62
7
  6
BYLAYER
 70
0
 71
3
 72
17
 73
13
 74
0
 42
0.0000001
 43
0.0000001
 44
0.0000000001
 40
0.0
 40
0.0
 40
0.0
 40
0.0
 40
0.0428578771
 40
0.0874863702
 40
0.1353177609
 40
0.1872829726
 40
0.3045435592
 40
0.4382107428
 40
0.5825534682
 40
0.729713877
 40
0.871303884
 40
1.0
 40
1.0
 40
1.0
 40
1.0
 10
109.433345886
 20
142.7280010424
 30
0.0
 10
109.574248707
 20
142.8093194302
 30
0.0
 10
109.8847928089
 20
142.938475321
 30
0.0
 10
110.3974692259
 20
143.0134884947
 30
0.0
 10
110.9480335298
 20
142.973129208
 30
0.0
 10
111.7479621533
 20
142.7602140779
 30
0.0
 10
112.770622715
 20
142.20117044
 30
0.0
 10
113.9004417589
 20
141.2005396252
 30
0.0
 10
114.8991623598
 20
139.9222094933
 30
0.0
 10
115.6851460787
 20
138.4693993756
 30
0.0
 10
116.1952927389
 20
136.9612660146
 30
0.0
 10
116.3319489238
 20
135.9341094978
 30
0.0
 10
116.3319489238
 20
135.4455907015
 30
0.0
  0
SPLINE
  5
2DF
100
AcDbEntity
  8
0
100
AcDbSpline
 62
7
  6
BYLAYER
 70
0
 71
3
 72
11
 73
7
 74
0
 42
0.0000001
 43
0.0000001
 44
0.0000000001
 40
0.0
 40
0.0
 40
0.0
 40
0.0
 40
0.2177825193
 40
0.4509258869
 40
0.7102559535
 40
1.0
 40
1.0
 40
1.0
 40
1.0
 10
111.9154143104
 20
130.9628708229
 30
0.0
 10
112.1039523563
 20
131.0716783369
 30
0.0
 10
112.4566551755
 20
131.3682565471
 30
0.0
 10
112.8321325825
 20
131.9821737266
 30
0.0
 10
113.0552369221
 20
132.7387923494
 30
0.0
 10
113.0990701792
 20
133.2894874544
 30
0.0
 10
113.0990701792
 20
133.5790984295
 30
0.0
  0
SPLINE
  5
2E0
100
AcDbEntity
  8
0
100
AcDbSpline
 62
7
  6
BYLAYER
 70
0
 71
3
 72
14
 73
10
 74
0
 42
0.0000001
 43
0.0000001
 44
0.0000000001
 40
0.0
 40
0.0
 40
0.0
 40
0.0
 40
0.0145999039
 40
0.0574276653
 40
0.1305792398
 40
0.2360335183
 40
0.3757171622
 40
0.5513167869
 40
1.0
 40
1.0
 40
1.0
 40
1.0
 10
90.0391170038
 20
127.7388477839
 30
0.0
 10
90.040245217
 20
127.7395062738
 30
0.0
 10
90.0448551644
 20
127.7340498386
 30
0.0
 10
90.0541363057
 20
127.7299082385
 30
0.0
 10
90.0702883602
 20
127.7167000605
 30
0.0
 10
90.0930743722
 20
127.7004092638
 30
0.0
 10
90.1232809194
 20
127.6776225245
 30
0.0
 10
90.1780618006
 20
127.6368999951
 30
0.0
 10
90.2230544837
 20
127.6037204475
 30
0.0
 10
90.2555906405
 20
127.5802027851
 30
0.0
  0
SPLINE
  5
2E1
100
AcDbEntity
  8
0
100
AcDbSpline
 62
7
  6
BYLAYER
 70
0
 71
3
 72
10
 73
6
 74
0
 42
0.0000001
 43
0.0000001
 44
0.0000000001
 40
0.0
 40
0.0
 40
0.0
 40
0.0
 40
0.5057742177
 40
0.7654122267
 40
1.0
 40
1.0
 40
1.0
 40
1.0
 10
90.2555906405
 20
127.5802027851
 30
0.0
 10
90.3733372917
 20
127.495093594
 30
0.0
 10
90.5162788854
 20
127.3150133689
 30
0.0
 10
90.6251579701
 20
127.0486370845
 30
0.0
 10
90.6484784816
 20
126.9063476997
 30
0.0
 10
90.6484784816
 20
126.838961546
 30
0.0
  0
SPLINE
  5
2E2
100
AcDbEntity
  8
0
100
AcDbSpline
 62
7
  6
BYLAYER
 70
0
 71
3
 72
9
 73
5
 74
0
 42
0.0000001
 43
0.0000001
 44
0.0000000001
 40
0.0
 40
0.0
 40
0.0
 40
0.0
 40
0.4494986026
 40
1.0
 40
1.0
 40
1.0
 40
1.0
 10
22.2672946724
 20
87.1445485903
 30
0.0
 10
22.3101394057
 20
87.1693132367
 30
0.0
 10
22.3840118004
 20
87.2619867118
 30
0.0
 10
22.3988161137
 20
87.3746290879
 30
0.0
 10
22.3988161137
 20
87.4352358143
 30
0.0
  0
SPLINE
  5
2E3
100
AcDbEntity
  8
0
100
AcDbSpline
 62
7
  6
BYLAYER
 70
0
 71
3
 72
11
 73
7
 74
0
 42
0.0000001
 43
0.0000001
 44
0.0000000001
 40
0.0
 40
0.0
 40
0.0
 40
0.0
 40
0.2378366886
 40
0.5012277862
 40
0.7639775783
 40
1.0
 40
1.0
 40
1.0
 40
1.0
 10
93.7915812099
 20
125.0243313922
 30
0.0
 10
93.7915812099
 20
125.3225575465
 30
0.0
 10
93.6783961708
 20
125.9514385071
 30
0.0
 10
93.2851195113
 20
126.8328713095
 30
0.0
 10
92.7114999464
 20
127.6062766949
 30
0.0
 10
92.2203339857
 20
128.0106010854
 30
0.0
 10
91.9616243054
 20
128.1543245299
 30
0.0
  0
SPLINE
  5
2E4
100
AcDbEntity
  8
0
100
AcDbSpline
 62
7
  6
BYLAYER
 70
0
 71
3
 72
9
 73
5
 74
0
 42
0.0000001
 43
0.0000001
 44
0.0000000001
 40
0.0
 40
0.0
 40
0.0
 40
0.0
 40
0.5438755054
 40
1.0
 40
1.0
 40
1.0
 40
1.0
 10
91.9616243054
 20
128.1543245299
 30
0.0
 10
91.7870171771
 20
128.2513256854
 30
0.0
 10
91.4408655945
 20
128.3932041578
 30
0.0
 10
91.0573402739
 20
128.3865765385
 30
0.0
 10
90.8975316542
 20
128.3363527214
 30
0.0
  0
SPLINE
  5
2E5
100
AcDbEntity
  8
0
100
AcDbSpline
 62
7
  6
BYLAYER
 70
0
 71
3
 72
9
 73
5
 74
0
 42
0.0000001
 43
0.0000001
 44
0.0000000001
 40
0.0
 40
0.0
 40
0.0
 40
0.0
 40
0.2518664215
 40
1.0
 40
1.0
 40
1.0
 40
1.0
 10
90.8975316542
 20
128.3363527214
 30
0.0
 10
90.8683836434
 20
128.327192237
 30
0.0
 10
90.7545524238
 20
128.284975549
 30
0.0
 10
90.6501733237
 20
128.2177607378
 30
0.0
 10
90.5825164016
 20
128.1572708654
 30
0.0
  0
SPLINE
  5
2E6
100
AcDbEntity
  8
0
100
AcDbSpline
 62
7
  6
BYLAYER
 70
0
 71
3
 72
9
 73
5
 74
0
 42
0.0000001
 43
0.0000001
 44
0.0000000001
 40
0.0
 40
0.0
 40
0.0
 40
0.0
 40
0.4746368358
 40
1.0
 40
1.0
 40
1.0
 40
1.0
 10
90.5825164016
 20
128.1572708654
 30
0.0
 10
90.5034234735
 20
128.0865564289
 30
0.0
 10
90.363877528
 20
127.9059760485
 30
0.0
 10
90.284531951
 20
127.6940148546
 30
0.0
 10
90.2555906405
 20
127.5802027851
 30
0.0
  0
SPLINE
  5
2E7
100
AcDbEntity
  8
0
100
AcDbSpline
 62
7
  6
BYLAYER
 70
0
 71
3
 72
19
 73
15
 74
0
 42
0.0000001
 43
0.0000001
 44
0.0000000001
 40
0.0
 40
0.0
 40
0.0
 40
0.0
 40
0.1520294429
 40
0.3085971587
 40
0.4569870313
 40
0.5865743701
 40
0.6428899688
 40
0.6938368196
 40
0.7408535072
 40
0.7862825362
 40
0.8328962441
 40
0.8831584271
 40
0.9387131192
 40
1.0
 40
1.0
 40
1.0
 40
1.0
 10
90.2814482442
 20
126.4315192701
 30
0.0
 10
90.3476589998
 20
126.1493267124
 30
0.0
 10
90.5519604315
 20
125.5917478116
 30
0.0
 10
91.0116390827
 20
124.8450524476
 30
0.0
 10
91.5835769457
 20
124.2376701785
 30
0.0
 10
92.1290406605
 20
123.8873393556
 30
0.0
 10
92.5635741385
 20
123.7543336049
 30
0.0
 10
92.859765974
 20
123.7316450322
 30
0.0
 10
93.1319444956
 20
123.7845385212
 30
0.0
 10
93.3683207142
 20
123.9140221833
 30
0.0
 10
93.5578262969
 20
124.1136965089
 30
0.0
 10
93.6942212236
 20
124.3738149888
 30
0.0
 10
93.77526134
 20
124.6841263231
 30
0.0
 10
93.7915812099
 20
124.9074831679
 30
0.0
 10
93.7915812099
 20
125.0243313922
 30
0.0
  0
ENDSEC
  0
SECTION
  2
OBJECTS
  0
DICTIONARY
  5
C
100
AcDbDictionary
280
0
281
1
  3
ACAD_GROUP
350
D
  3
ACAD_MLINESTYLE
350
17
  3
ACAD_LAYOUT
350
1A
  3
ACAD_PLOTSETTINGS
350
19
  3
ACAD_PLOTSTYLENAME
350
E
  0
DICTIONARY
  5
D
102
{ACAD_REACTORS
330
C
102
}
100
AcDbDictionary
280
0
281
1
  0
ACDBDICTIONARYWDFLT
  5
E
102
{ACAD_REACTORS
330
C
102
}
100
AcDbDictionary
281
1
  3
Normal
350
F
100
AcDbDictionaryWithDefault
340
F
  0
DICTIONARY
  5
17
102
{ACAD_REACTORS
330
C
102
}
100
AcDbDictionary
280
0
281
1
  3
Standard
350
18
  0
DICTIONARY
  5
19
102
{ACAD_REACTORS
330
C
102
}
100
AcDbDictionary
281
1
  0
DICTIONARY
  5
1A
102
{ACAD_REACTORS
330
C
102
}
100
AcDbDictionary
281
1
  3
Model
350
2E8
  3
Layout1
350
2E9
  0
ACDBPLACEHOLDER
  5
F
102
{ACAD_REACTORS
330
E
102
}
  0
MLINESTYLE
  5
18
102
{ACAD_REACTORS
330
17
102
}
100
AcDbMlineStyle
  2
STANDARD
 70
0
  3

 62
256
 51
90.0
 52
90.0
 71
2
 49
0.5
 62
256
  6
BYLAYER
 49
-0.5
 62
256
  6
BYLAYER
  0
LAYOUT
  5
2E8
102
{ACAD_REACTORS
330
1A
102
}
100
AcDbPlotSettings
  1

  2
none_device
  4

  6

 40
0.0
 41
0.0
 42
0.0
 43
0.0
 44
210.0
 45
297.0
 46
0.0
 47
0.0
 48
0.0
 49
0.0
140
0.0
141
0.0
142
1.0
143
1.0
 70
1024
 72
1
 73
0
 74
0
  7

 75
0
147
1.0
148
0.0
149
0.0
100
AcDbLayout
  1
Model
 70
0
 71
0
 10
0.0
 20
0.0
 11
210.0
 21
297.0
 12
0.0
 22
0.0
 32
0.0
 14
0.0
 24
0.0
 34
0.0
 15
0.0
 25
0.0
 35
0.0
146
0.0
 13
0.0
 23
0.0
 33
0.0
 16
1.0
 26
0.0
 36
0.0
 17
0.0
 27
1.0
 37
0.0
 76
0
330
210
345
0
346
0
  0
LAYOUT
  5
2E9
102
{ACAD_REACTORS
330
1A
102
}
100
AcDbPlotSettings
  1

  2
none_device
  4

  6

 40
0.0
 41
0.0
 42
0.0
 43
0.0
 44
210.0
 45
297.0
 46
0.0
 47
0.0
 48
0.0
 49
0.0
140
0.0
141
0.0
142
1.0
143
1.0
 70
0
 72
1
 73
0
 74
0
  7

 75
0
147
1.0
148
0.0
149
0.0
100
AcDbLayout
  1
Layout1
 70
0
 71
1
 10
0.0
 20
0.0
 11
210.0
 21
297.0
 12
0.0
 22
0.0
 32
0.0
 14
0.0
 24
0.0
 34
0.0
 15
0.0
 25
0.0
 35
0.0
146
0.0
 13
0.0
 23
0.0
 33
0.0
 16
1.0
 26
0.0
 36
0.0
 17
0.0
 27
1.0
 37
0.0
 76
0
330
211
345
0
346
0
  0
ENDSEC
  0
EOF
