999
DXF file: C:\Users\sesa63760\Dev\_Creo\CAD\MCADID0004670_3D-CAD\drw0001_3.dxf
999
Pro/ENGINEER 2019471 by Parametric Technology Corporation
  0
SECTION
  2
HEADER
  9
$ACADVER
  1
AC1024
  9
$DWGCODEPAGE
  3
ANSI_1252
  9
$EXTMAX
 10
63.8793295272
 20
90.3436231884
 30
0.0
  9
$EXTMIN
 10
0.0
 20
0.0
 30
0.0
  9
$LIMMIN
 10
0.0
 20
0.0
  9
$LIMMAX
 10
63.8793295272
 20
90.3436231884
  9
$VIEWCTR
 10
31.9396647636
 20
45.1718115942
  9
$VIEWSIZE
 40
90.3436231884
  9
$CLAYER
  8
0
  9
$LTSCALE
 40
5.8890658078
  9
$CELTYPE
  6
BYLAYER
  9
$DIMSCALE
 40
1.0
  9
$DIMASZ
 40
0.7604682087
  9
$DIMEXO
 40
1.0
  9
$DIMDLI
 40
4.0688091036
  9
$DIMEXE
 40
1.0
  9
$DIMCEN
 40
0.963665314
  9
$DIMLFAC
 40
1.0
  9
$DIMBLK
  1
_FILLED
  9
$DIMALT
 70
0
  9
$DIMALTF
 40
0.0393700787
  9
$DIMTXT
 40
1.0646554921
  9
$DIMTOL
 70
1
  9
$DIMLIM
 70
0
  9
$DIMTFAC
 40
1.0
  9
$DIMTP
 40
0.01
  9
$DIMTM
 40
0.01
  9
$DIMGAP
 40
0.625
  9
$DIMDSEP
 70
46
  9
$AUNITS
 70
0
  9
$PDMODE
 70
3
  9
$PDSIZE
 40
0.3125
  9
$HANDSEED
  5
2B2
  9
$TILEMODE
 70
1
  9
$MEASUREMENT
 70
1
  9
$INSUNITS
 70
4
  0
ENDSEC
  0
SECTION
  2
CLASSES
  0
CLASS
  1
ACDBDICTIONARYWDFLT
  2
AcDbDictionaryWithDefault
  3
AutoCAD 2000
 90
0
 91
1
280
0
281
0
  0
CLASS
  1
ACDBPLACEHOLDER
  2
AcDbPlaceHolder
  3
AutoCAD 2000
 90
0
 91
1
280
0
281
0
  0
CLASS
  1
LAYOUT
  2
AcDbLayout
  3
AutoCAD 2000
 90
0
 91
0
280
0
281
0
  0
ENDSEC
  0
SECTION
  2
TABLES
  0
TABLE
  2
VPORT
  5
8
100
AcDbSymbolTable
 70
2
  0
VPORT
  5
1F4
100
AcDbSymbolTableRecord
100
AcDbViewportTableRecord
  2
*ACTIVE
 70
0
 10
0.0
 20
0.0
 11
1.0
 21
1.0
 12
31.9396647636
 22
45.1718115942
 13
0.0
 23
0.0
 14
1.0
 24
1.0
 15
0.0
 25
0.0
 16
0.0
 26
0.0
 36
1.0
 17
0.0
 27
0.0
 37
0.0
 40
90.3436231884
 41
0.7070707071
 42
50.0
 43
0.0
 44
0.0
 50
0.0
 51
0.0
 71
0
 72
100
 73
1
 74
1
 75
0
 76
0
 77
0
 78
0
  0
ENDTAB
  0
TABLE
  2
LTYPE
  5
5
100
AcDbSymbolTable
 70
6
  0
LTYPE
  5
14
100
AcDbSymbolTableRecord
100
AcDbLinetypeTableRecord
  2
BYBLOCK
 70
0
  3

 72
65
 73
0
 40
0.0
  0
LTYPE
  5
15
100
AcDbSymbolTableRecord
100
AcDbLinetypeTableRecord
  2
BYLAYER
 70
0
  3

 72
65
 73
0
 40
0.0
  0
LTYPE
  5
16
100
AcDbSymbolTableRecord
100
AcDbLinetypeTableRecord
  2
CONTINUOUS
 70
64
  3
Solid line
 72
65
 73
0
 40
0.0
  0
LTYPE
  5
1F5
100
AcDbSymbolTableRecord
100
AcDbLinetypeTableRecord
  2
CENTER
 70
64
  3
____ _ ____ _ ____ _ ____ _ ____ _ ____ _ ____
 72
65
 73
4
 40
0.6
 49
0.375
 74
0
 49
-0.075
 74
0
 49
0.075
 74
0
 49
-0.075
 74
0
  0
LTYPE
  5
1F6
100
AcDbSymbolTableRecord
100
AcDbLinetypeTableRecord
  2
HIDDEN
 70
64
  3
- - - - - - - - - - - - - - - - - - - -
 72
65
 73
2
 40
0.2
 49
0.1
 74
0
 49
-0.1
 74
0
  0
LTYPE
  5
1F7
100
AcDbSymbolTableRecord
100
AcDbLinetypeTableRecord
  2
PHANTOM
 70
64
  3
_____ _ _ _____ _ _ _____ _ _ _____
 72
65
 73
6
 40
0.8
 49
0.45
 74
0
 49
-0.05
 74
0
 49
0.1
 74
0
 49
-0.05
 74
0
 49
0.1
 74
0
 49
-0.05
 74
0
  0
LTYPE
  5
1F8
100
AcDbSymbolTableRecord
100
AcDbLinetypeTableRecord
  2
DOT
 70
64
  3
. . . . . . . . . . . . . . . . . . . .
 72
65
 73
2
 40
0.2
 49
0.1
 74
0
 49
-0.1
 74
0
  0
LTYPE
  5
1F9
100
AcDbSymbolTableRecord
100
AcDbLinetypeTableRecord
  2
DASHED
 70
64
  3
- - - - - - - - - - - - - - - - - - - -
 72
65
 73
2
 40
0.2
 49
0.1
 74
0
 49
-0.1
 74
0
  0
ENDTAB
  0
TABLE
  2
LAYER
  5
2
100
AcDbSymbolTable
 70
36
  0
LAYER
  5
10
100
AcDbSymbolTableRecord
100
AcDbLayerTableRecord
  2
0
 70
0
 62
7
  6
CONTINUOUS
370
-3
390
F
  0
LAYER
  5
1FA
100
AcDbSymbolTableRecord
100
AcDbLayerTableRecord
  2
DEFAULT_1
 70
0
 62
7
  6
CENTER
370
-3
390
F
  0
LAYER
  5
1FB
100
AcDbSymbolTableRecord
100
AcDbLayerTableRecord
  2
DEFAULT_2
 70
0
 62
7
  6
HIDDEN
370
-3
390
F
  0
LAYER
  5
1FC
100
AcDbSymbolTableRecord
100
AcDbLayerTableRecord
  2
DEFAULT_3
 70
0
 62
7
  6
PHANTOM
370
-3
390
F
  0
LAYER
  5
1FD
100
AcDbSymbolTableRecord
100
AcDbLayerTableRecord
  2
00_COMPONENTS
 70
0
 62
7
  6
CONTINUOUS
370
-3
390
F
  0
LAYER
  5
1FE
100
AcDbSymbolTableRecord
100
AcDbLayerTableRecord
  2
01_1_DEFAULT_DATUMS
 70
0
 62
7
  6
CONTINUOUS
370
-3
390
F
  0
LAYER
  5
1FF
100
AcDbSymbolTableRecord
100
AcDbLayerTableRecord
  2
01_PLANES
 70
0
 62
7
  6
CONTINUOUS
370
-3
390
F
  0
LAYER
  5
200
100
AcDbSymbolTableRecord
100
AcDbLayerTableRecord
  2
02_COORD_SYS
 70
0
 62
7
  6
CONTINUOUS
370
-3
390
F
  0
LAYER
  5
201
100
AcDbSymbolTableRecord
100
AcDbLayerTableRecord
  2
03_AXES
 70
0
 62
7
  6
CONTINUOUS
370
-3
390
F
  0
LAYER
  5
202
100
AcDbSymbolTableRecord
100
AcDbLayerTableRecord
  2
04_POINTS
 70
0
 62
7
  6
CONTINUOUS
370
-3
390
F
  0
LAYER
  5
203
100
AcDbSymbolTableRecord
100
AcDbLayerTableRecord
  2
05_CURVES
 70
0
 62
7
  6
CONTINUOUS
370
-3
390
F
  0
LAYER
  5
204
100
AcDbSymbolTableRecord
100
AcDbLayerTableRecord
  2
06_SURFS
 70
0
 62
7
  6
CONTINUOUS
370
-3
390
F
  0
LAYER
  5
205
100
AcDbSymbolTableRecord
100
AcDbLayerTableRecord
  2
07_COSMETICS
 70
0
 62
7
  6
CONTINUOUS
370
-3
390
F
  0
LAYER
  5
206
100
AcDbSymbolTableRecord
100
AcDbLayerTableRecord
  2
10_NOTES
 70
0
 62
7
  6
CONTINUOUS
370
-3
390
F
  0
LAYER
  5
207
100
AcDbSymbolTableRecord
100
AcDbLayerTableRecord
  2
11_NOTES_PUB
 70
0
 62
7
  6
CONTINUOUS
370
-3
390
F
  0
LAYER
  5
208
100
AcDbSymbolTableRecord
100
AcDbLayerTableRecord
  2
13_REF_GTOL
 70
0
 62
7
  6
CONTINUOUS
370
-3
390
F
  0
LAYER
  5
209
100
AcDbSymbolTableRecord
100
AcDbLayerTableRecord
  2
16_MISC
 70
0
 62
7
  6
CONTINUOUS
370
-3
390
F
  0
LAYER
  5
20A
100
AcDbSymbolTableRecord
100
AcDbLayerTableRecord
  2
17_NO_PRINT
 70
0
 62
7
  6
CONTINUOUS
370
-3
390
F
  0
LAYER
  5
20B
100
AcDbSymbolTableRecord
100
AcDbLayerTableRecord
  2
18_DATUM_CAMS_JOINTS
 70
0
 62
7
  6
CONTINUOUS
370
-3
390
F
  0
LAYER
  5
20C
100
AcDbSymbolTableRecord
100
AcDbLayerTableRecord
  2
19_DATUM_FUNCTIONAL
 70
0
 62
7
  6
CONTINUOUS
370
-3
390
F
  0
LAYER
  5
20D
100
AcDbSymbolTableRecord
100
AcDbLayerTableRecord
  2
20_DATUM_KINEMATIC_SCHEME
 70
0
 62
7
  6
CONTINUOUS
370
-3
390
F
  0
ENDTAB
  0
TABLE
  2
STYLE
  5
3
100
AcDbSymbolTable
 70
1
  0
STYLE
  5
11
100
AcDbSymbolTableRecord
100
AcDbTextStyleTableRecord
  2
STANDARD
 70
0
 40
0.0
 41
1.0
 50
0.0
 71
0
 42
0.2
  3
ARIAL.TTF
  4

  0
STYLE
  5
20E
100
AcDbSymbolTableRecord
100
AcDbTextStyleTableRecord
  2
TEXTSTYLE_1
 70
0
 40
0.0
 41
0.8
 50
0.0
 71
0
 42
0.2
  3
gdt
  4

  0
ENDTAB
  0
TABLE
  2
VIEW
  5
6
100
AcDbSymbolTable
 70
0
  0
ENDTAB
  0
TABLE
  2
UCS
  5
7
100
AcDbSymbolTable
 70
0
  0
ENDTAB
  0
TABLE
  2
APPID
  5
9
100
AcDbSymbolTable
 70
1
  0
APPID
  5
20F
100
AcDbSymbolTableRecord
100
AcDbRegAppTableRecord
  2
ACAD
 70
0
  0
ENDTAB
  0
TABLE
  2
BLOCK_RECORD
  5
1
100
AcDbSymbolTable
 70
0
  0
BLOCK_RECORD
  5
210
100
AcDbSymbolTableRecord
100
AcDbBlockTableRecord
  2
*Model_Space
  0
BLOCK_RECORD
  5
211
100
AcDbSymbolTableRecord
100
AcDbBlockTableRecord
  2
*Paper_Space
  0
BLOCK_RECORD
  5
212
100
AcDbSymbolTableRecord
100
AcDbBlockTableRecord
  2
_FILLED
  0
ENDTAB
  0
TABLE
  2
DIMSTYLE
  5
A
100
AcDbSymbolTable
 70
1
100
AcDbDimStyleTable
 71
0
  0
DIMSTYLE
105
213
100
AcDbSymbolTableRecord
100
AcDbDimStyleTableRecord
  2
STANDARD
 70
0
  3

  4

 40
1.0
 41
0.7604682087
 42
1.0
 43
0.38
 44
1.0
 45
0.0
 46
0.0
 47
0.01
 48
0.01
140
1.0646554921
141
0.09
142
0.0
143
25.4
144
1.0
145
0.0
146
1.0
147
0.625
 71
1
 72
0
 73
0
 74
0
 75
0
 76
0
 77
1
 78
8
 79
2
170
0
171
1
172
0
173
0
174
0
175
0
176
0
177
0
178
0
270
2
179
2
271
2
272
2
273
2
274
2
275
0
280
0
281
0
282
0
283
1
284
8
285
0
286
0
287
3
288
0
340
11
278
46
341
212
342
212
343
212
344
212
  0
ENDTAB
  0
ENDSEC
  0
SECTION
  2
BLOCKS
  0
BLOCK
  5
20
100
AcDbEntity
  8
0
100
AcDbBlockBegin
  2
*Model_Space
 70
0
 10
0.0
 20
0.0
 30
0.0
  3
*Model_Space
  1

  0
ENDBLK
  5
21
100
AcDbEntity
  8
0
100
AcDbBlockEnd
  0
BLOCK
  5
1C
100
AcDbEntity
  8
0
100
AcDbBlockBegin
  2
*Paper_Space
 70
0
 10
0.0
 20
0.0
 30
0.0
  3
*Paper_Space
  1

  0
ENDBLK
  5
1D
100
AcDbEntity
  8
0
100
AcDbBlockEnd
  0
BLOCK
  5
214
100
AcDbEntity
  8
0
100
AcDbBlockBegin
  2
_FILLED
 70
64
 10
0.0
 20
0.0
  3
_FILLED
  1

  0
SOLID
  5
215
100
AcDbEntity
  8
0
  6
BYBLOCK
 62
0
100
AcDbTrace
 10
0.0
 20
0.0
 11
-1.0
 21
0.25
 12
-1.0
 22
-0.25
 13
-1.0
 23
-0.25
  0
ENDBLK
  5
216
100
AcDbEntity
  8
0
  6
BYBLOCK
 62
0
100
AcDbBlockEnd
  0
ENDSEC
  0
SECTION
  2
ENTITIES
  0
LINE
  5
217
100
AcDbEntity
  8
0
100
AcDbLine
 62
7
  6
BYLAYER
 10
35.1240044046
 20
7.2429710145
 11
30.5246004848
 21
7.2429710145
  0
LINE
  5
218
100
AcDbEntity
  8
0
100
AcDbLine
 62
7
  6
BYLAYER
 10
45.6535658686
 20
79.7429710145
 11
45.2059369104
 21
79.2893848447
  0
LINE
  5
219
100
AcDbEntity
  8
0
100
AcDbLine
 62
7
  6
BYLAYER
 10
36.7314760464
 20
32.2429710145
 11
28.917128843
 21
32.2429710145
  0
LINE
  5
21A
100
AcDbEntity
  8
0
100
AcDbLine
 62
7
  6
BYLAYER
 10
28.9169124418
 20
32.2429710145
 11
28.3243024447
 21
32.4374814792
  0
LINE
  5
21B
100
AcDbEntity
  8
0
100
AcDbLine
 62
7
  6
BYLAYER
 10
28.3243024447
 20
32.4374814792
 11
26.2854669393
 21
33.9374814792
  0
LINE
  5
21C
100
AcDbEntity
  8
0
100
AcDbLine
 62
7
  6
BYLAYER
 10
19.8243024447
 20
71.2429710145
 11
19.8243024447
 21
80.7429710145
  0
LINE
  5
21D
100
AcDbEntity
  8
0
100
AcDbLine
 62
7
  6
BYLAYER
 10
19.9950390208
 20
71.2429710145
 11
19.9950390208
 21
79.7429710145
  0
LINE
  5
21E
100
AcDbEntity
  8
0
100
AcDbLine
 62
7
  6
BYLAYER
 10
20.4426679791
 20
79.2893848447
 11
20.4426679791
 21
70.7893848447
  0
LINE
  5
21F
100
AcDbEntity
  8
0
100
AcDbLine
 62
7
  6
BYLAYER
 10
20.6638344078
 20
79.7429710145
 11
20.6638344078
 21
71.2429710145
  0
LINE
  5
220
100
AcDbEntity
  8
0
100
AcDbLine
 62
7
  6
BYLAYER
 10
20.7859464003
 20
70.4929710145
 11
20.7859464003
 21
71.1124286787
  0
LINE
  5
221
100
AcDbEntity
  8
0
100
AcDbLine
 62
7
  6
BYLAYER
 10
21.265148544
 20
70.5451738077
 11
21.265148544
 21
70.4929710145
  0
LINE
  5
222
100
AcDbEntity
  8
0
100
AcDbLine
 62
7
  6
BYLAYER
 10
42.8847704817
 20
79.7429710145
 11
42.5337482384
 21
79.2893848447
  0
LINE
  5
223
100
AcDbEntity
  8
0
100
AcDbLine
 62
7
  6
BYLAYER
 10
37.3243024447
 20
32.4374814792
 11
28.3243024447
 21
32.4374814792
  0
LINE
  5
224
100
AcDbEntity
  8
0
100
AcDbLine
 62
7
  6
BYLAYER
 10
26.2854669393
 20
33.9374814792
 11
39.3631379501
 21
33.9374814792
  0
LINE
  5
225
100
AcDbEntity
  8
0
100
AcDbLine
 62
7
  6
BYLAYER
 10
39.7667226512
 20
34.6558152717
 11
25.8818822383
 21
34.6558152717
  0
LINE
  5
226
100
AcDbEntity
  8
0
100
AcDbLine
 62
7
  6
BYLAYER
 10
24.8216285585
 20
38.7429710145
 11
24.5591625679
 21
41.7429710145
  0
LINE
  5
227
100
AcDbEntity
  8
0
100
AcDbLine
 62
7
  6
BYLAYER
 10
24.2092079138
 20
45.7429710145
 11
23.9467419232
 21
48.7429710145
  0
LINE
  5
228
100
AcDbEntity
  8
0
100
AcDbLine
 62
7
  6
BYLAYER
 10
25.8818822383
 20
34.6558152717
 11
25.5243024447
 21
38.7429710145
  0
LINE
  5
229
100
AcDbEntity
  8
0
100
AcDbLine
 62
7
  6
BYLAYER
 10
25.2618364542
 20
41.7429710145
 11
24.9118818001
 21
45.7429710145
  0
LINE
  5
22A
100
AcDbEntity
  8
0
100
AcDbLine
 62
7
  6
BYLAYER
 10
24.6494158095
 20
48.7429710145
 11
24.3495335662
 21
52.1706407398
  0
LINE
  5
22B
100
AcDbEntity
  8
0
100
AcDbLine
 62
7
  6
BYLAYER
 10
22.7638344078
 20
71.2429710145
 11
22.7638344078
 21
79.7429710145
  0
LINE
  5
22C
100
AcDbEntity
  8
0
100
AcDbLine
 62
7
  6
BYLAYER
 10
22.8243024447
 20
65.7429710145
 11
22.8243024447
 21
58.2429710145
  0
LINE
  5
22D
100
AcDbEntity
  8
0
100
AcDbLine
 62
7
  6
BYLAYER
 10
23.1148566511
 20
79.2893848447
 11
23.1148566511
 21
70.7893848447
  0
LINE
  5
22E
100
AcDbEntity
  8
0
100
AcDbLine
 62
7
  6
BYLAYER
 10
23.5324120369
 20
70.4929710145
 11
23.5324120369
 21
78.9929710145
  0
LINE
  5
22F
100
AcDbEntity
  8
0
100
AcDbLine
 62
7
  6
BYLAYER
 10
24.5910173848
 20
79.7429710145
 11
24.5910173848
 21
71.2429710145
  0
LINE
  5
230
100
AcDbEntity
  8
0
100
AcDbLine
 62
7
  6
BYLAYER
 10
24.8416166406
 20
70.8472856591
 11
24.8416166406
 21
70.4929710145
  0
LINE
  5
231
100
AcDbEntity
  8
0
100
AcDbLine
 62
7
  6
BYLAYER
 10
42.5337482384
 20
70.7893848447
 11
42.8847704817
 21
71.2429710145
  0
LINE
  5
232
100
AcDbEntity
  8
0
100
AcDbLine
 62
7
  6
BYLAYER
 10
44.9847704817
 20
71.2429710145
 11
44.5604766264
 21
70.7893848447
  0
LINE
  5
233
100
AcDbEntity
  8
0
100
AcDbLine
 62
7
  6
BYLAYER
 10
45.2059369104
 20
70.7893848447
 11
45.6535658686
 21
71.2429710145
  0
LINE
  5
234
100
AcDbEntity
  8
0
100
AcDbLine
 62
7
  6
BYLAYER
 10
45.8243024447
 20
71.2429710145
 11
44.8243024447
 21
70.2429710145
  0
LINE
  5
235
100
AcDbEntity
  8
0
100
AcDbLine
 62
7
  6
BYLAYER
 10
25.7143024447
 20
70.2429710145
 11
25.7143024447
 21
66.7429710145
  0
LINE
  5
236
100
AcDbEntity
  8
0
100
AcDbLine
 62
7
  6
BYLAYER
 10
26.1316124026
 20
83.0429710145
 11
26.1316124026
 21
80.7429710145
  0
LINE
  5
237
100
AcDbEntity
  8
0
100
AcDbLine
 62
7
  6
BYLAYER
 10
37.4202808087
 20
79.7429710145
 11
37.259921407
 21
79.2893848447
  0
LINE
  5
238
100
AcDbEntity
  8
0
100
AcDbLine
 62
7
  6
BYLAYER
 10
41.0575875046
 20
71.2429710145
 11
40.7703179481
 21
70.7893848447
  0
LINE
  5
239
100
AcDbEntity
  8
0
100
AcDbLine
 62
7
  6
BYLAYER
 10
40.8269676293
 20
38.7429710145
 11
24.8216372601
 21
38.7429710145
  0
LINE
  5
23A
100
AcDbEntity
  8
0
100
AcDbLine
 62
7
  6
BYLAYER
 10
22.8243024447
 20
58.2429710145
 11
23.0880208864
 21
57.0130266118
  0
LINE
  5
23B
100
AcDbEntity
  8
0
100
AcDbLine
 62
7
  6
BYLAYER
 10
28.2283240807
 20
71.2429710145
 11
28.2283240807
 21
79.7429710145
  0
LINE
  5
23C
100
AcDbEntity
  8
0
100
AcDbLine
 62
7
  6
BYLAYER
 10
28.3886834825
 20
79.2893848447
 11
28.3886834825
 21
70.7893848447
  0
LINE
  5
23D
100
AcDbEntity
  8
0
100
AcDbLine
 62
7
  6
BYLAYER
 10
28.7686322044
 20
70.4929710145
 11
28.7686322044
 21
78.9929710145
  0
LINE
  5
23E
100
AcDbEntity
  8
0
100
AcDbLine
 62
7
  6
BYLAYER
 10
37.259921407
 20
70.7893848447
 11
37.4202808087
 21
71.2429710145
  0
LINE
  5
23F
100
AcDbEntity
  8
0
100
AcDbLine
 62
7
  6
BYLAYER
 10
24.5591812431
 20
41.7429710145
 11
41.0894236464
 21
41.7429710145
  0
LINE
  5
240
100
AcDbEntity
  8
0
100
AcDbLine
 62
7
  6
BYLAYER
 10
30.5243024447
 20
32.2429710145
 11
30.5243024447
 21
7.2429710145
  0
LINE
  5
241
100
AcDbEntity
  8
0
100
AcDbLine
 62
7
  6
BYLAYER
 10
30.5570389518
 20
78.9929710145
 11
30.5570389518
 21
70.4929710145
  0
LINE
  5
242
100
AcDbEntity
  8
0
100
AcDbLine
 62
7
  6
BYLAYER
 10
30.7243024447
 20
79.7429710145
 11
30.7243024447
 21
71.2429710145
  0
LINE
  5
243
100
AcDbEntity
  8
0
100
AcDbLine
 62
7
  6
BYLAYER
 10
34.9243024447
 20
71.2429710145
 11
34.8510308327
 21
70.7893848447
  0
LINE
  5
244
100
AcDbEntity
  8
0
100
AcDbLine
 62
7
  6
BYLAYER
 10
41.4393874888
 20
45.7429710145
 11
24.2092174007
 21
45.7429710145
  0
LINE
  5
245
100
AcDbEntity
  8
0
100
AcDbLine
 62
7
  6
BYLAYER
 10
34.9243024447
 20
71.2429710145
 11
34.9243024447
 21
79.7429710145
  0
LINE
  5
246
100
AcDbEntity
  8
0
100
AcDbLine
 62
7
  6
BYLAYER
 10
35.0915659376
 20
70.4929710145
 11
35.0915659376
 21
78.9929710145
  0
LINE
  5
247
100
AcDbEntity
  8
0
100
AcDbLine
 62
7
  6
BYLAYER
 10
35.1243024447
 20
32.2429710145
 11
35.1243024447
 21
7.2429710145
  0
LINE
  5
248
100
AcDbEntity
  8
0
100
AcDbLine
 62
7
  6
BYLAYER
 10
30.7975740568
 20
70.7893848447
 11
30.7243024447
 21
71.2429710145
  0
LINE
  5
249
100
AcDbEntity
  8
0
100
AcDbLine
 62
7
  6
BYLAYER
 10
36.8799726851
 20
78.9929710145
 11
36.8799726851
 21
70.4929710145
  0
LINE
  5
24A
100
AcDbEntity
  8
0
100
AcDbLine
 62
7
  6
BYLAYER
 10
37.259921407
 20
70.7893848447
 11
37.259921407
 21
79.2893848447
  0
LINE
  5
24B
100
AcDbEntity
  8
0
100
AcDbLine
 62
7
  6
BYLAYER
 10
37.4202808087
 20
79.7429710145
 11
37.4202808087
 21
71.2429710145
  0
LINE
  5
24C
100
AcDbEntity
  8
0
100
AcDbLine
 62
7
  6
BYLAYER
 10
23.9467627085
 20
48.7429710145
 11
41.701842181
 21
48.7429710145
  0
LINE
  5
24D
100
AcDbEntity
  8
0
100
AcDbLine
 62
7
  6
BYLAYER
 10
28.2283240807
 20
71.2429710145
 11
28.3886834825
 21
70.7893848447
  0
LINE
  5
24E
100
AcDbEntity
  8
0
100
AcDbLine
 62
7
  6
BYLAYER
 10
39.9343024447
 20
66.7429710145
 11
39.9343024447
 21
70.2429710145
  0
LINE
  5
24F
100
AcDbEntity
  8
0
100
AcDbLine
 62
7
  6
BYLAYER
 10
39.9343024447
 20
80.7429710145
 11
39.9343024447
 21
83.0429710145
  0
LINE
  5
250
100
AcDbEntity
  8
0
100
AcDbLine
 62
7
  6
BYLAYER
 10
40.8069882489
 20
70.4929710145
 11
40.8069882489
 21
70.8472856591
  0
LINE
  5
251
100
AcDbEntity
  8
0
100
AcDbLine
 62
7
  6
BYLAYER
 10
41.0575875046
 20
71.2429710145
 11
41.0575875046
 21
79.7429710145
  0
LINE
  5
252
100
AcDbEntity
  8
0
100
AcDbLine
 62
7
  6
BYLAYER
 10
39.7667226512
 20
34.6558152717
 11
40.1243024447
 21
38.7429710145
  0
LINE
  5
253
100
AcDbEntity
  8
0
100
AcDbLine
 62
7
  6
BYLAYER
 10
40.3867684353
 20
41.7429710145
 11
40.7367230894
 21
45.7429710145
  0
LINE
  5
254
100
AcDbEntity
  8
0
100
AcDbLine
 62
7
  6
BYLAYER
 10
40.99918908
 20
48.7429710145
 11
41.2990713233
 21
52.1706407398
  0
LINE
  5
255
100
AcDbEntity
  8
0
100
AcDbLine
 62
7
  6
BYLAYER
 10
42.8243024447
 20
58.2429710145
 11
42.5605840031
 21
57.0130266118
  0
LINE
  5
256
100
AcDbEntity
  8
0
100
AcDbLine
 62
7
  6
BYLAYER
 10
24.3495335662
 20
52.1706407398
 11
41.2990713233
 21
52.1706407398
  0
LINE
  5
257
100
AcDbEntity
  8
0
100
AcDbLine
 62
7
  6
BYLAYER
 10
22.7638344078
 20
71.2429710145
 11
23.1148566511
 21
70.7893848447
  0
LINE
  5
258
100
AcDbEntity
  8
0
100
AcDbLine
 62
7
  6
BYLAYER
 10
24.8782869414
 20
70.7893848447
 11
24.5910173848
 21
71.2429710145
  0
LINE
  5
259
100
AcDbEntity
  8
0
100
AcDbLine
 62
7
  6
BYLAYER
 10
28.3886834825
 20
79.2893848447
 11
28.2283240807
 21
79.7429710145
  0
LINE
  5
25A
100
AcDbEntity
  8
0
100
AcDbLine
 62
7
  6
BYLAYER
 10
42.1161928526
 20
78.9929710145
 11
42.1161928526
 21
70.4929710145
  0
LINE
  5
25B
100
AcDbEntity
  8
0
100
AcDbLine
 62
7
  6
BYLAYER
 10
42.5337482384
 20
70.7893848447
 11
42.5337482384
 21
79.2893848447
  0
LINE
  5
25C
100
AcDbEntity
  8
0
100
AcDbLine
 62
7
  6
BYLAYER
 10
42.8243024447
 20
65.7429710145
 11
42.8243024447
 21
58.2429710145
  0
LINE
  5
25D
100
AcDbEntity
  8
0
100
AcDbLine
 62
7
  6
BYLAYER
 10
42.8847704817
 20
79.7429710145
 11
42.8847704817
 21
71.2429710145
  0
LINE
  5
25E
100
AcDbEntity
  8
0
100
AcDbLine
 62
7
  6
BYLAYER
 10
40.826976331
 20
38.7429710145
 11
41.0894423216
 21
41.7429710145
  0
LINE
  5
25F
100
AcDbEntity
  8
0
100
AcDbLine
 62
7
  6
BYLAYER
 10
41.4393969757
 20
45.7429710145
 11
41.7018629663
 21
48.7429710145
  0
LINE
  5
260
100
AcDbEntity
  8
0
100
AcDbLine
 62
7
  6
BYLAYER
 10
20.8243024447
 20
70.2429710145
 11
19.8243024447
 21
71.2429710145
  0
LINE
  5
261
100
AcDbEntity
  8
0
100
AcDbLine
 62
7
  6
BYLAYER
 10
19.9950390208
 20
71.2429710145
 11
20.4426679791
 21
70.7893848447
  0
LINE
  5
262
100
AcDbEntity
  8
0
100
AcDbLine
 62
7
  6
BYLAYER
 10
21.0881282631
 20
70.7893848447
 11
20.6638344078
 21
71.2429710145
  0
LINE
  5
263
100
AcDbEntity
  8
0
100
AcDbLine
 62
7
  6
BYLAYER
 10
44.3834563455
 20
70.4929710145
 11
44.3834563455
 21
70.5451661576
  0
LINE
  5
264
100
AcDbEntity
  8
0
100
AcDbLine
 62
7
  6
BYLAYER
 10
44.8626584892
 20
71.1124286787
 11
44.8626584892
 21
70.4929710145
  0
LINE
  5
265
100
AcDbEntity
  8
0
100
AcDbLine
 62
7
  6
BYLAYER
 10
44.9847704817
 20
71.2429710145
 11
44.9847704817
 21
79.7429710145
  0
LINE
  5
266
100
AcDbEntity
  8
0
100
AcDbLine
 62
7
  6
BYLAYER
 10
45.2059369104
 20
70.7893848447
 11
45.2059369104
 21
79.2893848447
  0
LINE
  5
267
100
AcDbEntity
  8
0
100
AcDbLine
 62
7
  6
BYLAYER
 10
45.6535658686
 20
79.7429710145
 11
45.6535658686
 21
71.2429710145
  0
LINE
  5
268
100
AcDbEntity
  8
0
100
AcDbLine
 62
7
  6
BYLAYER
 10
45.8243024447
 20
80.7429710145
 11
45.8243024447
 21
71.2429710145
  0
LINE
  5
269
100
AcDbEntity
  8
0
100
AcDbLine
 62
7
  6
BYLAYER
 10
37.3243024447
 20
32.4374814792
 11
39.3631379501
 21
33.9374814792
  0
LINE
  5
26A
100
AcDbEntity
  8
0
100
AcDbLine
 62
7
  6
BYLAYER
 10
36.7316924477
 20
32.2429710145
 11
37.3243024447
 21
32.4374814792
  0
LINE
  5
26B
100
AcDbEntity
  8
0
100
AcDbLine
 62
7
  6
BYLAYER
 10
23.0880208864
 20
57.0130266118
 11
42.5605840031
 21
57.0130266118
  0
LINE
  5
26C
100
AcDbEntity
  8
0
100
AcDbLine
 62
7
  6
BYLAYER
 10
42.8243024447
 20
58.2429710145
 11
22.8243024447
 21
58.2429710145
  0
LINE
  5
26D
100
AcDbEntity
  8
0
100
AcDbLine
 62
7
  6
BYLAYER
 10
23.1148566511
 20
79.2893848447
 11
22.7638344078
 21
79.7429710145
  0
LINE
  5
26E
100
AcDbEntity
  8
0
100
AcDbLine
 62
7
  6
BYLAYER
 10
20.4426679791
 20
79.2893848447
 11
19.9950390208
 21
79.7429710145
  0
LINE
  5
26F
100
AcDbEntity
  8
0
100
AcDbLine
 62
7
  6
BYLAYER
 10
22.8243024447
 20
65.7429710145
 11
42.8243024447
 21
65.7429710145
  0
LINE
  5
270
100
AcDbEntity
  8
0
100
AcDbLine
 62
7
  6
BYLAYER
 10
23.8243237113
 20
66.7429710145
 11
41.8242811781
 21
66.7429710145
  0
LINE
  5
271
100
AcDbEntity
  8
0
100
AcDbLine
 62
7
  6
BYLAYER
 10
44.8243024447
 20
70.2429710145
 11
20.8243024447
 21
70.2429710145
  0
LINE
  5
272
100
AcDbEntity
  8
0
100
AcDbLine
 62
7
  6
BYLAYER
 10
44.8626584892
 20
70.4929710145
 11
44.3834563455
 21
70.4929710145
  0
LINE
  5
273
100
AcDbEntity
  8
0
100
AcDbLine
 62
7
  6
BYLAYER
 10
42.1161928526
 20
70.4929710145
 11
40.8069882489
 21
70.4929710145
  0
LINE
  5
274
100
AcDbEntity
  8
0
100
AcDbLine
 62
7
  6
BYLAYER
 10
36.8799726851
 20
70.4929710145
 11
35.0915659376
 21
70.4929710145
  0
LINE
  5
275
100
AcDbEntity
  8
0
100
AcDbLine
 62
7
  6
BYLAYER
 10
30.5570389518
 20
70.4929710145
 11
28.7686322044
 21
70.4929710145
  0
LINE
  5
276
100
AcDbEntity
  8
0
100
AcDbLine
 62
7
  6
BYLAYER
 10
24.8416166406
 20
70.4929710145
 11
23.5324120369
 21
70.4929710145
  0
LINE
  5
277
100
AcDbEntity
  8
0
100
AcDbLine
 62
7
  6
BYLAYER
 10
21.265148544
 20
70.4929710145
 11
20.7859464003
 21
70.4929710145
  0
LINE
  5
278
100
AcDbEntity
  8
0
100
AcDbLine
 62
7
  6
BYLAYER
 10
45.8243024447
 20
71.2429710145
 11
45.6535658686
 21
71.2429710145
  0
LINE
  5
279
100
AcDbEntity
  8
0
100
AcDbLine
 62
7
  6
BYLAYER
 10
44.9847704817
 20
71.2429710145
 11
42.8847704817
 21
71.2429710145
  0
LINE
  5
27A
100
AcDbEntity
  8
0
100
AcDbLine
 62
7
  6
BYLAYER
 10
41.0575875046
 20
71.2429710145
 11
37.4202808087
 21
71.2429710145
  0
LINE
  5
27B
100
AcDbEntity
  8
0
100
AcDbLine
 62
7
  6
BYLAYER
 10
34.9243024447
 20
71.2429710145
 11
30.7243024447
 21
71.2429710145
  0
LINE
  5
27C
100
AcDbEntity
  8
0
100
AcDbLine
 62
7
  6
BYLAYER
 10
28.2283240807
 20
71.2429710145
 11
24.5910173848
 21
71.2429710145
  0
LINE
  5
27D
100
AcDbEntity
  8
0
100
AcDbLine
 62
7
  6
BYLAYER
 10
22.7638344078
 20
71.2429710145
 11
20.6638344078
 21
71.2429710145
  0
LINE
  5
27E
100
AcDbEntity
  8
0
100
AcDbLine
 62
7
  6
BYLAYER
 10
19.9950390208
 20
71.2429710145
 11
19.8243024447
 21
71.2429710145
  0
LINE
  5
27F
100
AcDbEntity
  8
0
100
AcDbLine
 62
7
  6
BYLAYER
 10
23.5324120369
 20
78.9929710145
 11
24.5910173848
 21
78.9929710145
  0
LINE
  5
280
100
AcDbEntity
  8
0
100
AcDbLine
 62
7
  6
BYLAYER
 10
28.7686322044
 20
78.9929710145
 11
30.5570389518
 21
78.9929710145
  0
LINE
  5
281
100
AcDbEntity
  8
0
100
AcDbLine
 62
7
  6
BYLAYER
 10
35.0915659376
 20
78.9929710145
 11
36.8799726851
 21
78.9929710145
  0
LINE
  5
282
100
AcDbEntity
  8
0
100
AcDbLine
 62
7
  6
BYLAYER
 10
41.0575875046
 20
78.9929710145
 11
42.1161928526
 21
78.9929710145
  0
LINE
  5
283
100
AcDbEntity
  8
0
100
AcDbLine
 62
7
  6
BYLAYER
 10
45.6535658686
 20
79.7429710145
 11
44.9847704817
 21
79.7429710145
  0
LINE
  5
284
100
AcDbEntity
  8
0
100
AcDbLine
 62
7
  6
BYLAYER
 10
42.8847704817
 20
79.7429710145
 11
41.0575875046
 21
79.7429710145
  0
LINE
  5
285
100
AcDbEntity
  8
0
100
AcDbLine
 62
7
  6
BYLAYER
 10
37.4202808087
 20
79.7429710145
 11
34.9243024447
 21
79.7429710145
  0
LINE
  5
286
100
AcDbEntity
  8
0
100
AcDbLine
 62
7
  6
BYLAYER
 10
30.7243024447
 20
79.7429710145
 11
28.2283240807
 21
79.7429710145
  0
LINE
  5
287
100
AcDbEntity
  8
0
100
AcDbLine
 62
7
  6
BYLAYER
 10
24.5910173848
 20
79.7429710145
 11
22.7638344078
 21
79.7429710145
  0
LINE
  5
288
100
AcDbEntity
  8
0
100
AcDbLine
 62
7
  6
BYLAYER
 10
20.6638344078
 20
79.7429710145
 11
19.9950390208
 21
79.7429710145
  0
LINE
  5
289
100
AcDbEntity
  8
0
100
AcDbLine
 62
7
  6
BYLAYER
 10
19.8243024447
 20
80.7429710145
 11
45.8243024447
 21
80.7429710145
  0
LINE
  5
28A
100
AcDbEntity
  8
0
100
AcDbLine
 62
7
  6
BYLAYER
 10
26.1316124026
 20
83.0429710145
 11
39.9343024447
 21
83.0429710145
  0
LINE
  5
28B
100
AcDbEntity
  8
0
100
AcDbLine
 62
7
  6
BYLAYER
 10
26.6653983214
 20
83.5429710145
 11
39.4343024447
 21
83.5429710145
  0
ARC
  5
28C
100
AcDbEntity
  8
0
100
AcDbCircle
 62
7
  6
BYLAYER
 10
56.2419917946
 20
50.8633045986
 40
15.0
100
AcDbArc
 50
155.7963293727
 51
175.0
  0
ARC
  5
28D
100
AcDbEntity
  8
0
100
AcDbCircle
 62
7
  6
BYLAYER
 10
9.4066130948
 20
50.8633045986
 40
15.0
100
AcDbArc
 50
5.0
 51
24.2036706273
  0
ARC
  5
28E
100
AcDbEntity
  8
0
100
AcDbCircle
 62
7
  6
BYLAYER
 10
23.8243024447
 20
65.7429710145
 40
1.0
100
AcDbArc
 50
90.0
 51
180.0
  0
ARC
  5
28F
100
AcDbEntity
  8
0
100
AcDbCircle
 62
7
  6
BYLAYER
 10
41.8243024447
 20
65.7429710145
 40
1.0
100
AcDbArc
 50
0.0
 51
90.0
  0
ARC
  5
290
100
AcDbEntity
  8
0
100
AcDbCircle
 62
7
  6
BYLAYER
 10
38.7705279531
 20
34.7429710145
 40
1.0
100
AcDbArc
 50
306.3424410919
 51
355.0
  0
ARC
  5
291
100
AcDbEntity
  8
0
100
AcDbCircle
 62
7
  6
BYLAYER
 10
26.8780769364
 20
34.7429710145
 40
1.0
100
AcDbArc
 50
185.0
 51
233.6575589081
  0
ARC
  5
292
100
AcDbEntity
  8
0
100
AcDbCircle
 62
7
  6
BYLAYER
 10
39.4343024447
 20
83.0429710145
 40
0.5
100
AcDbArc
 50
0.0
 51
90.0
  0
SPLINE
  5
293
100
AcDbEntity
  8
0
100
AcDbSpline
 62
7
  6
BYLAYER
 70
0
 71
3
 72
11
 73
7
 74
0
 42
0.0000001
 43
0.0000001
 44
0.0000000001
 40
0.0
 40
0.0
 40
0.0
 40
0.0
 40
0.1705158028
 40
0.401131893
 40
0.6808741086
 40
1.0
 40
1.0
 40
1.0
 40
1.0
 10
21.2820672239
 20
70.5103452205
 30
0.0
 10
21.2820672239
 20
70.5171163673
 30
0.0
 10
21.2780113143
 20
70.5328623055
 30
0.0
 10
21.2670564625
 20
70.5575340877
 30
0.0
 10
21.2507367503
 20
70.586229438
 30
0.0
 10
21.2376724434
 20
70.6061031883
 30
0.0
 10
21.2304819308
 20
70.6165380729
 30
0.0
  0
SPLINE
  5
294
100
AcDbEntity
  8
0
100
AcDbSpline
 62
7
  6
BYLAYER
 70
0
 71
3
 72
9
 73
5
 74
0
 42
0.0000001
 43
0.0000001
 44
0.0000000001
 40
0.0
 40
0.0
 40
0.0
 40
0.0
 40
0.4722113958
 40
1.0
 40
1.0
 40
1.0
 40
1.0
 10
21.2304819308
 20
70.6165380729
 30
0.0
 10
21.2104705291
 20
70.6455786544
 30
0.0
 10
21.1645291251
 20
70.7046032886
 30
0.0
 10
21.1150563677
 20
70.7605976831
 30
0.0
 10
21.0881282631
 20
70.7893848447
 30
0.0
  0
SPLINE
  5
295
100
AcDbEntity
  8
0
100
AcDbSpline
 62
7
  6
BYLAYER
 70
0
 71
3
 72
10
 73
6
 74
0
 42
0.0000001
 43
0.0000001
 44
0.0000000001
 40
0.0
 40
0.0
 40
0.0
 40
0.0
 40
0.219671938
 40
0.4606587872
 40
1.0
 40
1.0
 40
1.0
 40
1.0
 10
24.9461222943
 20
70.5995720891
 30
0.0
 10
24.9461222943
 20
70.6144888601
 30
0.0
 10
24.9422352758
 20
70.6457914849
 30
0.0
 10
24.9227585901
 20
70.7110153772
 30
0.0
 10
24.8978825198
 20
70.7584442762
 30
0.0
 10
24.8782869414
 20
70.7893848447
 30
0.0
  0
SPLINE
  5
296
100
AcDbEntity
  8
0
100
AcDbSpline
 62
7
  6
BYLAYER
 70
0
 71
3
 72
9
 73
5
 74
0
 42
0.0000001
 43
0.0000001
 44
0.0000000001
 40
0.0
 40
0.0
 40
0.0
 40
0.0
 40
0.7480291385
 40
1.0
 40
1.0
 40
1.0
 40
1.0
 10
30.8015141316
 20
70.7408948545
 30
0.0
 10
30.8015141316
 20
70.7530325858
 30
0.0
 10
30.8005026998
 20
70.7692816593
 30
0.0
 10
30.7982260627
 20
70.7853486175
 30
0.0
 10
30.7975740568
 20
70.7893848447
 30
0.0
  0
SPLINE
  5
297
100
AcDbEntity
  8
0
100
AcDbSpline
 62
7
  6
BYLAYER
 70
0
 71
3
 72
9
 73
5
 74
0
 42
0.0000001
 43
0.0000001
 44
0.0000000001
 40
0.0
 40
0.0
 40
0.0
 40
0.0
 40
0.251963861
 40
1.0
 40
1.0
 40
1.0
 40
1.0
 10
34.8510308327
 20
70.7893848447
 30
0.0
 10
34.850378803
 20
70.7853484704
 30
0.0
 10
34.8481020409
 20
70.7692804744
 30
0.0
 10
34.8470907579
 20
70.7530303461
 30
0.0
 10
34.8470907579
 20
70.7408917216
 30
0.0
  0
SPLINE
  5
298
100
AcDbEntity
  8
0
100
AcDbSpline
 62
7
  6
BYLAYER
 70
0
 71
3
 72
11
 73
7
 74
0
 42
0.0000001
 43
0.0000001
 44
0.0000000001
 40
0.0
 40
0.0
 40
0.0
 40
0.0
 40
0.2502622522
 40
0.5003303424
 40
0.7502158238
 40
1.0
 40
1.0
 40
1.0
 40
1.0
 10
26.6653983214
 20
83.5429710145
 30
0.0
 10
26.5980627823
 20
83.5429710145
 30
0.0
 10
26.4621727466
 20
83.519008298
 30
0.0
 10
26.2851272004
 20
83.4125875218
 30
0.0
 10
26.1615818775
 20
83.2462857
 30
0.0
 10
26.1316124026
 20
83.1101779225
 30
0.0
 10
26.1316124026
 20
83.0429710145
 30
0.0
  0
SPLINE
  5
299
100
AcDbEntity
  8
0
100
AcDbSpline
 62
7
  6
BYLAYER
 70
0
 71
3
 72
10
 73
6
 74
0
 42
0.0000001
 43
0.0000001
 44
0.0000000001
 40
0.0
 40
0.0
 40
0.0
 40
0.0
 40
0.5393687088
 40
0.7803548232
 40
1.0
 40
1.0
 40
1.0
 40
1.0
 10
40.7703179481
 20
70.7893848447
 30
0.0
 10
40.7507214739
 20
70.7584428619
 30
0.0
 10
40.7258498966
 20
70.7110099069
 30
0.0
 10
40.7063716016
 20
70.6457873273
 30
0.0
 10
40.7024825951
 20
70.6144868817
 30
0.0
 10
40.7024825951
 20
70.5995720065
 30
0.0
  0
SPLINE
  5
29A
100
AcDbEntity
  8
0
100
AcDbSpline
 62
7
  6
BYLAYER
 70
0
 71
3
 72
9
 73
5
 74
0
 42
0.0000001
 43
0.0000001
 44
0.0000000001
 40
0.0
 40
0.0
 40
0.0
 40
0.0
 40
0.5277834689
 40
1.0
 40
1.0
 40
1.0
 40
1.0
 10
44.5604766264
 20
70.7893848447
 30
0.0
 10
44.5335485721
 20
70.7605977368
 30
0.0
 10
44.4840710732
 20
70.704606294
 30
0.0
 10
44.4381378426
 20
70.645574912
 30
0.0
 10
44.4181236081
 20
70.6165354802
 30
0.0
  0
SPLINE
  5
29B
100
AcDbEntity
  8
0
100
AcDbSpline
 62
7
  6
BYLAYER
 70
0
 71
3
 72
11
 73
7
 74
0
 42
0.0000001
 43
0.0000001
 44
0.0000000001
 40
0.0
 40
0.0
 40
0.0
 40
0.0
 40
0.3190614746
 40
0.5987614517
 40
0.8294288671
 40
1.0
 40
1.0
 40
1.0
 40
1.0
 10
44.4181236081
 20
70.6165354802
 30
0.0
 10
44.4109331471
 20
70.6061025605
 30
0.0
 10
44.397866683
 20
70.586233359
 30
0.0
 10
44.381542151
 20
70.5575402927
 30
0.0
 10
44.370591656
 20
70.5328611717
 30
0.0
 10
44.3665376655
 20
70.5171095853
 30
0.0
 10
44.3665376655
 20
70.5103357544
 30
0.0
  0
SPLINE
  5
29C
100
AcDbEntity
  8
0
100
AcDbSpline
 62
7
  6
BYLAYER
 70
0
 71
3
 72
12
 73
8
 74
0
 42
0.0000001
 43
0.0000001
 44
0.0000000001
 40
0.0
 40
0.0
 40
0.0
 40
0.0
 40
0.2868443419
 40
0.411235092
 40
0.5276386412
 40
0.7557455056
 40
1.0
 40
1.0
 40
1.0
 40
1.0
 10
24.8416166406
 20
70.4929710145
 30
0.0
 10
24.8577470629
 20
70.4929710145
 30
0.0
 10
24.8813990961
 20
70.4965569103
 30
0.0
 10
24.9077733176
 20
70.5106666739
 30
0.0
 10
24.9275460593
 20
70.5285073264
 30
0.0
 10
24.9432043157
 20
70.5589098899
 30
0.0
 10
24.9461222943
 20
70.5857318005
 30
0.0
 10
24.9461222943
 20
70.5994672227
 30
0.0
  0
SPLINE
  5
29D
100
AcDbEntity
  8
0
100
AcDbSpline
 62
7
  6
BYLAYER
 70
0
 71
3
 72
12
 73
8
 74
0
 42
0.0000001
 43
0.0000001
 44
0.0000000001
 40
0.0
 40
0.0
 40
0.0
 40
0.0
 40
0.251309954
 40
0.5174065473
 40
0.7812177036
 40
0.9003558186
 40
1.0
 40
1.0
 40
1.0
 40
1.0
 10
23.1148566511
 20
70.7893848447
 30
0.0
 10
23.141702184
 20
70.7546954122
 30
0.0
 10
23.2016847268
 20
70.6867830586
 30
0.0
 10
23.3038800213
 20
70.5962215213
 30
0.0
 10
23.3990037761
 20
70.5329869017
 30
0.0
 10
23.4769846441
 20
70.5007151862
 30
0.0
 10
23.5150200487
 20
70.4929710145
 30
0.0
 10
23.5324120369
 20
70.4929710145
 30
0.0
  0
SPLINE
  5
29E
100
AcDbEntity
  8
0
100
AcDbSpline
 62
7
  6
BYLAYER
 70
0
 71
3
 72
13
 73
9
 74
0
 42
0.0000001
 43
0.0000001
 44
0.0000000001
 40
0.0
 40
0.0
 40
0.0
 40
0.0
 40
0.0996110147
 40
0.2187170401
 40
0.348691706
 40
0.482757173
 40
0.7487705364
 40
1.0
 40
1.0
 40
1.0
 40
1.0
 10
23.5324120369
 20
78.9929710145
 30
0.0
 10
23.5150203543
 20
78.9929710145
 30
0.0
 10
23.4769927141
 20
79.0007630044
 30
0.0
 10
23.4206154696
 20
79.0240118319
 30
0.0
 10
23.3624456326
 20
79.0574119413
 30
0.0
 10
23.2869870667
 20
79.1111311136
 30
0.0
 10
23.201658302
 20
79.1868258566
 30
0.0
 10
23.1417020497
 20
79.2546955856
 30
0.0
 10
23.1148566511
 20
79.2893848447
 30
0.0
  0
SPLINE
  5
29F
100
AcDbEntity
  8
0
100
AcDbSpline
 62
7
  6
BYLAYER
 70
0
 71
3
 72
9
 73
5
 74
0
 42
0.0000001
 43
0.0000001
 44
0.0000000001
 40
0.0
 40
0.0
 40
0.0
 40
0.0
 40
0.4669373173
 40
1.0
 40
1.0
 40
1.0
 40
1.0
 10
30.7266560443
 20
79.0578501096
 30
0.0
 10
30.7057504909
 20
79.0380627329
 30
0.0
 10
30.6523287446
 20
79.0041260798
 30
0.0
 10
30.5899004652
 20
78.9929710145
 30
0.0
 10
30.5570389518
 20
78.9929710145
 30
0.0
  0
SPLINE
  5
2A0
100
AcDbEntity
  8
0
100
AcDbSpline
 62
7
  6
BYLAYER
 70
0
 71
3
 72
11
 73
7
 74
0
 42
0.0000001
 43
0.0000001
 44
0.0000000001
 40
0.0
 40
0.0
 40
0.0
 40
0.0
 40
0.2950994598
 40
0.5482840283
 40
0.7772543194
 40
1.0
 40
1.0
 40
1.0
 40
1.0
 10
30.5570389518
 20
70.4929710145
 30
0.0
 10
30.5950904949
 20
70.4929710145
 30
0.0
 10
30.6671757583
 20
70.5079941736
 30
0.0
 10
30.748713185
 20
70.5715311541
 30
0.0
 10
30.7928493479
 20
70.6534344344
 30
0.0
 10
30.8015141316
 20
70.7121730359
 30
0.0
 10
30.8015141316
 20
70.7408949349
 30
0.0
  0
SPLINE
  5
2A1
100
AcDbEntity
  8
0
100
AcDbSpline
 62
7
  6
BYLAYER
 70
0
 71
3
 72
12
 73
8
 74
0
 42
0.0000001
 43
0.0000001
 44
0.0000000001
 40
0.0
 40
0.0
 40
0.0
 40
0.0
 40
0.2182293256
 40
0.4600534149
 40
0.7259327278
 40
0.8646998064
 40
1.0
 40
1.0
 40
1.0
 40
1.0
 10
28.3886834825
 20
70.7893848447
 30
0.0
 10
28.401010451
 20
70.7545172762
 30
0.0
 10
28.4375374423
 20
70.6844801479
 30
0.0
 10
28.5198335679
 20
70.5916604887
 30
0.0
 10
28.6124189709
 20
70.5297218948
 30
0.0
 10
28.6991747255
 20
70.4993205721
 30
0.0
 10
28.7457034234
 20
70.4929710145
 30
0.0
 10
28.7686322044
 20
70.4929710145
 30
0.0
  0
SPLINE
  5
2A2
100
AcDbEntity
  8
0
100
AcDbSpline
 62
7
  6
BYLAYER
 70
0
 71
3
 72
12
 73
8
 74
0
 42
0.0000001
 43
0.0000001
 44
0.0000000001
 40
0.0
 40
0.0
 40
0.0
 40
0.0
 40
0.1352969768
 40
0.2740726667
 40
0.5399414089
 40
0.781768746
 40
1.0
 40
1.0
 40
1.0
 40
1.0
 10
28.7686322044
 20
78.9929710145
 30
0.0
 10
28.7457042445
 20
78.9929710145
 30
0.0
 10
28.699181171
 20
78.9993604951
 30
0.0
 10
28.6124154562
 20
79.0297142886
 30
0.0
 10
28.519829018
 20
79.0916629145
 30
0.0
 10
28.4375374558
 20
79.184479887
 30
0.0
 10
28.4010104115
 20
79.2545173878
 30
0.0
 10
28.3886834825
 20
79.2893848447
 30
0.0
  0
SPLINE
  5
2A3
100
AcDbEntity
  8
0
100
AcDbSpline
 62
7
  6
BYLAYER
 70
0
 71
3
 72
9
 73
5
 74
0
 42
0.0000001
 43
0.0000001
 44
0.0000000001
 40
0.0
 40
0.0
 40
0.0
 40
0.0
 40
0.5018194458
 40
1.0
 40
1.0
 40
1.0
 40
1.0
 10
21.265148544
 20
70.4929710145
 30
0.0
 10
21.269670238
 20
70.4929710145
 30
0.0
 10
21.2799348491
 20
70.4956013009
 30
0.0
 10
21.2820672239
 20
70.5058554448
 30
0.0
 10
21.2820672239
 20
70.5103443503
 30
0.0
  0
SPLINE
  5
2A4
100
AcDbEntity
  8
0
100
AcDbSpline
 62
7
  6
BYLAYER
 70
0
 71
3
 72
12
 73
8
 74
0
 42
0.0000001
 43
0.0000001
 44
0.0000000001
 40
0.0
 40
0.0
 40
0.0
 40
0.0
 40
0.1352969768
 40
0.2740726667
 40
0.5399414089
 40
0.781768746
 40
1.0
 40
1.0
 40
1.0
 40
1.0
 10
36.8799726851
 20
70.4929710145
 30
0.0
 10
36.902900645
 20
70.4929710145
 30
0.0
 10
36.9494237185
 20
70.4993604951
 30
0.0
 10
37.0361894333
 20
70.5297142886
 30
0.0
 10
37.1287758715
 20
70.5916629145
 30
0.0
 10
37.2110674337
 20
70.684479887
 30
0.0
 10
37.247594478
 20
70.7545173878
 30
0.0
 10
37.259921407
 20
70.7893848447
 30
0.0
  0
SPLINE
  5
2A5
100
AcDbEntity
  8
0
100
AcDbSpline
 62
7
  6
BYLAYER
 70
0
 71
3
 72
12
 73
8
 74
0
 42
0.0000001
 43
0.0000001
 44
0.0000000001
 40
0.0
 40
0.0
 40
0.0
 40
0.0
 40
0.2182293256
 40
0.4600534149
 40
0.7259327278
 40
0.8646998064
 40
1.0
 40
1.0
 40
1.0
 40
1.0
 10
37.259921407
 20
79.2893848447
 30
0.0
 10
37.2475944385
 20
79.2545172762
 30
0.0
 10
37.2110674472
 20
79.1844801479
 30
0.0
 10
37.1287713215
 20
79.0916604887
 30
0.0
 10
37.0361859185
 20
79.0297218948
 30
0.0
 10
36.949430164
 20
78.9993205721
 30
0.0
 10
36.9029014661
 20
78.9929710145
 30
0.0
 10
36.8799726851
 20
78.9929710145
 30
0.0
  0
SPLINE
  5
2A6
100
AcDbEntity
  8
0
100
AcDbSpline
 62
7
  6
BYLAYER
 70
0
 71
3
 72
17
 73
13
 74
0
 42
0.0000001
 43
0.0000001
 44
0.0000000001
 40
0.0
 40
0.0
 40
0.0
 40
0.0
 40
0.1542643661
 40
0.3086574238
 40
0.4604688145
 40
0.6065695458
 40
0.7423457316
 40
0.8605234976
 40
0.9097088735
 40
0.9501879126
 40
0.9805760993
 40
1.0
 40
1.0
 40
1.0
 40
1.0
 10
20.4426679791
 20
70.7893848447
 30
0.0
 10
20.4591237264
 20
70.7727100982
 30
0.0
 10
20.4922414259
 20
70.739535869
 30
0.0
 10
20.5423222544
 20
70.6907262809
 30
0.0
 10
20.5923096936
 20
70.6436112149
 30
0.0
 10
20.641036037
 20
70.5992896888
 30
0.0
 10
20.6868832741
 20
70.5594280507
 30
0.0
 10
20.7227418238
 20
70.5304943865
 30
0.0
 10
20.7482931837
 20
70.5119906829
 30
0.0
 10
20.7636235274
 20
70.5020064285
 30
0.0
 10
20.7756474025
 20
70.4956155738
 30
0.0
 10
20.7829965958
 20
70.4929710145
 30
0.0
 10
20.7859464003
 20
70.4929710145
 30
0.0
  0
SPLINE
  5
2A7
100
AcDbEntity
  8
0
100
AcDbSpline
 62
7
  6
BYLAYER
 70
0
 71
3
 72
11
 73
7
 74
0
 42
0.0000001
 43
0.0000001
 44
0.0000000001
 40
0.0
 40
0.0
 40
0.0
 40
0.0
 40
0.2227540573
 40
0.4516948237
 40
0.7049054295
 40
1.0
 40
1.0
 40
1.0
 40
1.0
 10
34.8470907579
 20
70.74089244
 30
0.0
 10
34.8470907579
 20
70.7121693268
 30
0.0
 10
34.8557447989
 20
70.6534270314
 30
0.0
 10
34.8999164511
 20
70.5715495318
 30
0.0
 10
34.9814101134
 20
70.5079564269
 30
0.0
 10
35.0535148474
 20
70.4929710145
 30
0.0
 10
35.0915659376
 20
70.4929710145
 30
0.0
  0
SPLINE
  5
2A8
100
AcDbEntity
  8
0
100
AcDbSpline
 62
7
  6
BYLAYER
 70
0
 71
3
 72
9
 73
5
 74
0
 42
0.0000001
 43
0.0000001
 44
0.0000000001
 40
0.0
 40
0.0
 40
0.0
 40
0.0
 40
0.5330842458
 40
1.0
 40
1.0
 40
1.0
 40
1.0
 10
35.0915659376
 20
78.9929710145
 30
0.0
 10
35.0587021362
 20
78.9929710145
 30
0.0
 10
34.9962840338
 20
79.004169271
 30
0.0
 10
34.9428425101
 20
79.0380679439
 30
0.0
 10
34.9219330826
 20
79.0578505146
 30
0.0
  0
SPLINE
  5
2A9
100
AcDbEntity
  8
0
100
AcDbSpline
 62
7
  6
BYLAYER
 70
0
 71
3
 72
13
 73
9
 74
0
 42
0.0000001
 43
0.0000001
 44
0.0000000001
 40
0.0
 40
0.0
 40
0.0
 40
0.0
 40
0.0996110147
 40
0.2187170401
 40
0.348691706
 40
0.482757173
 40
0.7487705364
 40
1.0
 40
1.0
 40
1.0
 40
1.0
 10
42.1161928526
 20
70.4929710145
 30
0.0
 10
42.1335845351
 20
70.4929710145
 30
0.0
 10
42.1716121754
 20
70.5007630044
 30
0.0
 10
42.2279894199
 20
70.5240118319
 30
0.0
 10
42.2861592569
 20
70.5574119413
 30
0.0
 10
42.3616178228
 20
70.6111311136
 30
0.0
 10
42.4469465874
 20
70.6868258566
 30
0.0
 10
42.5069028397
 20
70.7546955856
 30
0.0
 10
42.5337482384
 20
70.7893848447
 30
0.0
  0
SPLINE
  5
2AA
100
AcDbEntity
  8
0
100
AcDbSpline
 62
7
  6
BYLAYER
 70
0
 71
3
 72
12
 73
8
 74
0
 42
0.0000001
 43
0.0000001
 44
0.0000000001
 40
0.0
 40
0.0
 40
0.0
 40
0.0
 40
0.251309954
 40
0.5174065473
 40
0.7812177036
 40
0.9003558186
 40
1.0
 40
1.0
 40
1.0
 40
1.0
 10
42.5337482384
 20
79.2893848447
 30
0.0
 10
42.5069027055
 20
79.2546954122
 30
0.0
 10
42.4469201626
 20
79.1867830586
 30
0.0
 10
42.3447248682
 20
79.0962215213
 30
0.0
 10
42.2496011134
 20
79.0329869017
 30
0.0
 10
42.1716202454
 20
79.0007151862
 30
0.0
 10
42.1335848407
 20
78.9929710145
 30
0.0
 10
42.1161928526
 20
78.9929710145
 30
0.0
  0
SPLINE
  5
2AB
100
AcDbEntity
  8
0
100
AcDbSpline
 62
7
  6
BYLAYER
 70
0
 71
3
 72
12
 73
8
 74
0
 42
0.0000001
 43
0.0000001
 44
0.0000000001
 40
0.0
 40
0.0
 40
0.0
 40
0.0
 40
0.2441623695
 40
0.4722711625
 40
0.5887150809
 40
0.7131239889
 40
1.0
 40
1.0
 40
1.0
 40
1.0
 10
40.7024825951
 20
70.5994251901
 30
0.0
 10
40.7024825951
 20
70.5856975823
 30
0.0
 10
40.7054071628
 20
70.5588852962
 30
0.0
 10
40.7210680586
 20
70.5284984222
 30
0.0
 10
40.7408308216
 20
70.5106496768
 30
0.0
 10
40.7672068088
 20
70.4965404316
 30
0.0
 10
40.7908591403
 20
70.4929710145
 30
0.0
 10
40.8069882489
 20
70.4929710145
 30
0.0
  0
SPLINE
  5
2AC
100
AcDbEntity
  8
0
100
AcDbSpline
 62
7
  6
BYLAYER
 70
0
 71
3
 72
17
 73
13
 74
0
 42
0.0000001
 43
0.0000001
 44
0.0000000001
 40
0.0
 40
0.0
 40
0.0
 40
0.0
 40
0.0194261977
 40
0.0498260278
 40
0.0903101368
 40
0.1394850038
 40
0.2576364016
 40
0.3934238513
 40
0.5395334832
 40
0.6913409494
 40
0.8457336449
 40
1.0
 40
1.0
 40
1.0
 40
1.0
 10
44.8626584892
 20
70.4929710145
 30
0.0
 10
44.8656086114
 20
70.4929710145
 30
0.0
 10
44.8729572531
 20
70.4956287327
 30
0.0
 10
44.884975458
 20
70.5020323712
 30
0.0
 10
44.9003071028
 20
70.5120161118
 30
0.0
 10
44.9258699049
 20
70.5304946491
 30
0.0
 10
44.9617411434
 20
70.5594071327
 30
0.0
 10
45.0075661513
 20
70.5992921425
 30
0.0
 10
45.0562899774
 20
70.6436186386
 30
0.0
 10
45.1062853879
 20
70.6907252683
 30
0.0
 10
45.1563651321
 20
70.7395344925
 30
0.0
 10
45.1894811243
 20
70.7727100589
 30
0.0
 10
45.2059369104
 20
70.7893848447
 30
0.0
  0
SPLINE
  5
2AD
100
AcDbEntity
  8
0
100
AcDbSpline
 62
7
  6
BYLAYER
 70
0
 71
3
 72
9
 73
5
 74
0
 42
0.0000001
 43
0.0000001
 44
0.0000000001
 40
0.0
 40
0.0
 40
0.0
 40
0.0
 40
0.5128764765
 40
1.0
 40
1.0
 40
1.0
 40
1.0
 10
45.2059369104
 20
79.2893848447
 30
0.0
 10
45.1691544762
 20
79.2521128963
 30
0.0
 10
45.0964668386
 20
79.1803936322
 30
0.0
 10
45.0213065284
 20
79.1112218471
 30
0.0
 10
44.9837177514
 20
79.0786525091
 30
0.0
  0
SPLINE
  5
2AE
100
AcDbEntity
  8
0
100
AcDbSpline
 62
7
  6
BYLAYER
 70
0
 71
3
 72
9
 73
5
 74
0
 42
0.0000001
 43
0.0000001
 44
0.0000000001
 40
0.0
 40
0.0
 40
0.0
 40
0.0
 40
0.4983220685
 40
1.0
 40
1.0
 40
1.0
 40
1.0
 10
44.3665376655
 20
70.510335034
 30
0.0
 10
44.3665376655
 20
70.505844975
 30
0.0
 10
44.3686654715
 20
70.4955841976
 30
0.0
 10
44.378936049
 20
70.4929710145
 30
0.0
 10
44.3834563455
 20
70.4929710145
 30
0.0
  0
SPLINE
  5
2AF
100
AcDbEntity
  8
0
100
AcDbSpline
 62
7
  6
BYLAYER
 70
0
 71
3
 72
9
 73
5
 74
0
 42
0.0000001
 43
0.0000001
 44
0.0000000001
 40
0.0
 40
0.0
 40
0.0
 40
0.0
 40
0.4871338774
 40
1.0
 40
1.0
 40
1.0
 40
1.0
 10
20.6648853288
 20
79.0786385942
 30
0.0
 10
20.6273050525
 20
79.1112213385
 30
0.0
 10
20.5521402714
 20
79.1803912507
 30
0.0
 10
20.4794506318
 20
79.2521126748
 30
0.0
 10
20.4426679791
 20
79.2893848447
 30
0.0
  0
ENDSEC
  0
SECTION
  2
OBJECTS
  0
DICTIONARY
  5
C
100
AcDbDictionary
280
0
281
1
  3
ACAD_GROUP
350
D
  3
ACAD_MLINESTYLE
350
17
  3
ACAD_LAYOUT
350
1A
  3
ACAD_PLOTSETTINGS
350
19
  3
ACAD_PLOTSTYLENAME
350
E
  0
DICTIONARY
  5
D
102
{ACAD_REACTORS
330
C
102
}
100
AcDbDictionary
280
0
281
1
  0
ACDBDICTIONARYWDFLT
  5
E
102
{ACAD_REACTORS
330
C
102
}
100
AcDbDictionary
281
1
  3
Normal
350
F
100
AcDbDictionaryWithDefault
340
F
  0
DICTIONARY
  5
17
102
{ACAD_REACTORS
330
C
102
}
100
AcDbDictionary
280
0
281
1
  3
Standard
350
18
  0
DICTIONARY
  5
19
102
{ACAD_REACTORS
330
C
102
}
100
AcDbDictionary
281
1
  0
DICTIONARY
  5
1A
102
{ACAD_REACTORS
330
C
102
}
100
AcDbDictionary
281
1
  3
Model
350
2B0
  3
Layout1
350
2B1
  0
ACDBPLACEHOLDER
  5
F
102
{ACAD_REACTORS
330
E
102
}
  0
MLINESTYLE
  5
18
102
{ACAD_REACTORS
330
17
102
}
100
AcDbMlineStyle
  2
STANDARD
 70
0
  3

 62
256
 51
90.0
 52
90.0
 71
2
 49
0.5
 62
256
  6
BYLAYER
 49
-0.5
 62
256
  6
BYLAYER
  0
LAYOUT
  5
2B0
102
{ACAD_REACTORS
330
1A
102
}
100
AcDbPlotSettings
  1

  2
none_device
  4

  6

 40
0.0
 41
0.0
 42
0.0
 43
0.0
 44
210.0
 45
297.0
 46
0.0
 47
0.0
 48
0.0
 49
0.0
140
0.0
141
0.0
142
1.0
143
1.0
 70
1024
 72
1
 73
0
 74
0
  7

 75
0
147
1.0
148
0.0
149
0.0
100
AcDbLayout
  1
Model
 70
0
 71
0
 10
0.0
 20
0.0
 11
210.0
 21
297.0
 12
0.0
 22
0.0
 32
0.0
 14
0.0
 24
0.0
 34
0.0
 15
0.0
 25
0.0
 35
0.0
146
0.0
 13
0.0
 23
0.0
 33
0.0
 16
1.0
 26
0.0
 36
0.0
 17
0.0
 27
1.0
 37
0.0
 76
0
330
210
345
0
346
0
  0
LAYOUT
  5
2B1
102
{ACAD_REACTORS
330
1A
102
}
100
AcDbPlotSettings
  1

  2
none_device
  4

  6

 40
0.0
 41
0.0
 42
0.0
 43
0.0
 44
210.0
 45
297.0
 46
0.0
 47
0.0
 48
0.0
 49
0.0
140
0.0
141
0.0
142
1.0
143
1.0
 70
0
 72
1
 73
0
 74
0
  7

 75
0
147
1.0
148
0.0
149
0.0
100
AcDbLayout
  1
Layout1
 70
0
 71
1
 10
0.0
 20
0.0
 11
210.0
 21
297.0
 12
0.0
 22
0.0
 32
0.0
 14
0.0
 24
0.0
 34
0.0
 15
0.0
 25
0.0
 35
0.0
146
0.0
 13
0.0
 23
0.0
 33
0.0
 16
1.0
 26
0.0
 36
0.0
 17
0.0
 27
1.0
 37
0.0
 76
0
330
211
345
0
346
0
  0
ENDSEC
  0
EOF
