999
DXF file: C:\Users\sesa63760\Dev\_Creo\CAD\MCADID0005628_3D-CAD\mcadid0005628_3d-simplified_7.dxf
999
Pro/ENGINEER 2019471 by Parametric Technology Corporation
  0
SECTION
  2
HEADER
  9
$ACADVER
  1
AC1024
  9
$DWGCODEPAGE
  3
ANSI_1252
  9
$EXTMAX
 10
58.9371878081
 20
83.3540227571
 30
0.0
  9
$EXTMIN
 10
0.0
 20
0.0
 30
0.0
  9
$LIMMIN
 10
0.0
 20
0.0
  9
$LIMMAX
 10
58.9371878081
 20
83.3540227571
  9
$VIEWCTR
 10
29.468593904
 20
41.6770113786
  9
$VIEWSIZE
 40
83.3540227571
  9
$CLAYER
  8
0
  9
$LTSCALE
 40
5.4334474094
  9
$CELTYPE
  6
BYLAYER
  9
$DIMSCALE
 40
1.0
  9
$DIMASZ
 40
0.7016331882
  9
$DIMEXO
 40
1.0
  9
$DIMDLI
 40
3.7540182101
  9
$DIMEXE
 40
1.0
  9
$DIMCEN
 40
0.8891095761
  9
$DIMLFAC
 40
1.0
  9
$DIMBLK
  1
_FILLED
  9
$DIMALT
 70
0
  9
$DIMALTF
 40
0.0393700787
  9
$DIMTXT
 40
0.9822864635
  9
$DIMTOL
 70
1
  9
$DIMLIM
 70
0
  9
$DIMTFAC
 40
1.0
  9
$DIMTP
 40
0.01
  9
$DIMTM
 40
0.01
  9
$DIMGAP
 40
0.625
  9
$DIMDSEP
 70
46
  9
$AUNITS
 70
0
  9
$PDMODE
 70
3
  9
$PDSIZE
 40
0.3125
  9
$HANDSEED
  5
2AC
  9
$TILEMODE
 70
1
  9
$MEASUREMENT
 70
1
  9
$INSUNITS
 70
4
  0
ENDSEC
  0
SECTION
  2
CLASSES
  0
CLASS
  1
ACDBDICTIONARYWDFLT
  2
AcDbDictionaryWithDefault
  3
AutoCAD 2000
 90
0
 91
1
280
0
281
0
  0
CLASS
  1
ACDBPLACEHOLDER
  2
AcDbPlaceHolder
  3
AutoCAD 2000
 90
0
 91
1
280
0
281
0
  0
CLASS
  1
LAYOUT
  2
AcDbLayout
  3
AutoCAD 2000
 90
0
 91
0
280
0
281
0
  0
ENDSEC
  0
SECTION
  2
TABLES
  0
TABLE
  2
VPORT
  5
8
100
AcDbSymbolTable
 70
2
  0
VPORT
  5
1F4
100
AcDbSymbolTableRecord
100
AcDbViewportTableRecord
  2
*ACTIVE
 70
0
 10
0.0
 20
0.0
 11
1.0
 21
1.0
 12
29.468593904
 22
41.6770113786
 13
0.0
 23
0.0
 14
1.0
 24
1.0
 15
0.0
 25
0.0
 16
0.0
 26
0.0
 36
1.0
 17
0.0
 27
0.0
 37
0.0
 40
83.3540227571
 41
0.7070707071
 42
50.0
 43
0.0
 44
0.0
 50
0.0
 51
0.0
 71
0
 72
100
 73
1
 74
1
 75
0
 76
0
 77
0
 78
0
  0
ENDTAB
  0
TABLE
  2
LTYPE
  5
5
100
AcDbSymbolTable
 70
6
  0
LTYPE
  5
14
100
AcDbSymbolTableRecord
100
AcDbLinetypeTableRecord
  2
BYBLOCK
 70
0
  3

 72
65
 73
0
 40
0.0
  0
LTYPE
  5
15
100
AcDbSymbolTableRecord
100
AcDbLinetypeTableRecord
  2
BYLAYER
 70
0
  3

 72
65
 73
0
 40
0.0
  0
LTYPE
  5
16
100
AcDbSymbolTableRecord
100
AcDbLinetypeTableRecord
  2
CONTINUOUS
 70
64
  3
Solid line
 72
65
 73
0
 40
0.0
  0
LTYPE
  5
1F5
100
AcDbSymbolTableRecord
100
AcDbLinetypeTableRecord
  2
CENTER
 70
64
  3
____ _ ____ _ ____ _ ____ _ ____ _ ____ _ ____
 72
65
 73
4
 40
0.6
 49
0.375
 74
0
 49
-0.075
 74
0
 49
0.075
 74
0
 49
-0.075
 74
0
  0
LTYPE
  5
1F6
100
AcDbSymbolTableRecord
100
AcDbLinetypeTableRecord
  2
HIDDEN
 70
64
  3
- - - - - - - - - - - - - - - - - - - -
 72
65
 73
2
 40
0.2
 49
0.1
 74
0
 49
-0.1
 74
0
  0
LTYPE
  5
1F7
100
AcDbSymbolTableRecord
100
AcDbLinetypeTableRecord
  2
PHANTOM
 70
64
  3
_____ _ _ _____ _ _ _____ _ _ _____
 72
65
 73
6
 40
0.8
 49
0.45
 74
0
 49
-0.05
 74
0
 49
0.1
 74
0
 49
-0.05
 74
0
 49
0.1
 74
0
 49
-0.05
 74
0
  0
LTYPE
  5
1F8
100
AcDbSymbolTableRecord
100
AcDbLinetypeTableRecord
  2
DOT
 70
64
  3
. . . . . . . . . . . . . . . . . . . .
 72
65
 73
2
 40
0.2
 49
0.1
 74
0
 49
-0.1
 74
0
  0
LTYPE
  5
1F9
100
AcDbSymbolTableRecord
100
AcDbLinetypeTableRecord
  2
DASHED
 70
64
  3
- - - - - - - - - - - - - - - - - - - -
 72
65
 73
2
 40
0.2
 49
0.1
 74
0
 49
-0.1
 74
0
  0
ENDTAB
  0
TABLE
  2
LAYER
  5
2
100
AcDbSymbolTable
 70
36
  0
LAYER
  5
10
100
AcDbSymbolTableRecord
100
AcDbLayerTableRecord
  2
0
 70
0
 62
7
  6
CONTINUOUS
370
-3
390
F
  0
LAYER
  5
1FA
100
AcDbSymbolTableRecord
100
AcDbLayerTableRecord
  2
DEFAULT_1
 70
0
 62
7
  6
CENTER
370
-3
390
F
  0
LAYER
  5
1FB
100
AcDbSymbolTableRecord
100
AcDbLayerTableRecord
  2
DEFAULT_2
 70
0
 62
7
  6
HIDDEN
370
-3
390
F
  0
LAYER
  5
1FC
100
AcDbSymbolTableRecord
100
AcDbLayerTableRecord
  2
DEFAULT_3
 70
0
 62
7
  6
PHANTOM
370
-3
390
F
  0
LAYER
  5
1FD
100
AcDbSymbolTableRecord
100
AcDbLayerTableRecord
  2
00_COMPONENTS
 70
0
 62
7
  6
CONTINUOUS
370
-3
390
F
  0
LAYER
  5
1FE
100
AcDbSymbolTableRecord
100
AcDbLayerTableRecord
  2
00_COMPONENTS_1
 70
0
 62
7
  6
CONTINUOUS
370
-3
390
F
  0
LAYER
  5
1FF
100
AcDbSymbolTableRecord
100
AcDbLayerTableRecord
  2
00_COMPONENTS_3
 70
0
 62
7
  6
CONTINUOUS
370
-3
390
F
  0
LAYER
  5
200
100
AcDbSymbolTableRecord
100
AcDbLayerTableRecord
  2
00_COMPONENTS_4
 70
0
 62
7
  6
CONTINUOUS
370
-3
390
F
  0
LAYER
  5
201
100
AcDbSymbolTableRecord
100
AcDbLayerTableRecord
  2
00_COMPONENTS_5
 70
0
 62
7
  6
CONTINUOUS
370
-3
390
F
  0
LAYER
  5
202
100
AcDbSymbolTableRecord
100
AcDbLayerTableRecord
  2
00_COMPONENTS_6
 70
0
 62
7
  6
CONTINUOUS
370
-3
390
F
  0
LAYER
  5
203
100
AcDbSymbolTableRecord
100
AcDbLayerTableRecord
  2
01_1_DEFAULT_DATUMS
 70
0
 62
7
  6
CONTINUOUS
370
-3
390
F
  0
LAYER
  5
204
100
AcDbSymbolTableRecord
100
AcDbLayerTableRecord
  2
01_PLANES
 70
0
 62
7
  6
CONTINUOUS
370
-3
390
F
  0
LAYER
  5
205
100
AcDbSymbolTableRecord
100
AcDbLayerTableRecord
  2
02_COORD_SYS
 70
0
 62
7
  6
CONTINUOUS
370
-3
390
F
  0
LAYER
  5
206
100
AcDbSymbolTableRecord
100
AcDbLayerTableRecord
  2
03_AXES
 70
0
 62
7
  6
CONTINUOUS
370
-3
390
F
  0
LAYER
  5
207
100
AcDbSymbolTableRecord
100
AcDbLayerTableRecord
  2
03_AXES_3
 70
0
 62
7
  6
CONTINUOUS
370
-3
390
F
  0
LAYER
  5
208
100
AcDbSymbolTableRecord
100
AcDbLayerTableRecord
  2
03_AXES_6
 70
0
 62
7
  6
CONTINUOUS
370
-3
390
F
  0
LAYER
  5
209
100
AcDbSymbolTableRecord
100
AcDbLayerTableRecord
  2
04_POINTS
 70
0
 62
7
  6
CONTINUOUS
370
-3
390
F
  0
LAYER
  5
20A
100
AcDbSymbolTableRecord
100
AcDbLayerTableRecord
  2
05_CURVES
 70
0
 62
7
  6
CONTINUOUS
370
-3
390
F
  0
LAYER
  5
20B
100
AcDbSymbolTableRecord
100
AcDbLayerTableRecord
  2
06_SURFS
 70
0
 62
7
  6
CONTINUOUS
370
-3
390
F
  0
LAYER
  5
20C
100
AcDbSymbolTableRecord
100
AcDbLayerTableRecord
  2
07_COSMETICS
 70
0
 62
7
  6
CONTINUOUS
370
-3
390
F
  0
LAYER
  5
20D
100
AcDbSymbolTableRecord
100
AcDbLayerTableRecord
  2
10_NOTES
 70
0
 62
7
  6
CONTINUOUS
370
-3
390
F
  0
LAYER
  5
20E
100
AcDbSymbolTableRecord
100
AcDbLayerTableRecord
  2
11_NOTES_PUB
 70
0
 62
7
  6
CONTINUOUS
370
-3
390
F
  0
LAYER
  5
20F
100
AcDbSymbolTableRecord
100
AcDbLayerTableRecord
  2
13_REF_GTOL
 70
0
 62
7
  6
CONTINUOUS
370
-3
390
F
  0
LAYER
  5
210
100
AcDbSymbolTableRecord
100
AcDbLayerTableRecord
  2
16_MISC
 70
0
 62
7
  6
CONTINUOUS
370
-3
390
F
  0
LAYER
  5
211
100
AcDbSymbolTableRecord
100
AcDbLayerTableRecord
  2
17_NO_PRINT
 70
0
 62
7
  6
CONTINUOUS
370
-3
390
F
  0
LAYER
  5
212
100
AcDbSymbolTableRecord
100
AcDbLayerTableRecord
  2
18_DATUM_CAMS_JOINTS
 70
0
 62
7
  6
CONTINUOUS
370
-3
390
F
  0
LAYER
  5
213
100
AcDbSymbolTableRecord
100
AcDbLayerTableRecord
  2
19_DATUM_FUNCTIONAL
 70
0
 62
7
  6
CONTINUOUS
370
-3
390
F
  0
LAYER
  5
214
100
AcDbSymbolTableRecord
100
AcDbLayerTableRecord
  2
20_DATUM_KINEMATIC_SCHEME
 70
0
 62
7
  6
CONTINUOUS
370
-3
390
F
  0
LAYER
  5
215
100
AcDbSymbolTableRecord
100
AcDbLayerTableRecord
  2
INTFCLR_89006
 70
0
 62
7
  6
CONTINUOUS
370
-3
390
F
  0
LAYER
  5
216
100
AcDbSymbolTableRecord
100
AcDbLayerTableRecord
  2
INTF_BLANK
 70
0
 62
7
  6
CONTINUOUS
370
-3
390
F
  0
LAYER
  5
217
100
AcDbSymbolTableRecord
100
AcDbLayerTableRecord
  2
SHELL5
 70
0
 62
7
  6
CONTINUOUS
370
-3
390
F
  0
LAYER
  5
218
100
AcDbSymbolTableRecord
100
AcDbLayerTableRecord
  2
SHELL6
 70
0
 62
7
  6
CONTINUOUS
370
-3
390
F
  0
LAYER
  5
219
100
AcDbSymbolTableRecord
100
AcDbLayerTableRecord
  2
SHELL980
 70
0
 62
7
  6
CONTINUOUS
370
-3
390
F
  0
LAYER
  5
21A
100
AcDbSymbolTableRecord
100
AcDbLayerTableRecord
  2
_BLACK_HOLE
 70
0
 62
7
  6
CONTINUOUS
370
-3
390
F
  0
LAYER
  5
21B
100
AcDbSymbolTableRecord
100
AcDbLayerTableRecord
  2
black
 70
0
 62
7
  6
CONTINUOUS
370
-3
390
F
  0
ENDTAB
  0
TABLE
  2
STYLE
  5
3
100
AcDbSymbolTable
 70
1
  0
STYLE
  5
11
100
AcDbSymbolTableRecord
100
AcDbTextStyleTableRecord
  2
STANDARD
 70
0
 40
0.0
 41
1.0
 50
0.0
 71
0
 42
0.2
  3
ARIAL.TTF
  4

  0
STYLE
  5
21C
100
AcDbSymbolTableRecord
100
AcDbTextStyleTableRecord
  2
TEXTSTYLE_1
 70
0
 40
0.0
 41
0.8
 50
0.0
 71
0
 42
0.2
  3
gdt
  4

  0
ENDTAB
  0
TABLE
  2
VIEW
  5
6
100
AcDbSymbolTable
 70
0
  0
ENDTAB
  0
TABLE
  2
UCS
  5
7
100
AcDbSymbolTable
 70
0
  0
ENDTAB
  0
TABLE
  2
APPID
  5
9
100
AcDbSymbolTable
 70
1
  0
APPID
  5
21D
100
AcDbSymbolTableRecord
100
AcDbRegAppTableRecord
  2
ACAD
 70
0
  0
ENDTAB
  0
TABLE
  2
BLOCK_RECORD
  5
1
100
AcDbSymbolTable
 70
0
  0
BLOCK_RECORD
  5
21E
100
AcDbSymbolTableRecord
100
AcDbBlockTableRecord
  2
*Model_Space
  0
BLOCK_RECORD
  5
21F
100
AcDbSymbolTableRecord
100
AcDbBlockTableRecord
  2
*Paper_Space
  0
BLOCK_RECORD
  5
220
100
AcDbSymbolTableRecord
100
AcDbBlockTableRecord
  2
_FILLED
  0
ENDTAB
  0
TABLE
  2
DIMSTYLE
  5
A
100
AcDbSymbolTable
 70
1
100
AcDbDimStyleTable
 71
0
  0
DIMSTYLE
105
221
100
AcDbSymbolTableRecord
100
AcDbDimStyleTableRecord
  2
STANDARD
 70
0
  3

  4

 40
1.0
 41
0.7016331882
 42
1.0
 43
0.38
 44
1.0
 45
0.0
 46
0.0
 47
0.01
 48
0.01
140
0.9822864635
141
0.09
142
0.0
143
25.4
144
1.0
145
0.0
146
1.0
147
0.625
 71
1
 72
0
 73
0
 74
0
 75
0
 76
0
 77
1
 78
8
 79
2
170
0
171
1
172
0
173
0
174
0
175
0
176
0
177
0
178
0
270
2
179
2
271
2
272
2
273
2
274
2
275
0
280
0
281
0
282
0
283
1
284
8
285
0
286
0
287
3
288
0
340
11
278
46
341
220
342
220
343
220
344
220
  0
ENDTAB
  0
ENDSEC
  0
SECTION
  2
BLOCKS
  0
BLOCK
  5
20
100
AcDbEntity
  8
0
100
AcDbBlockBegin
  2
*Model_Space
 70
0
 10
0.0
 20
0.0
 30
0.0
  3
*Model_Space
  1

  0
ENDBLK
  5
21
100
AcDbEntity
  8
0
100
AcDbBlockEnd
  0
BLOCK
  5
1C
100
AcDbEntity
  8
0
100
AcDbBlockBegin
  2
*Paper_Space
 70
0
 10
0.0
 20
0.0
 30
0.0
  3
*Paper_Space
  1

  0
ENDBLK
  5
1D
100
AcDbEntity
  8
0
100
AcDbBlockEnd
  0
BLOCK
  5
222
100
AcDbEntity
  8
0
100
AcDbBlockBegin
  2
_FILLED
 70
64
 10
0.0
 20
0.0
  3
_FILLED
  1

  0
SOLID
  5
223
100
AcDbEntity
  8
0
  6
BYBLOCK
 62
0
100
AcDbTrace
 10
0.0
 20
0.0
 11
-1.0
 21
0.25
 12
-1.0
 22
-0.25
 13
-1.0
 23
-0.25
  0
ENDBLK
  5
224
100
AcDbEntity
  8
0
  6
BYBLOCK
 62
0
100
AcDbBlockEnd
  0
ENDSEC
  0
SECTION
  2
ENTITIES
  0
LINE
  5
225
100
AcDbEntity
  8
0
100
AcDbLine
 62
7
  6
BYLAYER
 10
6.2580184117
 20
23.5410844945
 11
6.2580184117
 21
62.0310362933
  0
LINE
  5
226
100
AcDbEntity
  8
0
100
AcDbLine
 62
7
  6
BYLAYER
 10
11.3163828112
 20
22.2392343889
 11
6.2580184117
 21
23.5410844945
  0
LINE
  5
227
100
AcDbEntity
  8
0
100
AcDbLine
 62
7
  6
BYLAYER
 10
7.5280184117
 20
26.7922242423
 11
7.5280184117
 21
28.1603910473
  0
LINE
  5
228
100
AcDbEntity
  8
0
100
AcDbLine
 62
7
  6
BYLAYER
 10
7.5280184117
 20
30.6896553988
 11
7.5280184117
 21
32.0578222038
  0
LINE
  5
229
100
AcDbEntity
  8
0
100
AcDbLine
 62
7
  6
BYLAYER
 10
7.5280184117
 20
53.5142985839
 11
7.5280184117
 21
54.882465389
  0
LINE
  5
22A
100
AcDbEntity
  8
0
100
AcDbLine
 62
7
  6
BYLAYER
 10
7.5280184117
 20
57.4117297404
 11
7.5280184117
 21
58.7798965455
  0
LINE
  5
22B
100
AcDbEntity
  8
0
100
AcDbLine
 62
7
  6
BYLAYER
 10
7.7820184117
 20
39.5475603939
 11
7.7820184117
 21
46.0245603939
  0
LINE
  5
22C
100
AcDbEntity
  8
0
100
AcDbLine
 62
7
  6
BYLAYER
 10
33.0331184117
 20
19.7830603939
 11
29.8581184117
 21
19.7830603939
  0
LINE
  5
22D
100
AcDbEntity
  8
0
100
AcDbLine
 62
7
  6
BYLAYER
 10
8.5628658074
 20
25.3616244717
 11
6.2580184117
 21
25.9548134136
  0
LINE
  5
22E
100
AcDbEntity
  8
0
100
AcDbLine
 62
7
  6
BYLAYER
 10
9.0520184117
 20
44.7545603939
 11
9.0520184117
 21
40.8175603939
  0
LINE
  5
22F
100
AcDbEntity
  8
0
100
AcDbLine
 62
7
  6
BYLAYER
 10
9.8177569426
 20
53.6218224755
 11
9.8177569426
 21
54.2684009162
  0
LINE
  5
230
100
AcDbEntity
  8
0
100
AcDbLine
 62
7
  6
BYLAYER
 10
9.8177569426
 20
57.938168384
 11
9.8177569426
 21
58.1658320727
  0
LINE
  5
231
100
AcDbEntity
  8
0
100
AcDbLine
 62
7
  6
BYLAYER
 10
10.0080184117
 20
21.1038603939
 11
10.0080184117
 21
22.5759626665
  0
LINE
  5
232
100
AcDbEntity
  8
0
100
AcDbLine
 62
7
  6
BYLAYER
 10
10.0080184117
 20
62.9961581213
 11
10.0080184117
 21
63.9790603939
  0
LINE
  5
233
100
AcDbEntity
  8
0
100
AcDbLine
 62
7
  6
BYLAYER
 10
52.8832184117
 20
21.1038603939
 11
37.3439458134
 21
21.1038603939
  0
LINE
  5
234
100
AcDbEntity
  8
0
100
AcDbLine
 62
7
  6
BYLAYER
 10
25.54729101
 20
21.1038603939
 11
10.0080184117
 21
21.1038603939
  0
LINE
  5
235
100
AcDbEntity
  8
0
100
AcDbLine
 62
7
  6
BYLAYER
 10
21.4980184117
 20
22.2392343889
 11
11.3163828112
 21
22.2392343889
  0
LINE
  5
236
100
AcDbEntity
  8
0
100
AcDbLine
 62
7
  6
BYLAYER
 10
28.1401184117
 20
22.5930603939
 11
21.5234184117
 21
22.5930603939
  0
LINE
  5
237
100
AcDbEntity
  8
0
100
AcDbLine
 62
7
  6
BYLAYER
 10
18.9580184117
 20
22.5930603939
 11
21.4980184117
 21
22.5930603939
  0
LINE
  5
238
100
AcDbEntity
  8
0
100
AcDbLine
 62
7
  6
BYLAYER
 10
21.5234184117
 20
22.6184603939
 11
21.4980184117
 21
22.6184603939
  0
LINE
  5
239
100
AcDbEntity
  8
0
100
AcDbLine
 62
7
  6
BYLAYER
 10
29.8581184117
 20
19.7830603939
 11
25.54729101
 21
21.1038603939
  0
LINE
  5
23A
100
AcDbEntity
  8
0
100
AcDbLine
 62
7
  6
BYLAYER
 10
11.2364184117
 20
46.0245603939
 11
11.2364184117
 21
44.7545603939
  0
LINE
  5
23B
100
AcDbEntity
  8
0
100
AcDbLine
 62
7
  6
BYLAYER
 10
11.2364184117
 20
40.8175603939
 11
11.2364184117
 21
39.5475603939
  0
LINE
  5
23C
100
AcDbEntity
  8
0
100
AcDbLine
 62
7
  6
BYLAYER
 10
6.2580184117
 20
48.9510101118
 11
14.0304184117
 21
52.9517103229
  0
LINE
  5
23D
100
AcDbEntity
  8
0
100
AcDbLine
 62
7
  6
BYLAYER
 10
6.2580184117
 20
28.4872456397
 11
8.5628658074
 21
27.8940566979
  0
LINE
  5
23E
100
AcDbEntity
  8
0
100
AcDbLine
 62
7
  6
BYLAYER
 10
14.0304184117
 20
26.549757327
 11
6.2580184117
 21
28.5501074326
  0
LINE
  5
23F
100
AcDbEntity
  8
0
100
AcDbLine
 62
7
  6
BYLAYER
 10
8.5628658074
 20
29.2590556283
 11
6.2580184117
 21
29.8522445701
  0
LINE
  5
240
100
AcDbEntity
  8
0
100
AcDbLine
 62
7
  6
BYLAYER
 10
14.0304184117
 20
63.3328863989
 11
14.0304184117
 21
60.7973798763
  0
LINE
  5
241
100
AcDbEntity
  8
0
100
AcDbLine
 62
7
  6
BYLAYER
 10
14.0304184117
 20
59.905502857
 11
14.0304184117
 21
56.8999487198
  0
LINE
  5
242
100
AcDbEntity
  8
0
100
AcDbLine
 62
7
  6
BYLAYER
 10
14.0304184117
 20
56.0080717005
 11
14.0304184117
 21
52.9517103229
  0
LINE
  5
243
100
AcDbEntity
  8
0
100
AcDbLine
 62
7
  6
BYLAYER
 10
14.0304184117
 20
32.6204104648
 11
14.0304184117
 21
29.5640490873
  0
LINE
  5
244
100
AcDbEntity
  8
0
100
AcDbLine
 62
7
  6
BYLAYER
 10
14.0304184117
 20
28.6721720679
 11
14.0304184117
 21
25.6666179307
  0
LINE
  5
245
100
AcDbEntity
  8
0
100
AcDbLine
 62
7
  6
BYLAYER
 10
14.0304184117
 20
24.7747409114
 11
14.0304184117
 21
22.2392343889
  0
LINE
  5
246
100
AcDbEntity
  8
0
100
AcDbLine
 62
7
  6
BYLAYER
 10
18.9580184117
 20
26.549757327
 11
14.0304184117
 21
26.549757327
  0
LINE
  5
247
100
AcDbEntity
  8
0
100
AcDbLine
 62
7
  6
BYLAYER
 10
9.2992407758
 20
26.7922242423
 11
7.5280184117
 21
26.7922242423
  0
LINE
  5
248
100
AcDbEntity
  8
0
100
AcDbLine
 62
7
  6
BYLAYER
 10
6.2580184117
 20
32.3846767963
 11
8.5628658074
 21
31.7914878544
  0
LINE
  5
249
100
AcDbEntity
  8
0
100
AcDbLine
 62
7
  6
BYLAYER
 10
14.0304184117
 20
32.6204104648
 11
6.2580184117
 21
36.621110676
  0
LINE
  5
24A
100
AcDbEntity
  8
0
100
AcDbLine
 62
7
  6
BYLAYER
 10
9.2992407758
 20
30.6896553988
 11
8.5628658074
 21
29.2590556283
  0
LINE
  5
24B
100
AcDbEntity
  8
0
100
AcDbLine
 62
7
  6
BYLAYER
 10
18.9580184117
 20
22.5930603939
 11
18.9580184117
 21
32.6204104648
  0
LINE
  5
24C
100
AcDbEntity
  8
0
100
AcDbLine
 62
7
  6
BYLAYER
 10
18.9580184117
 20
52.9517103229
 11
18.9580184117
 21
62.9790603939
  0
LINE
  5
24D
100
AcDbEntity
  8
0
100
AcDbLine
 62
7
  6
BYLAYER
 10
9.2992407758
 20
26.7922242422
 11
8.5628658074
 21
25.3616244717
  0
LINE
  5
24E
100
AcDbEntity
  8
0
100
AcDbLine
 62
7
  6
BYLAYER
 10
9.2992407758
 20
30.6896553988
 11
7.5280184117
 21
30.6896553988
  0
LINE
  5
24F
100
AcDbEntity
  8
0
100
AcDbLine
 62
7
  6
BYLAYER
 10
8.5628658074
 20
56.3130651594
 11
9.2992407758
 21
54.882465389
  0
LINE
  5
250
100
AcDbEntity
  8
0
100
AcDbLine
 62
7
  6
BYLAYER
 10
13.926560257
 20
28.4096131337
 11
14.0304184117
 21
28.6721720679
  0
LINE
  5
251
100
AcDbEntity
  8
0
100
AcDbLine
 62
7
  6
BYLAYER
 10
18.9580184117
 20
32.6204104648
 11
14.0304184117
 21
32.6204104648
  0
LINE
  5
252
100
AcDbEntity
  8
0
100
AcDbLine
 62
7
  6
BYLAYER
 10
8.5628658074
 20
60.210496316
 11
9.2992407758
 21
58.7798965455
  0
LINE
  5
253
100
AcDbEntity
  8
0
100
AcDbLine
 62
7
  6
BYLAYER
 10
14.0304184117
 20
56.8999487198
 11
13.926560257
 21
57.1625076541
  0
LINE
  5
254
100
AcDbEntity
  8
0
100
AcDbLine
 62
7
  6
BYLAYER
 10
21.4980184117
 20
22.2392343889
 11
21.4980184117
 21
40.4365603939
  0
LINE
  5
255
100
AcDbEntity
  8
0
100
AcDbLine
 62
7
  6
BYLAYER
 10
21.4980184117
 20
45.1355603939
 11
21.4980184117
 21
63.3328863989
  0
LINE
  5
256
100
AcDbEntity
  8
0
100
AcDbLine
 62
7
  6
BYLAYER
 10
21.5234184117
 20
22.5930603939
 11
21.5234184117
 21
40.3984603939
  0
LINE
  5
257
100
AcDbEntity
  8
0
100
AcDbLine
 62
7
  6
BYLAYER
 10
21.5234184117
 20
45.1736603939
 11
21.5234184117
 21
62.9790603939
  0
LINE
  5
258
100
AcDbEntity
  8
0
100
AcDbLine
 62
7
  6
BYLAYER
 10
22.3108184117
 20
40.3984603939
 11
22.3108184117
 21
45.1736603939
  0
LINE
  5
259
100
AcDbEntity
  8
0
100
AcDbLine
 62
7
  6
BYLAYER
 10
13.926560257
 20
24.5121819771
 11
14.0304184117
 21
24.7747409114
  0
LINE
  5
25A
100
AcDbEntity
  8
0
100
AcDbLine
 62
7
  6
BYLAYER
 10
13.9789235893
 20
28.7499200766
 11
14.088226215
 21
28.9622688363
  0
LINE
  5
25B
100
AcDbEntity
  8
0
100
AcDbLine
 62
7
  6
BYLAYER
 10
14.0882262149
 20
56.6098519514
 11
13.9789235893
 21
56.8222007111
  0
LINE
  5
25C
100
AcDbEntity
  8
0
100
AcDbLine
 62
7
  6
BYLAYER
 10
14.0304184117
 20
60.7973798763
 11
13.926560257
 21
61.0599388106
  0
LINE
  5
25D
100
AcDbEntity
  8
0
100
AcDbLine
 62
7
  6
BYLAYER
 10
13.9789235893
 20
24.8524889201
 11
14.0882262149
 21
25.0648376798
  0
LINE
  5
25E
100
AcDbEntity
  8
0
100
AcDbLine
 62
7
  6
BYLAYER
 10
14.0882262149
 20
60.507283108
 11
13.9789235893
 21
60.7196318677
  0
LINE
  5
25F
100
AcDbEntity
  8
0
100
AcDbLine
 62
7
  6
BYLAYER
 10
11.2364184117
 20
39.5475603939
 11
7.7820184117
 21
39.5475603939
  0
LINE
  5
260
100
AcDbEntity
  8
0
100
AcDbLine
 62
7
  6
BYLAYER
 10
28.1401184117
 20
22.5930603939
 11
28.1401184117
 21
27.3174603939
  0
LINE
  5
261
100
AcDbEntity
  8
0
100
AcDbLine
 62
7
  6
BYLAYER
 10
23.7332184117
 20
40.3984603939
 11
21.4980184117
 21
40.3984603939
  0
LINE
  5
262
100
AcDbEntity
  8
0
100
AcDbLine
 62
7
  6
BYLAYER
 10
21.4980184117
 20
40.4365603939
 11
22.3108184117
 21
40.4365603939
  0
LINE
  5
263
100
AcDbEntity
  8
0
100
AcDbLine
 62
7
  6
BYLAYER
 10
9.0520184117
 20
40.8175603939
 11
11.2364184117
 21
40.8175603939
  0
LINE
  5
264
100
AcDbEntity
  8
0
100
AcDbLine
 62
7
  6
BYLAYER
 10
31.4548184117
 20
30.6321603939
 11
31.4548184117
 21
54.9526603939
  0
LINE
  5
265
100
AcDbEntity
  8
0
100
AcDbLine
 62
7
  6
BYLAYER
 10
11.2364184117
 20
44.7545603939
 11
9.0520184117
 21
44.7545603939
  0
LINE
  5
266
100
AcDbEntity
  8
0
100
AcDbLine
 62
7
  6
BYLAYER
 10
21.4980184117
 20
45.1355603939
 11
22.3108184117
 21
45.1355603939
  0
LINE
  5
267
100
AcDbEntity
  8
0
100
AcDbLine
 62
7
  6
BYLAYER
 10
21.4980184117
 20
45.1736603939
 11
23.7332184117
 21
45.1736603939
  0
LINE
  5
268
100
AcDbEntity
  8
0
100
AcDbLine
 62
7
  6
BYLAYER
 10
7.7820184117
 20
46.0245603939
 11
11.2364184117
 21
46.0245603939
  0
LINE
  5
269
100
AcDbEntity
  8
0
100
AcDbLine
 62
7
  6
BYLAYER
 10
10.1161173513
 20
53.3170352632
 11
9.3097569426
 21
53.6462305215
  0
LINE
  5
26A
100
AcDbEntity
  8
0
100
AcDbLine
 62
7
  6
BYLAYER
 10
9.8177569426
 20
53.6218224755
 11
10.4705534183
 21
53.3553194303
  0
LINE
  5
26B
100
AcDbEntity
  8
0
100
AcDbLine
 62
7
  6
BYLAYER
 10
9.8177569426
 20
54.2684009162
 11
11.5255297114
 21
53.5712056029
  0
LINE
  5
26C
100
AcDbEntity
  8
0
100
AcDbLine
 62
7
  6
BYLAYER
 10
34.7568184117
 20
62.9790603939
 11
34.7568184117
 21
58.2546603939
  0
LINE
  5
26D
100
AcDbEntity
  8
0
100
AcDbLine
 62
7
  6
BYLAYER
 10
9.8177569426
 20
58.1658320727
 11
10.1597924927
 21
58.0261966441
  0
LINE
  5
26E
100
AcDbEntity
  8
0
100
AcDbLine
 62
7
  6
BYLAYER
 10
18.9580184117
 20
52.9517103229
 11
14.0304184117
 21
52.9517103229
  0
LINE
  5
26F
100
AcDbEntity
  8
0
100
AcDbLine
 62
7
  6
BYLAYER
 10
7.5280184117
 20
54.882465389
 11
9.2992407758
 21
54.882465389
  0
LINE
  5
270
100
AcDbEntity
  8
0
100
AcDbLine
 62
7
  6
BYLAYER
 10
8.5628658074
 20
53.7806329333
 11
6.2580184117
 21
53.1874439915
  0
LINE
  5
271
100
AcDbEntity
  8
0
100
AcDbLine
 62
7
  6
BYLAYER
 10
7.5280184117
 20
58.7798965455
 11
9.2992407758
 21
58.7798965455
  0
LINE
  5
272
100
AcDbEntity
  8
0
100
AcDbLine
 62
7
  6
BYLAYER
 10
18.9580184117
 20
59.0223634608
 11
14.0304184117
 21
59.0223634608
  0
LINE
  5
273
100
AcDbEntity
  8
0
100
AcDbLine
 62
7
  6
BYLAYER
 10
6.2580184117
 20
55.7198762176
 11
8.5628658074
 21
56.3130651594
  0
LINE
  5
274
100
AcDbEntity
  8
0
100
AcDbLine
 62
7
  6
BYLAYER
 10
6.2580184117
 20
57.0220133552
 11
14.0304184117
 21
59.0223634608
  0
LINE
  5
275
100
AcDbEntity
  8
0
100
AcDbLine
 62
7
  6
BYLAYER
 10
8.5628658074
 20
57.6780640899
 11
6.2580184117
 21
57.084875148
  0
LINE
  5
276
100
AcDbEntity
  8
0
100
AcDbLine
 62
7
  6
BYLAYER
 10
21.4980184117
 20
62.9536603939
 11
21.5234184117
 21
62.9536603939
  0
LINE
  5
277
100
AcDbEntity
  8
0
100
AcDbLine
 62
7
  6
BYLAYER
 10
18.9580184117
 20
62.9790603939
 11
21.4980184117
 21
62.9790603939
  0
LINE
  5
278
100
AcDbEntity
  8
0
100
AcDbLine
 62
7
  6
BYLAYER
 10
21.5234184117
 20
62.9790603939
 11
34.7568184117
 21
62.9790603939
  0
LINE
  5
279
100
AcDbEntity
  8
0
100
AcDbLine
 62
7
  6
BYLAYER
 10
11.3163828112
 20
63.3328863989
 11
21.4980184117
 21
63.3328863989
  0
LINE
  5
27A
100
AcDbEntity
  8
0
100
AcDbLine
 62
7
  6
BYLAYER
 10
52.8832184117
 20
63.9790603939
 11
52.8832184117
 21
21.1038603939
  0
LINE
  5
27B
100
AcDbEntity
  8
0
100
AcDbLine
 62
7
  6
BYLAYER
 10
37.3439458134
 20
21.1038603939
 11
33.0331184117
 21
19.7830603939
  0
LINE
  5
27C
100
AcDbEntity
  8
0
100
AcDbLine
 62
7
  6
BYLAYER
 10
6.2580184117
 20
59.6173073742
 11
8.5628658074
 21
60.210496316
  0
LINE
  5
27D
100
AcDbEntity
  8
0
100
AcDbLine
 62
7
  6
BYLAYER
 10
10.0080184117
 20
63.9790603939
 11
52.8832184117
 21
63.9790603939
  0
LINE
  5
27E
100
AcDbEntity
  8
0
100
AcDbLine
 62
7
  6
BYLAYER
 10
6.2580184117
 20
62.0310362933
 11
11.3163828112
 21
63.3328863989
  0
ARC
  5
27F
100
AcDbEntity
  8
0
100
AcDbCircle
 62
7
  6
BYLAYER
 10
31.4548184117
 20
27.3174603939
 40
3.3147
100
AcDbArc
 50
90.0
 51
180.0
  0
ARC
  5
280
100
AcDbEntity
  8
0
100
AcDbCircle
 62
7
  6
BYLAYER
 10
31.4548184117
 20
58.2546603939
 40
3.302
100
AcDbArc
 50
270.0
 51
360.0
  0
ARC
  5
281
100
AcDbEntity
  8
0
100
AcDbCircle
 62
7
  6
BYLAYER
 10
23.7332184117
 20
42.7860603939
 40
2.3876
100
AcDbArc
 50
270.0
 51
90.0
  0
ARC
  5
282
100
AcDbEntity
  8
0
100
AcDbCircle
 62
7
  6
BYLAYER
 10
11.1135247909
 20
51.9951729225
 40
2.079664176
100
AcDbArc
 50
128.5403706277
 51
133.7507702358
  0
CIRCLE
  5
283
100
AcDbEntity
  8
0
100
AcDbCircle
 62
7
  6
BYLAYER
 10
15.9608184117
 20
42.7860603939
 40
1.8161
  0
ARC
  5
284
100
AcDbEntity
  8
0
100
AcDbCircle
 62
7
  6
BYLAYER
 10
9.6286356642
 20
26.6594285484
 40
1.6310033891
100
AcDbArc
 50
127.7594899215
 51
130.8017930229
  0
ARC
  5
285
100
AcDbEntity
  8
0
100
AcDbCircle
 62
7
  6
BYLAYER
 10
9.621494924
 20
58.9039619432
 40
1.6197287283
100
AcDbArc
 50
229.1876159811
 51
232.2511010747
  0
CIRCLE
  5
286
100
AcDbEntity
  8
0
100
AcDbCircle
 62
7
  6
BYLAYER
 10
31.4548184117
 20
58.2546603939
 40
1.3716
  0
SPLINE
  5
287
100
AcDbEntity
  8
0
100
AcDbSpline
 62
7
  6
BYLAYER
 70
0
 71
3
 72
9
 73
5
 74
0
 42
0.0000001
 43
0.0000001
 44
0.0000000001
 40
0.0
 40
0.0
 40
0.0
 40
0.0
 40
0.24161918
 40
1.0
 40
1.0
 40
1.0
 40
1.0
 10
13.127004176
 20
30.9998353082
 30
0.0
 10
13.0216109959
 20
30.9502062107
 30
0.0
 10
12.5728373978
 20
30.7720370767
 30
0.0
 10
12.0846621794
 20
30.6986356549
 30
0.0
 10
11.7190184117
 20
30.6986356549
 30
0.0
  0
SPLINE
  5
288
100
AcDbEntity
  8
0
100
AcDbSpline
 62
7
  6
BYLAYER
 70
0
 71
3
 72
15
 73
11
 74
0
 42
0.0000001
 43
0.0000001
 44
0.0000000001
 40
0.0
 40
0.0
 40
0.0
 40
0.0
 40
0.1414789495
 40
0.2809629867
 40
0.4164677371
 40
0.5464784133
 40
0.6698699275
 40
0.7861950169
 40
0.895811571
 40
1.0
 40
1.0
 40
1.0
 40
1.0
 10
11.7190184117
 20
30.6986356549
 30
0.0
 10
11.574601886
 20
30.6986356549
 30
0.0
 10
11.2874982702
 20
30.7159320497
 30
0.0
 10
10.8683827649
 20
30.7931039435
 30
0.0
 10
10.4734839186
 20
30.9194366176
 30
0.0
 10
10.1141500897
 20
31.0913299866
 30
0.0
 10
9.8006157331
 20
31.3042230388
 30
0.0
 10
9.5419824257
 20
31.5525146348
 30
0.0
 10
9.3461658159
 20
31.8294263711
 30
0.0
 10
9.2601937277
 20
32.0324029145
 30
0.0
 10
9.2306244838
 20
32.1345613704
 30
0.0
  0
SPLINE
  5
289
100
AcDbEntity
  8
0
100
AcDbSpline
 62
7
  6
BYLAYER
 70
0
 71
3
 72
9
 73
5
 74
0
 42
0.0000001
 43
0.0000001
 44
0.0000000001
 40
0.0
 40
0.0
 40
0.0
 40
0.0
 40
0.2477717144
 40
1.0
 40
1.0
 40
1.0
 40
1.0
 10
9.2315829082
 20
53.4408288371
 30
0.0
 10
9.2366770566
 20
53.4582616578
 30
0.0
 10
9.2586494044
 20
53.5282012686
 30
0.0
 10
9.2862141827
 20
53.5963702877
 30
0.0
 10
9.3097569426
 20
53.6462305215
 30
0.0
  0
SPLINE
  5
28A
100
AcDbEntity
  8
0
100
AcDbSpline
 62
7
  6
BYLAYER
 70
0
 71
3
 72
13
 73
9
 74
0
 42
0.0000001
 43
0.0000001
 44
0.0000000001
 40
0.0
 40
0.0
 40
0.0
 40
0.0
 40
0.2826505823
 40
0.5450026185
 40
0.6674178343
 40
0.7837247994
 40
0.8943579211
 40
1.0
 40
1.0
 40
1.0
 40
1.0
 10
11.0698215072
 20
32.1520718286
 30
0.0
 10
10.8302920261
 20
32.2137185301
 30
0.0
 10
10.3573804394
 20
32.2943933887
 30
0.0
 10
9.7687708721
 20
32.2807066576
 30
0.0
 10
9.3379772153
 20
32.1938227531
 30
0.0
 10
9.0475655102
 20
32.0953158172
 30
0.0
 10
8.7870684308
 20
31.9633068884
 30
0.0
 10
8.6328258746
 20
31.8519134631
 30
0.0
 10
8.5628658074
 20
31.7914878544
 30
0.0
  0
SPLINE
  5
28B
100
AcDbEntity
  8
0
100
AcDbSpline
 62
7
  6
BYLAYER
 70
0
 71
3
 72
14
 73
10
 74
0
 42
0.0000001
 43
0.0000001
 44
0.0000000001
 40
0.0
 40
0.0
 40
0.0
 40
0.0
 40
0.2195690269
 40
0.3408031023
 40
0.4680786573
 40
0.5997110568
 40
0.7336841191
 40
0.867857641
 40
1.0
 40
1.0
 40
1.0
 40
1.0
 10
14.0304184117
 20
29.5640490873
 30
0.0
 10
13.9579200061
 20
29.85524825
 30
0.0
 10
13.7507842208
 20
30.2854736907
 30
0.0
 10
13.3575700986
 20
30.7907823552
 30
0.0
 10
12.9863794601
 20
31.1567344172
 30
0.0
 10
12.5601095931
 20
31.4851516345
 30
0.0
 10
12.0907553766
 20
31.7672534219
 30
0.0
 10
11.5919689855
 20
31.994679774
 30
0.0
 10
11.2447228296
 20
32.1070582062
 30
0.0
 10
11.0698215072
 20
32.1520718286
 30
0.0
  0
SPLINE
  5
28C
100
AcDbEntity
  8
0
100
AcDbSpline
 62
7
  6
BYLAYER
 70
0
 71
3
 72
14
 73
10
 74
0
 42
0.0000001
 43
0.0000001
 44
0.0000000001
 40
0.0
 40
0.0
 40
0.0
 40
0.0
 40
0.132142359
 40
0.2663158809
 40
0.4002889432
 40
0.5319213427
 40
0.6591968977
 40
0.7804309731
 40
1.0
 40
1.0
 40
1.0
 40
1.0
 10
11.0698215072
 20
53.4200489591
 30
0.0
 10
11.2447228296
 20
53.4650625815
 30
0.0
 10
11.5919689855
 20
53.5774410137
 30
0.0
 10
12.0907553766
 20
53.8048673658
 30
0.0
 10
12.5601095931
 20
54.0869691532
 30
0.0
 10
12.9863794601
 20
54.4153863705
 30
0.0
 10
13.3575700986
 20
54.7813384326
 30
0.0
 10
13.7507842208
 20
55.2866470971
 30
0.0
 10
13.9579200061
 20
55.7168725378
 30
0.0
 10
14.0304184117
 20
56.0080717005
 30
0.0
  0
SPLINE
  5
28D
100
AcDbEntity
  8
0
100
AcDbSpline
 62
7
  6
BYLAYER
 70
0
 71
3
 72
13
 73
9
 74
0
 42
0.0000001
 43
0.0000001
 44
0.0000000001
 40
0.0
 40
0.0
 40
0.0
 40
0.0
 40
0.1056420789
 40
0.2162752006
 40
0.3325821657
 40
0.4549973815
 40
0.7173494177
 40
1.0
 40
1.0
 40
1.0
 40
1.0
 10
8.5628658074
 20
53.7806329333
 30
0.0
 10
8.6328258746
 20
53.7202073247
 30
0.0
 10
8.7870684308
 20
53.6088138993
 30
0.0
 10
9.0475655102
 20
53.4768049705
 30
0.0
 10
9.3379772153
 20
53.3782980347
 30
0.0
 10
9.7687708721
 20
53.2914141302
 30
0.0
 10
10.3573804394
 20
53.2777273991
 30
0.0
 10
10.8302920261
 20
53.3584022576
 30
0.0
 10
11.0698215072
 20
53.4200489591
 30
0.0
  0
SPLINE
  5
28E
100
AcDbEntity
  8
0
100
AcDbSpline
 62
7
  6
BYLAYER
 70
0
 71
3
 72
9
 73
5
 74
0
 42
0.0000001
 43
0.0000001
 44
0.0000000001
 40
0.0
 40
0.0
 40
0.0
 40
0.0
 40
0.2573487613
 40
1.0
 40
1.0
 40
1.0
 40
1.0
 10
11.7190184117
 20
54.8734851328
 30
0.0
 10
11.8430741778
 20
54.8734851328
 30
0.0
 10
12.3245109922
 20
54.8486308251
 30
0.0
 10
12.8031372439
 20
54.7247723887
 30
0.0
 10
13.1270261685
 20
54.5722664876
 30
0.0
  0
SPLINE
  5
28F
100
AcDbEntity
  8
0
100
AcDbSpline
 62
7
  6
BYLAYER
 70
0
 71
3
 72
11
 73
7
 74
0
 42
0.0000001
 43
0.0000001
 44
0.0000000001
 40
0.0
 40
0.0
 40
0.0
 40
0.0
 40
0.2321786272
 40
0.4789529933
 40
0.7365927127
 40
1.0
 40
1.0
 40
1.0
 40
1.0
 10
9.8177569426
 20
54.2684009162
 30
0.0
 10
9.9405210628
 20
54.3663913265
 30
0.0
 10
10.2158903262
 20
54.5417175174
 30
0.0
 10
10.6794315406
 20
54.7306506516
 30
0.0
 10
11.1877306128
 20
54.8473092413
 30
0.0
 10
11.5408142494
 20
54.8734851328
 30
0.0
 10
11.7190184117
 20
54.8734851328
 30
0.0
  0
SPLINE
  5
290
100
AcDbEntity
  8
0
100
AcDbSpline
 62
7
  6
BYLAYER
 70
0
 71
3
 72
9
 73
5
 74
0
 42
0.0000001
 43
0.0000001
 44
0.0000000001
 40
0.0
 40
0.0
 40
0.0
 40
0.0
 40
0.252311822
 40
1.0
 40
1.0
 40
1.0
 40
1.0
 10
11.7190184117
 20
58.7709162894
 30
0.0
 10
11.7913228838
 20
58.7709162894
 30
0.0
 10
12.0778045311
 20
58.7622278394
 30
0.0
 10
12.3634046677
 20
58.7191409394
 30
0.0
 10
12.5711811913
 20
58.6668175402
 30
0.0
  0
SPLINE
  5
291
100
AcDbEntity
  8
0
100
AcDbSpline
 62
7
  6
BYLAYER
 70
0
 71
3
 72
11
 73
7
 74
0
 42
0.0000001
 43
0.0000001
 44
0.0000000001
 40
0.0
 40
0.0
 40
0.0
 40
0.0
 40
0.2321786272
 40
0.4789529933
 40
0.7365927127
 40
1.0
 40
1.0
 40
1.0
 40
1.0
 10
9.8177569426
 20
58.1658320727
 30
0.0
 10
9.9405210628
 20
58.263822483
 30
0.0
 10
10.2158903262
 20
58.4391486739
 30
0.0
 10
10.6794315406
 20
58.6280818081
 30
0.0
 10
11.1877306128
 20
58.7447403978
 30
0.0
 10
11.5408142494
 20
58.7709162894
 30
0.0
 10
11.7190184117
 20
58.7709162894
 30
0.0
  0
SPLINE
  5
292
100
AcDbEntity
  8
0
100
AcDbSpline
 62
7
  6
BYLAYER
 70
0
 71
3
 72
12
 73
8
 74
0
 42
0.0000001
 43
0.0000001
 44
0.0000000001
 40
0.0
 40
0.0
 40
0.0
 40
0.0
 40
0.2701249965
 40
0.5311102708
 40
0.6559631251
 40
0.7760026766
 40
1.0
 40
1.0
 40
1.0
 40
1.0
 10
11.7190184117
 20
26.8012044984
 30
0.0
 10
11.4971969568
 20
26.8012044984
 30
0.0
 10
11.0600166085
 20
26.8414392766
 30
0.0
 10
10.5390286809
 20
26.9925965419
 30
0.0
 10
10.1629483665
 20
27.1711564764
 30
0.0
 10
9.8358621468
 20
27.3750956341
 30
0.0
 10
9.6237928572
 20
27.5686513877
 30
0.0
 10
9.5088106693
 20
27.7122266811
 30
0.0
  0
SPLINE
  5
293
100
AcDbEntity
  8
0
100
AcDbSpline
 62
7
  6
BYLAYER
 70
0
 71
3
 72
9
 73
5
 74
0
 42
0.0000001
 43
0.0000001
 44
0.0000000001
 40
0.0
 40
0.0
 40
0.0
 40
0.0
 40
0.2470692394
 40
1.0
 40
1.0
 40
1.0
 40
1.0
 10
12.5702073918
 20
26.9050642208
 30
0.0
 10
12.5016217277
 20
26.887814957
 30
0.0
 10
12.2218389519
 20
26.8269261096
 30
0.0
 10
11.9345385314
 20
26.8012044984
 30
0.0
 10
11.7190184117
 20
26.8012044984
 30
0.0
  0
SPLINE
  5
294
100
AcDbEntity
  8
0
100
AcDbSpline
 62
7
  6
BYLAYER
 70
0
 71
3
 72
9
 73
5
 74
0
 42
0.0000001
 43
0.0000001
 44
0.0000000001
 40
0.0
 40
0.0
 40
0.0
 40
0.0
 40
0.2667894097
 40
1.0
 40
1.0
 40
1.0
 40
1.0
 10
13.4949162143
 20
58.8601567835
 30
0.0
 10
13.5597339823
 20
58.9425892583
 30
0.0
 10
13.7888922697
 20
59.2616196246
 30
0.0
 10
13.9607932936
 20
59.6258446229
 30
0.0
 10
14.0304184117
 20
59.905502857
 30
0.0
  0
SPLINE
  5
295
100
AcDbEntity
  8
0
100
AcDbSpline
 62
7
  6
BYLAYER
 70
0
 71
3
 72
9
 73
5
 74
0
 42
0.0000001
 43
0.0000001
 44
0.0000000001
 40
0.0
 40
0.0
 40
0.0
 40
0.0
 40
0.2341987396
 40
1.0
 40
1.0
 40
1.0
 40
1.0
 10
14.0304184117
 20
25.6666179307
 30
0.0
 10
14.008171175
 20
25.7559768159
 30
0.0
 10
13.8886192731
 20
26.1313958961
 30
0.0
 10
13.6810374252
 20
26.475262981
 30
0.0
 10
13.4949162143
 20
26.7119640042
 30
0.0
  0
SPLINE
  5
296
100
AcDbEntity
  8
0
100
AcDbSpline
 62
7
  6
BYLAYER
 70
0
 71
3
 72
11
 73
7
 74
0
 42
0.0000001
 43
0.0000001
 44
0.0000000001
 40
0.0
 40
0.0
 40
0.0
 40
0.0
 40
0.2538815877
 40
0.510686144
 40
0.7619495882
 40
1.0
 40
1.0
 40
1.0
 40
1.0
 10
11.0698215072
 20
57.9640585564
 30
0.0
 10
10.8194218073
 20
57.8996142321
 30
0.0
 10
10.3262307635
 20
57.7257779562
 30
0.0
 10
9.6424961086
 20
57.3520320628
 30
0.0
 10
9.0408044114
 20
56.8825060025
 30
0.0
 10
8.7052266921
 20
56.509302143
 30
0.0
 10
8.5628658074
 20
56.3130651595
 30
0.0
  0
SPLINE
  5
297
100
AcDbEntity
  8
0
100
AcDbSpline
 62
7
  6
BYLAYER
 70
0
 71
3
 72
15
 73
11
 74
0
 42
0.0000001
 43
0.0000001
 44
0.0000000001
 40
0.0
 40
0.0
 40
0.0
 40
0.0
 40
0.1490561485
 40
0.292233532
 40
0.4281472654
 40
0.5561161092
 40
0.6760577346
 40
0.7887523574
 40
0.895874395
 40
1.0
 40
1.0
 40
1.0
 40
1.0
 10
11.0698215072
 20
27.6080622313
 30
0.0
 10
11.2233674698
 20
27.5685447487
 30
0.0
 10
11.52888177
 20
27.5071838999
 30
0.0
 10
11.9838554487
 20
27.4699076921
 30
0.0
 10
12.4177009934
 20
27.4899979796
 30
0.0
 10
12.8202208864
 20
27.5671518568
 30
0.0
 10
13.182054192
 20
27.7001438058
 30
0.0
 10
13.494392512
 20
27.8866618262
 30
0.0
 10
13.7489728577
 20
28.1227922525
 30
0.0
 10
13.8759734519
 20
28.3110829351
 30
0.0
 10
13.926650837
 20
28.4095665155
 30
0.0
  0
SPLINE
  5
298
100
AcDbEntity
  8
0
100
AcDbSpline
 62
7
  6
BYLAYER
 70
0
 71
3
 72
11
 73
7
 74
0
 42
0.0000001
 43
0.0000001
 44
0.0000000001
 40
0.0
 40
0.0
 40
0.0
 40
0.0
 40
0.2380504118
 40
0.489313856
 40
0.7461184123
 40
1.0
 40
1.0
 40
1.0
 40
1.0
 10
8.5628658074
 20
29.2590556283
 30
0.0
 10
8.7052266921
 20
29.0628186447
 30
0.0
 10
9.0408044114
 20
28.6896147852
 30
0.0
 10
9.6424961086
 20
28.2200887249
 30
0.0
 10
10.3262307635
 20
27.8463428316
 30
0.0
 10
10.8194218073
 20
27.6725065557
 30
0.0
 10
11.0698215072
 20
27.6080622313
 30
0.0
  0
SPLINE
  5
299
100
AcDbEntity
  8
0
100
AcDbSpline
 62
7
  6
BYLAYER
 70
0
 71
3
 72
15
 73
11
 74
0
 42
0.0000001
 43
0.0000001
 44
0.0000000001
 40
0.0
 40
0.0
 40
0.0
 40
0.0
 40
0.104125605
 40
0.2112476426
 40
0.3239422654
 40
0.4438838908
 40
0.5718527346
 40
0.707766468
 40
0.8509438515
 40
1.0
 40
1.0
 40
1.0
 40
1.0
 10
13.926650837
 20
61.0599854288
 30
0.0
 10
13.8759734519
 20
61.1584690091
 30
0.0
 10
13.7489728577
 20
61.3467596918
 30
0.0
 10
13.494392512
 20
61.5828901181
 30
0.0
 10
13.182054192
 20
61.7694081385
 30
0.0
 10
12.8202208864
 20
61.9024000875
 30
0.0
 10
12.4177009934
 20
61.9795539647
 30
0.0
 10
11.9838554487
 20
61.9996442522
 30
0.0
 10
11.52888177
 20
61.9623680444
 30
0.0
 10
11.2233674698
 20
61.9010071956
 30
0.0
 10
11.0698215072
 20
61.8614897129
 30
0.0
  0
SPLINE
  5
29A
100
AcDbEntity
  8
0
100
AcDbSpline
 62
7
  6
BYLAYER
 70
0
 71
3
 72
15
 73
11
 74
0
 42
0.0000001
 43
0.0000001
 44
0.0000000001
 40
0.0
 40
0.0
 40
0.0
 40
0.0
 40
0.104125605
 40
0.2112476426
 40
0.3239422654
 40
0.4438838908
 40
0.5718527346
 40
0.707766468
 40
0.8509438515
 40
1.0
 40
1.0
 40
1.0
 40
1.0
 10
13.926650837
 20
57.1625542723
 30
0.0
 10
13.8759734519
 20
57.2610378526
 30
0.0
 10
13.7489728577
 20
57.4493285353
 30
0.0
 10
13.494392512
 20
57.6854589616
 30
0.0
 10
13.182054192
 20
57.871976982
 30
0.0
 10
12.8202208864
 20
58.0049689309
 30
0.0
 10
12.4177009934
 20
58.0821228081
 30
0.0
 10
11.9838554487
 20
58.1022130957
 30
0.0
 10
11.52888177
 20
58.0649368878
 30
0.0
 10
11.2233674698
 20
58.0035760391
 30
0.0
 10
11.0698215072
 20
57.9640585564
 30
0.0
  0
SPLINE
  5
29B
100
AcDbEntity
  8
0
100
AcDbSpline
 62
7
  6
BYLAYER
 70
0
 71
3
 72
11
 73
7
 74
0
 42
0.0000001
 43
0.0000001
 44
0.0000000001
 40
0.0
 40
0.0
 40
0.0
 40
0.0
 40
0.2538815877
 40
0.510686144
 40
0.7619495882
 40
1.0
 40
1.0
 40
1.0
 40
1.0
 10
11.0698215072
 20
61.8614897129
 30
0.0
 10
10.8194218073
 20
61.7970453886
 30
0.0
 10
10.3262307635
 20
61.6232091127
 30
0.0
 10
9.6424961086
 20
61.2494632193
 30
0.0
 10
9.0408044114
 20
60.779937159
 30
0.0
 10
8.7052266921
 20
60.4067332996
 30
0.0
 10
8.5628658074
 20
60.210496316
 30
0.0
  0
SPLINE
  5
29C
100
AcDbEntity
  8
0
100
AcDbSpline
 62
7
  6
BYLAYER
 70
0
 71
3
 72
15
 73
11
 74
0
 42
0.0000001
 43
0.0000001
 44
0.0000000001
 40
0.0
 40
0.0
 40
0.0
 40
0.0
 40
0.1490561485
 40
0.292233532
 40
0.4281472654
 40
0.5561161092
 40
0.6760577346
 40
0.7887523574
 40
0.895874395
 40
1.0
 40
1.0
 40
1.0
 40
1.0
 10
11.0698215072
 20
23.7106310748
 30
0.0
 10
11.2233674698
 20
23.6711135921
 30
0.0
 10
11.52888177
 20
23.6097527434
 30
0.0
 10
11.9838554487
 20
23.5724765355
 30
0.0
 10
12.4177009934
 20
23.5925668231
 30
0.0
 10
12.8202208864
 20
23.6697207003
 30
0.0
 10
13.182054192
 20
23.8027126492
 30
0.0
 10
13.494392512
 20
23.9892306696
 30
0.0
 10
13.7489728577
 20
24.2253610959
 30
0.0
 10
13.8759734519
 20
24.4136517786
 30
0.0
 10
13.926650837
 20
24.5121353589
 30
0.0
  0
SPLINE
  5
29D
100
AcDbEntity
  8
0
100
AcDbSpline
 62
7
  6
BYLAYER
 70
0
 71
3
 72
11
 73
7
 74
0
 42
0.0000001
 43
0.0000001
 44
0.0000000001
 40
0.0
 40
0.0
 40
0.0
 40
0.0
 40
0.2380504118
 40
0.489313856
 40
0.7461184123
 40
1.0
 40
1.0
 40
1.0
 40
1.0
 10
8.5628658074
 20
25.3616244717
 30
0.0
 10
8.7052266921
 20
25.1653874882
 30
0.0
 10
9.0408044114
 20
24.7921836287
 30
0.0
 10
9.6424961086
 20
24.3226575684
 30
0.0
 10
10.3262307635
 20
23.9489116751
 30
0.0
 10
10.8194218073
 20
23.7750753991
 30
0.0
 10
11.0698215072
 20
23.7106310748
 30
0.0
  0
ELLIPSE
  5
29E
100
AcDbEntity
  8
0
100
AcDbEllipse
 62
7
  6
BYLAYER
 10
10.6776184117
 20
29.1181105776
 30
0.0
 11
3.4193096007
 21
-0.0
 31
0.0
 40
0.6644630244
 41
-0.1975579181
 42
0.1975579181
  0
ELLIPSE
  5
29F
100
AcDbEntity
  8
0
100
AcDbEllipse
 62
7
  6
BYLAYER
 10
12.1383037558
 20
31.9558715119
 30
0.0
 11
3.4193096007
 21
0.0
 31
0.0
 40
0.6644630244
 41
3.7327378558
 42
5.2448497538
  0
ELLIPSE
  5
2A0
100
AcDbEntity
  8
0
100
AcDbEllipse
 62
7
  6
BYLAYER
 10
11.1398606092
 20
30.0161361897
 30
0.0
 11
3.4193096007
 21
-0.0
 31
0.0
 40
0.6644630244
 41
-0.5911452022
 42
-0.5316204977
  0
ELLIPSE
  5
2A1
100
AcDbEntity
  8
0
100
AcDbEllipse
 62
7
  6
BYLAYER
 10
11.1398606092
 20
59.4534157546
 30
0.0
 11
3.4193096007
 21
-0.0
 31
0.0
 40
0.6644630244
 41
0.5315947947
 42
0.5911452022
  0
ELLIPSE
  5
2A2
100
AcDbEntity
  8
0
100
AcDbEllipse
 62
7
  6
BYLAYER
 10
11.1398606092
 20
55.555984598
 30
0.0
 11
3.4193096007
 21
-0.0
 31
0.0
 40
0.6644630244
 41
0.5315947947
 42
0.5911452022
  0
ELLIPSE
  5
2A3
100
AcDbEntity
  8
0
100
AcDbEllipse
 62
7
  6
BYLAYER
 10
10.6776184117
 20
56.4540102101
 30
0.0
 11
3.4193096007
 21
0.0
 31
0.0
 40
0.6644630244
 41
-0.1975579181
 42
0.1975579181
  0
ELLIPSE
  5
2A4
100
AcDbEntity
  8
0
100
AcDbEllipse
 62
7
  6
BYLAYER
 10
12.1383037558
 20
53.6162492759
 30
0.0
 11
3.4193096007
 21
-0.0
 31
0.0
 40
0.6644630244
 41
7.3215210918
 42
8.8336327586
  0
ELLIPSE
  5
2A5
100
AcDbEntity
  8
0
100
AcDbEllipse
 62
7
  6
BYLAYER
 10
10.6776184117
 20
60.3514413667
 30
0.0
 11
3.4193096007
 21
-0.0
 31
0.0
 40
0.6644630244
 41
-0.1975579181
 42
0.1975579181
  0
ELLIPSE
  5
2A6
100
AcDbEntity
  8
0
100
AcDbEllipse
 62
7
  6
BYLAYER
 10
12.1383037558
 20
57.5136804324
 30
0.0
 11
3.4193096007
 21
0.0
 31
0.0
 40
0.6644630244
 41
7.3215210918
 42
8.8336327586
  0
ELLIPSE
  5
2A7
100
AcDbEntity
  8
0
100
AcDbEllipse
 62
7
  6
BYLAYER
 10
10.6776184117
 20
25.2206794211
 30
0.0
 11
3.4193096007
 21
0.0
 31
0.0
 40
0.6644630244
 41
-0.1975579181
 42
0.1975579181
  0
ELLIPSE
  5
2A8
100
AcDbEntity
  8
0
100
AcDbEllipse
 62
7
  6
BYLAYER
 10
12.1383037558
 20
28.0584403553
 30
0.0
 11
3.4193096007
 21
0.0
 31
0.0
 40
0.6644630244
 41
3.7327378558
 42
5.2448497538
  0
ELLIPSE
  5
2A9
100
AcDbEntity
  8
0
100
AcDbEllipse
 62
7
  6
BYLAYER
 10
11.1398606092
 20
26.1187050332
 30
0.0
 11
3.4193096007
 21
-0.0
 31
0.0
 40
0.6644630244
 41
-0.5911452022
 42
-0.5316204977
  0
ENDSEC
  0
SECTION
  2
OBJECTS
  0
DICTIONARY
  5
C
100
AcDbDictionary
280
0
281
1
  3
ACAD_GROUP
350
D
  3
ACAD_MLINESTYLE
350
17
  3
ACAD_LAYOUT
350
1A
  3
ACAD_PLOTSETTINGS
350
19
  3
ACAD_PLOTSTYLENAME
350
E
  0
DICTIONARY
  5
D
102
{ACAD_REACTORS
330
C
102
}
100
AcDbDictionary
280
0
281
1
  0
ACDBDICTIONARYWDFLT
  5
E
102
{ACAD_REACTORS
330
C
102
}
100
AcDbDictionary
281
1
  3
Normal
350
F
100
AcDbDictionaryWithDefault
340
F
  0
DICTIONARY
  5
17
102
{ACAD_REACTORS
330
C
102
}
100
AcDbDictionary
280
0
281
1
  3
Standard
350
18
  0
DICTIONARY
  5
19
102
{ACAD_REACTORS
330
C
102
}
100
AcDbDictionary
281
1
  0
DICTIONARY
  5
1A
102
{ACAD_REACTORS
330
C
102
}
100
AcDbDictionary
281
1
  3
Model
350
2AA
  3
Layout1
350
2AB
  0
ACDBPLACEHOLDER
  5
F
102
{ACAD_REACTORS
330
E
102
}
  0
MLINESTYLE
  5
18
102
{ACAD_REACTORS
330
17
102
}
100
AcDbMlineStyle
  2
STANDARD
 70
0
  3

 62
256
 51
90.0
 52
90.0
 71
2
 49
0.5
 62
256
  6
BYLAYER
 49
-0.5
 62
256
  6
BYLAYER
  0
LAYOUT
  5
2AA
102
{ACAD_REACTORS
330
1A
102
}
100
AcDbPlotSettings
  1

  2
none_device
  4

  6

 40
0.0
 41
0.0
 42
0.0
 43
0.0
 44
210.0
 45
297.0
 46
0.0
 47
0.0
 48
0.0
 49
0.0
140
0.0
141
0.0
142
1.0
143
1.0
 70
1024
 72
1
 73
0
 74
0
  7

 75
0
147
1.0
148
0.0
149
0.0
100
AcDbLayout
  1
Model
 70
0
 71
0
 10
0.0
 20
0.0
 11
210.0
 21
297.0
 12
0.0
 22
0.0
 32
0.0
 14
0.0
 24
0.0
 34
0.0
 15
0.0
 25
0.0
 35
0.0
146
0.0
 13
0.0
 23
0.0
 33
0.0
 16
1.0
 26
0.0
 36
0.0
 17
0.0
 27
1.0
 37
0.0
 76
0
330
21E
345
0
346
0
  0
LAYOUT
  5
2AB
102
{ACAD_REACTORS
330
1A
102
}
100
AcDbPlotSettings
  1

  2
none_device
  4

  6

 40
0.0
 41
0.0
 42
0.0
 43
0.0
 44
210.0
 45
297.0
 46
0.0
 47
0.0
 48
0.0
 49
0.0
140
0.0
141
0.0
142
1.0
143
1.0
 70
0
 72
1
 73
0
 74
0
  7

 75
0
147
1.0
148
0.0
149
0.0
100
AcDbLayout
  1
Layout1
 70
0
 71
1
 10
0.0
 20
0.0
 11
210.0
 21
297.0
 12
0.0
 22
0.0
 32
0.0
 14
0.0
 24
0.0
 34
0.0
 15
0.0
 25
0.0
 35
0.0
146
0.0
 13
0.0
 23
0.0
 33
0.0
 16
1.0
 26
0.0
 36
0.0
 17
0.0
 27
1.0
 37
0.0
 76
0
330
21F
345
0
346
0
  0
ENDSEC
  0
EOF
