999
DXF file: C:\Users\sesa63760\Dev\_Creo\CAD\MCADID0002509_3D-CAD\drw0001_4.dxf
999
Pro/ENGINEER 2019471 by Parametric Technology Corporation
  0
SECTION
  2
HEADER
  9
$ACADVER
  1
AC1024
  9
$DWGCODEPAGE
  3
ANSI_1252
  9
$EXTMAX
 10
30.4959141566
 20
43.1299357357
 30
0.0
  9
$EXTMIN
 10
0.0
 20
0.0
 30
0.0
  9
$LIMMIN
 10
0.0
 20
0.0
  9
$LIMMAX
 10
30.4959141566
 20
43.1299357357
  9
$VIEWCTR
 10
15.2479570783
 20
21.5649678679
  9
$VIEWSIZE
 40
43.1299357357
  9
$CLAYER
  8
0
  9
$LTSCALE
 40
2.811432848
  9
$CELTYPE
  6
BYLAYER
  9
$DIMSCALE
 40
1.0
  9
$DIMASZ
 40
0.3630465971
  9
$DIMEXO
 40
1.0
  9
$DIMDLI
 40
1.9424445131
  9
$DIMEXE
 40
1.0
  9
$DIMCEN
 40
0.4600526478
  9
$DIMLFAC
 40
1.0
  9
$DIMBLK
  1
_FILLED
  9
$DIMALT
 70
0
  9
$DIMALTF
 40
0.0393700787
  9
$DIMTXT
 40
0.5082652359
  9
$DIMTOL
 70
1
  9
$DIMLIM
 70
0
  9
$DIMTFAC
 40
1.0
  9
$DIMTP
 40
0.01
  9
$DIMTM
 40
0.01
  9
$DIMGAP
 40
0.625
  9
$DIMDSEP
 70
46
  9
$AUNITS
 70
0
  9
$PDMODE
 70
3
  9
$PDSIZE
 40
0.3125
  9
$HANDSEED
  5
23E
  9
$TILEMODE
 70
1
  9
$MEASUREMENT
 70
1
  9
$INSUNITS
 70
4
  0
ENDSEC
  0
SECTION
  2
CLASSES
  0
CLASS
  1
ACDBDICTIONARYWDFLT
  2
AcDbDictionaryWithDefault
  3
AutoCAD 2000
 90
0
 91
1
280
0
281
0
  0
CLASS
  1
ACDBPLACEHOLDER
  2
AcDbPlaceHolder
  3
AutoCAD 2000
 90
0
 91
1
280
0
281
0
  0
CLASS
  1
LAYOUT
  2
AcDbLayout
  3
AutoCAD 2000
 90
0
 91
0
280
0
281
0
  0
ENDSEC
  0
SECTION
  2
TABLES
  0
TABLE
  2
VPORT
  5
8
100
AcDbSymbolTable
 70
2
  0
VPORT
  5
1F4
100
AcDbSymbolTableRecord
100
AcDbViewportTableRecord
  2
*ACTIVE
 70
0
 10
0.0
 20
0.0
 11
1.0
 21
1.0
 12
15.2479570783
 22
21.5649678679
 13
0.0
 23
0.0
 14
1.0
 24
1.0
 15
0.0
 25
0.0
 16
0.0
 26
0.0
 36
1.0
 17
0.0
 27
0.0
 37
0.0
 40
43.1299357357
 41
0.7070707071
 42
50.0
 43
0.0
 44
0.0
 50
0.0
 51
0.0
 71
0
 72
100
 73
1
 74
1
 75
0
 76
0
 77
0
 78
0
  0
ENDTAB
  0
TABLE
  2
LTYPE
  5
5
100
AcDbSymbolTable
 70
6
  0
LTYPE
  5
14
100
AcDbSymbolTableRecord
100
AcDbLinetypeTableRecord
  2
BYBLOCK
 70
0
  3

 72
65
 73
0
 40
0.0
  0
LTYPE
  5
15
100
AcDbSymbolTableRecord
100
AcDbLinetypeTableRecord
  2
BYLAYER
 70
0
  3

 72
65
 73
0
 40
0.0
  0
LTYPE
  5
16
100
AcDbSymbolTableRecord
100
AcDbLinetypeTableRecord
  2
CONTINUOUS
 70
64
  3
Solid line
 72
65
 73
0
 40
0.0
  0
LTYPE
  5
1F5
100
AcDbSymbolTableRecord
100
AcDbLinetypeTableRecord
  2
CENTER
 70
64
  3
____ _ ____ _ ____ _ ____ _ ____ _ ____ _ ____
 72
65
 73
4
 40
0.6
 49
0.375
 74
0
 49
-0.075
 74
0
 49
0.075
 74
0
 49
-0.075
 74
0
  0
LTYPE
  5
1F6
100
AcDbSymbolTableRecord
100
AcDbLinetypeTableRecord
  2
HIDDEN
 70
64
  3
- - - - - - - - - - - - - - - - - - - -
 72
65
 73
2
 40
0.2
 49
0.1
 74
0
 49
-0.1
 74
0
  0
LTYPE
  5
1F7
100
AcDbSymbolTableRecord
100
AcDbLinetypeTableRecord
  2
PHANTOM
 70
64
  3
_____ _ _ _____ _ _ _____ _ _ _____
 72
65
 73
6
 40
0.8
 49
0.45
 74
0
 49
-0.05
 74
0
 49
0.1
 74
0
 49
-0.05
 74
0
 49
0.1
 74
0
 49
-0.05
 74
0
  0
LTYPE
  5
1F8
100
AcDbSymbolTableRecord
100
AcDbLinetypeTableRecord
  2
DOT
 70
64
  3
. . . . . . . . . . . . . . . . . . . .
 72
65
 73
2
 40
0.2
 49
0.1
 74
0
 49
-0.1
 74
0
  0
LTYPE
  5
1F9
100
AcDbSymbolTableRecord
100
AcDbLinetypeTableRecord
  2
DASHED
 70
64
  3
- - - - - - - - - - - - - - - - - - - -
 72
65
 73
2
 40
0.2
 49
0.1
 74
0
 49
-0.1
 74
0
  0
ENDTAB
  0
TABLE
  2
LAYER
  5
2
100
AcDbSymbolTable
 70
36
  0
LAYER
  5
10
100
AcDbSymbolTableRecord
100
AcDbLayerTableRecord
  2
0
 70
0
 62
7
  6
CONTINUOUS
370
-3
390
F
  0
LAYER
  5
1FA
100
AcDbSymbolTableRecord
100
AcDbLayerTableRecord
  2
DEFAULT_1
 70
0
 62
7
  6
CENTER
370
-3
390
F
  0
LAYER
  5
1FB
100
AcDbSymbolTableRecord
100
AcDbLayerTableRecord
  2
DEFAULT_2
 70
0
 62
7
  6
HIDDEN
370
-3
390
F
  0
LAYER
  5
1FC
100
AcDbSymbolTableRecord
100
AcDbLayerTableRecord
  2
DEFAULT_3
 70
0
 62
7
  6
PHANTOM
370
-3
390
F
  0
LAYER
  5
1FD
100
AcDbSymbolTableRecord
100
AcDbLayerTableRecord
  2
00_COMPONENTS
 70
0
 62
7
  6
CONTINUOUS
370
-3
390
F
  0
LAYER
  5
1FE
100
AcDbSymbolTableRecord
100
AcDbLayerTableRecord
  2
01_1_DEFAULT_DATUMS
 70
0
 62
7
  6
CONTINUOUS
370
-3
390
F
  0
LAYER
  5
1FF
100
AcDbSymbolTableRecord
100
AcDbLayerTableRecord
  2
01_PLANES
 70
0
 62
7
  6
CONTINUOUS
370
-3
390
F
  0
LAYER
  5
200
100
AcDbSymbolTableRecord
100
AcDbLayerTableRecord
  2
02_COORD_SYS
 70
0
 62
7
  6
CONTINUOUS
370
-3
390
F
  0
LAYER
  5
201
100
AcDbSymbolTableRecord
100
AcDbLayerTableRecord
  2
03_AXES
 70
0
 62
7
  6
CONTINUOUS
370
-3
390
F
  0
LAYER
  5
202
100
AcDbSymbolTableRecord
100
AcDbLayerTableRecord
  2
04_POINTS
 70
0
 62
7
  6
CONTINUOUS
370
-3
390
F
  0
LAYER
  5
203
100
AcDbSymbolTableRecord
100
AcDbLayerTableRecord
  2
05_CURVES
 70
0
 62
7
  6
CONTINUOUS
370
-3
390
F
  0
LAYER
  5
204
100
AcDbSymbolTableRecord
100
AcDbLayerTableRecord
  2
06_SURFS
 70
0
 62
7
  6
CONTINUOUS
370
-3
390
F
  0
LAYER
  5
205
100
AcDbSymbolTableRecord
100
AcDbLayerTableRecord
  2
07_COSMETICS
 70
0
 62
7
  6
CONTINUOUS
370
-3
390
F
  0
LAYER
  5
206
100
AcDbSymbolTableRecord
100
AcDbLayerTableRecord
  2
10_NOTES
 70
0
 62
7
  6
CONTINUOUS
370
-3
390
F
  0
LAYER
  5
207
100
AcDbSymbolTableRecord
100
AcDbLayerTableRecord
  2
11_NOTES_PUB
 70
0
 62
7
  6
CONTINUOUS
370
-3
390
F
  0
LAYER
  5
208
100
AcDbSymbolTableRecord
100
AcDbLayerTableRecord
  2
13_REF_GTOL
 70
0
 62
7
  6
CONTINUOUS
370
-3
390
F
  0
LAYER
  5
209
100
AcDbSymbolTableRecord
100
AcDbLayerTableRecord
  2
16_MISC
 70
0
 62
7
  6
CONTINUOUS
370
-3
390
F
  0
LAYER
  5
20A
100
AcDbSymbolTableRecord
100
AcDbLayerTableRecord
  2
17_NO_PRINT
 70
0
 62
7
  6
CONTINUOUS
370
-3
390
F
  0
LAYER
  5
20B
100
AcDbSymbolTableRecord
100
AcDbLayerTableRecord
  2
18_DATUM_CAMS_JOINTS
 70
0
 62
7
  6
CONTINUOUS
370
-3
390
F
  0
LAYER
  5
20C
100
AcDbSymbolTableRecord
100
AcDbLayerTableRecord
  2
19_DATUM_FUNCTIONAL
 70
0
 62
7
  6
CONTINUOUS
370
-3
390
F
  0
LAYER
  5
20D
100
AcDbSymbolTableRecord
100
AcDbLayerTableRecord
  2
20_DATUM_KINEMATIC_SCHEME
 70
0
 62
7
  6
CONTINUOUS
370
-3
390
F
  0
ENDTAB
  0
TABLE
  2
STYLE
  5
3
100
AcDbSymbolTable
 70
1
  0
STYLE
  5
11
100
AcDbSymbolTableRecord
100
AcDbTextStyleTableRecord
  2
STANDARD
 70
0
 40
0.0
 41
1.0
 50
0.0
 71
0
 42
0.2
  3
ARIAL.TTF
  4

  0
STYLE
  5
20E
100
AcDbSymbolTableRecord
100
AcDbTextStyleTableRecord
  2
TEXTSTYLE_1
 70
0
 40
0.0
 41
0.8
 50
0.0
 71
0
 42
0.2
  3
gdt
  4

  0
ENDTAB
  0
TABLE
  2
VIEW
  5
6
100
AcDbSymbolTable
 70
0
  0
ENDTAB
  0
TABLE
  2
UCS
  5
7
100
AcDbSymbolTable
 70
0
  0
ENDTAB
  0
TABLE
  2
APPID
  5
9
100
AcDbSymbolTable
 70
1
  0
APPID
  5
20F
100
AcDbSymbolTableRecord
100
AcDbRegAppTableRecord
  2
ACAD
 70
0
  0
ENDTAB
  0
TABLE
  2
BLOCK_RECORD
  5
1
100
AcDbSymbolTable
 70
0
  0
BLOCK_RECORD
  5
210
100
AcDbSymbolTableRecord
100
AcDbBlockTableRecord
  2
*Model_Space
  0
BLOCK_RECORD
  5
211
100
AcDbSymbolTableRecord
100
AcDbBlockTableRecord
  2
*Paper_Space
  0
BLOCK_RECORD
  5
212
100
AcDbSymbolTableRecord
100
AcDbBlockTableRecord
  2
_FILLED
  0
ENDTAB
  0
TABLE
  2
DIMSTYLE
  5
A
100
AcDbSymbolTable
 70
1
100
AcDbDimStyleTable
 71
0
  0
DIMSTYLE
105
213
100
AcDbSymbolTableRecord
100
AcDbDimStyleTableRecord
  2
STANDARD
 70
0
  3

  4

 40
1.0
 41
0.3630465971
 42
1.0
 43
0.38
 44
1.0
 45
0.0
 46
0.0
 47
0.01
 48
0.01
140
0.5082652359
141
0.09
142
0.0
143
25.4
144
1.0
145
0.0
146
1.0
147
0.625
 71
1
 72
0
 73
0
 74
0
 75
0
 76
0
 77
1
 78
8
 79
2
170
0
171
1
172
0
173
0
174
0
175
0
176
0
177
0
178
0
270
2
179
2
271
2
272
2
273
2
274
2
275
0
280
0
281
0
282
0
283
1
284
8
285
0
286
0
287
3
288
0
340
11
278
46
341
212
342
212
343
212
344
212
  0
ENDTAB
  0
ENDSEC
  0
SECTION
  2
BLOCKS
  0
BLOCK
  5
20
100
AcDbEntity
  8
0
100
AcDbBlockBegin
  2
*Model_Space
 70
0
 10
0.0
 20
0.0
 30
0.0
  3
*Model_Space
  1

  0
ENDBLK
  5
21
100
AcDbEntity
  8
0
100
AcDbBlockEnd
  0
BLOCK
  5
1C
100
AcDbEntity
  8
0
100
AcDbBlockBegin
  2
*Paper_Space
 70
0
 10
0.0
 20
0.0
 30
0.0
  3
*Paper_Space
  1

  0
ENDBLK
  5
1D
100
AcDbEntity
  8
0
100
AcDbBlockEnd
  0
BLOCK
  5
214
100
AcDbEntity
  8
0
100
AcDbBlockBegin
  2
_FILLED
 70
64
 10
0.0
 20
0.0
  3
_FILLED
  1

  0
SOLID
  5
215
100
AcDbEntity
  8
0
  6
BYBLOCK
 62
0
100
AcDbTrace
 10
0.0
 20
0.0
 11
-1.0
 21
0.25
 12
-1.0
 22
-0.25
 13
-1.0
 23
-0.25
  0
ENDBLK
  5
216
100
AcDbEntity
  8
0
  6
BYBLOCK
 62
0
100
AcDbBlockEnd
  0
ENDSEC
  0
SECTION
  2
ENTITIES
  0
LINE
  5
217
100
AcDbEntity
  8
0
100
AcDbLine
 62
7
  6
BYLAYER
 10
24.7163103325
 20
9.1298663203
 11
15.1913103325
 21
9.1298663203
  0
LINE
  5
218
100
AcDbEntity
  8
0
100
AcDbLine
 62
7
  6
BYLAYER
 10
27.8913103325
 20
11.5111163203
 11
12.0163103325
 21
11.5111163203
  0
LINE
  5
219
100
AcDbEntity
  8
0
100
AcDbLine
 62
7
  6
BYLAYER
 10
12.0163103325
 20
11.5111163203
 11
12.0163103325
 21
27.3861163203
  0
LINE
  5
21A
100
AcDbEntity
  8
0
100
AcDbLine
 62
7
  6
BYLAYER
 10
12.574924886
 20
33.6787766305
 11
12.574924886
 21
33.7361163203
  0
LINE
  5
21B
100
AcDbEntity
  8
0
100
AcDbLine
 62
7
  6
BYLAYER
 10
13.2875703722
 20
27.7829913203
 11
13.2513408072
 21
27.3861163203
  0
LINE
  5
21C
100
AcDbEntity
  8
0
100
AcDbLine
 62
7
  6
BYLAYER
 10
13.1064225472
 20
33.7361163203
 11
13.2875703722
 21
31.7517413203
  0
LINE
  5
21D
100
AcDbEntity
  8
0
100
AcDbLine
 62
7
  6
BYLAYER
 10
15.1913103325
 20
9.1298663203
 11
15.1913103325
 21
11.5111163203
  0
LINE
  5
21E
100
AcDbEntity
  8
0
100
AcDbLine
 62
7
  6
BYLAYER
 10
15.1913103325
 20
27.3861163203
 11
15.1913103325
 21
27.7829913203
  0
LINE
  5
21F
100
AcDbEntity
  8
0
100
AcDbLine
 62
7
  6
BYLAYER
 10
15.1913103325
 20
31.7517413203
 11
15.1913103325
 21
32.3073663203
  0
LINE
  5
220
100
AcDbEntity
  8
0
100
AcDbLine
 62
7
  6
BYLAYER
 10
15.2110309141
 20
31.7517413203
 11
15.2110309141
 21
27.7829913203
  0
LINE
  5
221
100
AcDbEntity
  8
0
100
AcDbLine
 62
7
  6
BYLAYER
 10
17.8106853325
 20
32.3073663203
 11
17.8106853325
 21
32.9423663203
  0
LWPOLYLINE
  5
222
100
AcDbEntity
  8
0
100
AcDbPolyline
 62
7
  6
BYLAYER
 90
8
 70
0
 10
12.0163103325
 20
26.1627336417
 10
11.5344135373
 20
26.4273797318
 10
10.7369281822
 20
27.5205623751
 10
10.3008619796
 20
28.9718950642
 10
10.2989136088
 20
30.5492468258
 10
10.730897016
 20
32.0016985218
 10
11.5301113138
 20
33.103439494
 10
12.574924886
 20
33.6787766305
  0
LINE
  5
223
100
AcDbEntity
  8
0
100
AcDbLine
 62
7
  6
BYLAYER
 10
12.0163103325
 20
25.7986163203
 11
7.8865911698
 21
25.7986163203
  0
LINE
  5
224
100
AcDbEntity
  8
0
100
AcDbLine
 62
7
  6
BYLAYER
 10
5.6415271396
 20
26.5923663203
 11
6.2138112564
 21
26.5923663203
  0
LINE
  5
225
100
AcDbEntity
  8
0
100
AcDbLine
 62
7
  6
BYLAYER
 10
22.0969353325
 20
32.9423663203
 11
22.0969353325
 21
32.3073663203
  0
LINE
  5
226
100
AcDbEntity
  8
0
100
AcDbLine
 62
7
  6
BYLAYER
 10
12.0163103325
 20
27.3861163203
 11
27.8913103325
 21
27.3861163203
  0
LINE
  5
227
100
AcDbEntity
  8
0
100
AcDbLine
 62
7
  6
BYLAYER
 10
26.6200502928
 20
27.7829913203
 11
24.6965897509
 21
27.7829913203
  0
LINE
  5
228
100
AcDbEntity
  8
0
100
AcDbLine
 62
7
  6
BYLAYER
 10
15.2110309141
 20
27.7829913203
 11
13.2875703722
 21
27.7829913203
  0
LINE
  5
229
100
AcDbEntity
  8
0
100
AcDbLine
 62
7
  6
BYLAYER
 10
24.6965897509
 20
27.7829913203
 11
24.6965897509
 21
31.7517413203
  0
LINE
  5
22A
100
AcDbEntity
  8
0
100
AcDbLine
 62
7
  6
BYLAYER
 10
24.7163103325
 20
11.5111163203
 11
24.7163103325
 21
9.1298663203
  0
LINE
  5
22B
100
AcDbEntity
  8
0
100
AcDbLine
 62
7
  6
BYLAYER
 10
24.7163103325
 20
27.3861163203
 11
24.7163103325
 21
27.7829913203
  0
LINE
  5
22C
100
AcDbEntity
  8
0
100
AcDbLine
 62
7
  6
BYLAYER
 10
24.7163103325
 20
31.7517413203
 11
24.7163103325
 21
32.3073663203
  0
LINE
  5
22D
100
AcDbEntity
  8
0
100
AcDbLine
 62
7
  6
BYLAYER
 10
26.6200502928
 20
31.7517413203
 11
26.8011981178
 21
33.7361163203
  0
LINE
  5
22E
100
AcDbEntity
  8
0
100
AcDbLine
 62
7
  6
BYLAYER
 10
13.2875703722
 20
31.7517413203
 11
15.2110309141
 21
31.7517413203
  0
LINE
  5
22F
100
AcDbEntity
  8
0
100
AcDbLine
 62
7
  6
BYLAYER
 10
24.6965897509
 20
31.7517413203
 11
26.6200502928
 21
31.7517413203
  0
LINE
  5
230
100
AcDbEntity
  8
0
100
AcDbLine
 62
7
  6
BYLAYER
 10
26.6562798578
 20
27.3861163203
 11
26.6200502928
 21
27.7829913203
  0
LINE
  5
231
100
AcDbEntity
  8
0
100
AcDbLine
 62
7
  6
BYLAYER
 10
15.1914315996
 20
32.3073663203
 11
24.7161890654
 21
32.3073663203
  0
LINE
  5
232
100
AcDbEntity
  8
0
100
AcDbLine
 62
7
  6
BYLAYER
 10
5.6415271396
 20
32.9423663203
 11
6.2115698589
 21
32.9423663203
  0
LINE
  5
233
100
AcDbEntity
  8
0
100
AcDbLine
 62
7
  6
BYLAYER
 10
17.8106853325
 20
32.9423663203
 11
22.0969353325
 21
32.9423663203
  0
LINE
  5
234
100
AcDbEntity
  8
0
100
AcDbLine
 62
7
  6
BYLAYER
 10
27.8584426965
 20
33.7361163203
 11
27.8584426965
 21
27.3861163203
  0
LINE
  5
235
100
AcDbEntity
  8
0
100
AcDbLine
 62
7
  6
BYLAYER
 10
27.8913103325
 20
11.5111163203
 11
27.8913103325
 21
33.7361163203
  0
LINE
  5
236
100
AcDbEntity
  8
0
100
AcDbLine
 62
7
  6
BYLAYER
 10
7.8865911698
 20
33.7361163203
 11
27.891307675
 21
33.7361163203
  0
SPLINE
  5
237
100
AcDbEntity
  8
0
100
AcDbSpline
 62
7
  6
BYLAYER
 70
0
 71
3
 72
18
 73
14
 74
0
 42
0.0000001
 43
0.0000001
 44
0.0000000001
 40
0.0
 40
0.0
 40
0.0
 40
0.0
 40
0.0514878588
 40
0.103464821
 40
0.1563867136
 40
0.2106529193
 40
0.2665817478
 40
0.3244060229
 40
0.4460599165
 40
0.5759021647
 40
0.7128720258
 40
0.8550712203
 40
1.0
 40
1.0
 40
1.0
 40
1.0
 10
5.6415271433
 20
26.592390115
 30
0.0
 10
5.5679996815
 20
26.5923898491
 30
0.0
 10
5.4200409829
 20
26.602683193
 30
0.0
 10
5.2008800034
 20
26.6489304494
 30
0.0
 10
4.9860997689
 20
26.7253188687
 30
0.0
 10
4.7779193484
 20
26.8311597312
 30
0.0
 10
4.5782512041
 20
26.9652288249
 30
0.0
 10
4.3217668752
 20
27.1834958739
 30
0.0
 10
4.0335774673
 20
27.5225094766
 30
0.0
 10
3.7564111427
 20
28.0060778918
 30
0.0
 10
3.5509900812
 20
28.555409408
 30
0.0
 10
3.4247786989
 20
29.1497794902
 30
0.0
 10
3.3964631093
 20
29.5604001432
 30
0.0
 10
3.3964631093
 20
29.7673663203
 30
0.0
  0
SPLINE
  5
238
100
AcDbEntity
  8
0
100
AcDbSpline
 62
7
  6
BYLAYER
 70
0
 71
3
 72
19
 73
15
 74
0
 42
0.0000001
 43
0.0000001
 44
0.0000000001
 40
0.0
 40
0.0
 40
0.0
 40
0.0
 40
0.1449061999
 40
0.2870812712
 40
0.4240293185
 40
0.5538513112
 40
0.6157866781
 40
0.6756372962
 40
0.7334537495
 40
0.7893754398
 40
0.8436345338
 40
0.8965494771
 40
0.9485193321
 40
1.0
 40
1.0
 40
1.0
 40
1.0
 10
3.3964631093
 20
29.7673663203
 30
0.0
 10
3.3964631093
 20
29.9743311817
 30
0.0
 10
3.4247711548
 20
30.3849392662
 30
0.0
 10
3.5510076162
 20
30.9793337717
 30
0.0
 10
3.7563277518
 20
31.5285504881
 30
0.0
 10
3.99116022
 20
31.9381100969
 30
0.0
 10
4.2120521697
 20
32.22219097
 30
0.0
 10
4.3890536438
 20
32.4084920026
 30
0.0
 10
4.5782436054
 20
32.5694988415
 30
0.0
 10
4.7779050293
 20
32.7035657973
 30
0.0
 10
4.9860920522
 20
32.809409917
 30
0.0
 10
5.2008743807
 20
32.8858014261
 30
0.0
 10
5.4200386928
 20
32.9320491472
 30
0.0
 10
5.5679989548
 20
32.9423422597
 30
0.0
 10
5.6415271358
 20
32.9423425256
 30
0.0
  0
SPLINE
  5
239
100
AcDbEntity
  8
0
100
AcDbSpline
 62
7
  6
BYLAYER
 70
0
 71
3
 72
29
 73
25
 74
0
 42
0.0000001
 43
0.0000001
 44
0.0000000001
 40
0.0
 40
0.0
 40
0.0
 40
0.0
 40
0.0257279601
 40
0.0517306266
 40
0.0781984035
 40
0.1053285611
 40
0.1332919513
 40
0.1622048062
 40
0.2230328127
 40
0.2879543854
 40
0.3564409808
 40
0.4275343156
 40
0.4999990021
 40
0.5724633895
 40
0.6435559502
 40
0.7120417953
 40
0.7769632498
 40
0.8377920105
 40
0.8667054146
 40
0.8946692518
 40
0.9218000453
 40
0.948268604
 40
0.9742718545
 40
1.0
 40
1.0
 40
1.0
 40
1.0
 10
7.8865911698
 20
25.7986163203
 30
0.0
 10
7.7947389074
 20
25.7986163203
 30
0.0
 10
7.6098091054
 20
25.8115900918
 30
0.0
 10
7.3358104402
 20
25.8692489403
 30
0.0
 10
7.0672931402
 20
25.9648230728
 30
0.0
 10
6.8070353549
 20
26.0970796144
 30
0.0
 10
6.5575074003
 20
26.2647326138
 30
0.0
 10
6.2368571191
 20
26.5375118444
 30
0.0
 10
5.87664735
 20
26.9613206752
 30
0.0
 10
5.5301790433
 20
27.5657905358
 30
0.0
 10
5.2734412355
 20
28.2524236996
 30
0.0
 10
5.1156648733
 20
28.9954879338
 30
0.0
 10
5.0624223143
 20
29.7673539675
 30
0.0
 10
5.115661426
 20
30.5392174121
 30
0.0
 10
5.2734323344
 20
31.2822761242
 30
0.0
 10
5.5301636114
 20
31.9689052297
 30
0.0
 10
5.8766251686
 20
32.5733786214
 30
0.0
 10
6.2368342731
 20
32.9971932059
 30
0.0
 10
6.5574840448
 20
33.2699827569
 30
0.0
 10
6.8070157401
 20
33.4376407515
 30
0.0
 10
7.0672779066
 20
33.569903418
 30
0.0
 10
7.3358018489
 20
33.6654805861
 30
0.0
 10
7.6098057423
 20
33.7231412029
 30
0.0
 10
7.7947382454
 20
33.7361163203
 30
0.0
 10
7.8865911698
 20
33.7361163203
 30
0.0
  0
SPLINE
  5
23A
100
AcDbEntity
  8
0
100
AcDbSpline
 62
7
  6
BYLAYER
 70
0
 71
3
 72
30
 73
26
 74
0
 42
0.0000001
 43
0.0000001
 44
0.0000000001
 40
0.0
 40
0.0
 40
0.0
 40
0.0
 40
0.0256521602
 40
0.0515710771
 40
0.0779405556
 40
0.1049515899
 40
0.1327715569
 40
0.1615168643
 40
0.221945279
 40
0.2864076113
 40
0.354427609
 40
0.4251081069
 40
0.4972755916
 40
0.56961254
 40
0.6407856146
 40
0.7095730372
 40
0.7749958213
 40
0.8062720692
 40
0.8365262568
 40
0.8657663032
 40
0.894042162
 40
0.9214428479
 40
0.948113124
 40
0.9742362612
 40
1.0
 40
1.0
 40
1.0
 40
1.0
 10
12.1522128273
 20
33.7361163203
 30
0.0
 10
12.0617877757
 20
33.7361163203
 30
0.0
 10
11.8797638449
 20
33.7235455614
 30
0.0
 10
11.6099615234
 20
33.667669028
 30
0.0
 10
11.3453777681
 20
33.5750315772
 30
0.0
 10
11.0886783164
 20
33.4467812882
 30
0.0
 10
10.8422193561
 20
33.2841380271
 30
0.0
 10
10.5250346192
 20
33.0194142278
 30
0.0
 10
10.1672537214
 20
32.6076718498
 30
0.0
 10
9.8202996591
 20
32.019139615
 30
0.0
 10
9.5595125523
 20
31.3490780864
 30
0.0
 10
9.3939905575
 20
30.621851397
 30
0.0
 10
9.3294099693
 20
29.8636891548
 30
0.0
 10
9.3680476814
 20
29.1020544016
 30
0.0
 10
9.5085665623
 20
28.3644635679
 30
0.0
 10
9.7459828243
 20
27.6777509618
 30
0.0
 10
10.0221374079
 20
27.1604596704
 30
0.0
 10
10.2843846296
 20
26.7971468428
 30
0.0
 10
10.495664512
 20
26.5561508499
 30
0.0
 10
10.7226232929
 20
26.3450497527
 30
0.0
 10
10.9630599385
 20
26.165690984
 30
0.0
 10
11.2149008157
 20
26.0199581786
 30
0.0
 10
11.4758183541
 20
25.9091922209
 30
0.0
 10
11.7433342261
 20
25.8347269732
 30
0.0
 10
11.9251691914
 20
25.8095888869
 30
0.0
 10
12.0157717198
 20
25.8033312159
 30
0.0
  0
ELLIPSE
  5
23B
100
AcDbEntity
  8
0
100
AcDbEllipse
 62
7
  6
BYLAYER
 10
12.4794271944
 20
29.7673663203
 30
0.0
 11
-0.0
 21
3.96875
 31
0.0
 40
0.1420684617
 41
-2.2190576709
 42
-0.1701923637
  0
ENDSEC
  0
SECTION
  2
OBJECTS
  0
DICTIONARY
  5
C
100
AcDbDictionary
280
0
281
1
  3
ACAD_GROUP
350
D
  3
ACAD_MLINESTYLE
350
17
  3
ACAD_LAYOUT
350
1A
  3
ACAD_PLOTSETTINGS
350
19
  3
ACAD_PLOTSTYLENAME
350
E
  0
DICTIONARY
  5
D
102
{ACAD_REACTORS
330
C
102
}
100
AcDbDictionary
280
0
281
1
  0
ACDBDICTIONARYWDFLT
  5
E
102
{ACAD_REACTORS
330
C
102
}
100
AcDbDictionary
281
1
  3
Normal
350
F
100
AcDbDictionaryWithDefault
340
F
  0
DICTIONARY
  5
17
102
{ACAD_REACTORS
330
C
102
}
100
AcDbDictionary
280
0
281
1
  3
Standard
350
18
  0
DICTIONARY
  5
19
102
{ACAD_REACTORS
330
C
102
}
100
AcDbDictionary
281
1
  0
DICTIONARY
  5
1A
102
{ACAD_REACTORS
330
C
102
}
100
AcDbDictionary
281
1
  3
Model
350
23C
  3
Layout1
350
23D
  0
ACDBPLACEHOLDER
  5
F
102
{ACAD_REACTORS
330
E
102
}
  0
MLINESTYLE
  5
18
102
{ACAD_REACTORS
330
17
102
}
100
AcDbMlineStyle
  2
STANDARD
 70
0
  3

 62
256
 51
90.0
 52
90.0
 71
2
 49
0.5
 62
256
  6
BYLAYER
 49
-0.5
 62
256
  6
BYLAYER
  0
LAYOUT
  5
23C
102
{ACAD_REACTORS
330
1A
102
}
100
AcDbPlotSettings
  1

  2
none_device
  4

  6

 40
0.0
 41
0.0
 42
0.0
 43
0.0
 44
210.0
 45
297.0
 46
0.0
 47
0.0
 48
0.0
 49
0.0
140
0.0
141
0.0
142
1.0
143
1.0
 70
1024
 72
1
 73
0
 74
0
  7

 75
0
147
1.0
148
0.0
149
0.0
100
AcDbLayout
  1
Model
 70
0
 71
0
 10
0.0
 20
0.0
 11
210.0
 21
297.0
 12
0.0
 22
0.0
 32
0.0
 14
0.0
 24
0.0
 34
0.0
 15
0.0
 25
0.0
 35
0.0
146
0.0
 13
0.0
 23
0.0
 33
0.0
 16
1.0
 26
0.0
 36
0.0
 17
0.0
 27
1.0
 37
0.0
 76
0
330
210
345
0
346
0
  0
LAYOUT
  5
23D
102
{ACAD_REACTORS
330
1A
102
}
100
AcDbPlotSettings
  1

  2
none_device
  4

  6

 40
0.0
 41
0.0
 42
0.0
 43
0.0
 44
210.0
 45
297.0
 46
0.0
 47
0.0
 48
0.0
 49
0.0
140
0.0
141
0.0
142
1.0
143
1.0
 70
0
 72
1
 73
0
 74
0
  7

 75
0
147
1.0
148
0.0
149
0.0
100
AcDbLayout
  1
Layout1
 70
0
 71
1
 10
0.0
 20
0.0
 11
210.0
 21
297.0
 12
0.0
 22
0.0
 32
0.0
 14
0.0
 24
0.0
 34
0.0
 15
0.0
 25
0.0
 35
0.0
146
0.0
 13
0.0
 23
0.0
 33
0.0
 16
1.0
 26
0.0
 36
0.0
 17
0.0
 27
1.0
 37
0.0
 76
0
330
211
345
0
346
0
  0
ENDSEC
  0
EOF
