999
DXF file: C:\Users\sesa63760\Dev\_Creo\CAD\MCADID0004681_3D-CAD\drw0001_7.dxf
999
Pro/ENGINEER 2019471 by Parametric Technology Corporation
  0
SECTION
  2
HEADER
  9
$ACADVER
  1
AC1024
  9
$DWGCODEPAGE
  3
ANSI_1252
  9
$EXTMAX
 10
188.7855813993
 20
266.9967508362
 30
0.0
  9
$EXTMIN
 10
0.0
 20
0.0
 30
0.0
  9
$LIMMIN
 10
0.0
 20
0.0
  9
$LIMMAX
 10
188.7855813993
 20
266.9967508362
  9
$VIEWCTR
 10
94.3927906997
 20
133.4983754181
  9
$VIEWSIZE
 40
266.9967508362
  9
$CLAYER
  8
0
  9
$LTSCALE
 40
17.4042326471
  9
$CELTYPE
  6
BYLAYER
  9
$DIMSCALE
 40
1.0
  9
$DIMASZ
 40
2.2474473976
  9
$DIMEXO
 40
1.0
  9
$DIMDLI
 40
12.0247425562
  9
$DIMEXE
 40
1.0
  9
$DIMCEN
 40
2.8479653423
  9
$DIMLFAC
 40
1.0
  9
$DIMBLK
  1
_FILLED
  9
$DIMALT
 70
0
  9
$DIMALTF
 40
0.0393700787
  9
$DIMTXT
 40
3.1464263567
  9
$DIMTOL
 70
1
  9
$DIMLIM
 70
0
  9
$DIMTFAC
 40
1.0
  9
$DIMTP
 40
0.01
  9
$DIMTM
 40
0.01
  9
$DIMGAP
 40
0.625
  9
$DIMDSEP
 70
46
  9
$AUNITS
 70
0
  9
$PDMODE
 70
3
  9
$PDSIZE
 40
0.3125
  9
$HANDSEED
  5
29A
  9
$TILEMODE
 70
1
  9
$MEASUREMENT
 70
1
  9
$INSUNITS
 70
4
  0
ENDSEC
  0
SECTION
  2
CLASSES
  0
CLASS
  1
ACDBDICTIONARYWDFLT
  2
AcDbDictionaryWithDefault
  3
AutoCAD 2000
 90
0
 91
1
280
0
281
0
  0
CLASS
  1
ACDBPLACEHOLDER
  2
AcDbPlaceHolder
  3
AutoCAD 2000
 90
0
 91
1
280
0
281
0
  0
CLASS
  1
LAYOUT
  2
AcDbLayout
  3
AutoCAD 2000
 90
0
 91
0
280
0
281
0
  0
ENDSEC
  0
SECTION
  2
TABLES
  0
TABLE
  2
VPORT
  5
8
100
AcDbSymbolTable
 70
2
  0
VPORT
  5
1F4
100
AcDbSymbolTableRecord
100
AcDbViewportTableRecord
  2
*ACTIVE
 70
0
 10
0.0
 20
0.0
 11
1.0
 21
1.0
 12
94.3927906997
 22
133.4983754181
 13
0.0
 23
0.0
 14
1.0
 24
1.0
 15
0.0
 25
0.0
 16
0.0
 26
0.0
 36
1.0
 17
0.0
 27
0.0
 37
0.0
 40
266.9967508362
 41
0.7070707071
 42
50.0
 43
0.0
 44
0.0
 50
0.0
 51
0.0
 71
0
 72
100
 73
1
 74
1
 75
0
 76
0
 77
0
 78
0
  0
ENDTAB
  0
TABLE
  2
LTYPE
  5
5
100
AcDbSymbolTable
 70
6
  0
LTYPE
  5
14
100
AcDbSymbolTableRecord
100
AcDbLinetypeTableRecord
  2
BYBLOCK
 70
0
  3

 72
65
 73
0
 40
0.0
  0
LTYPE
  5
15
100
AcDbSymbolTableRecord
100
AcDbLinetypeTableRecord
  2
BYLAYER
 70
0
  3

 72
65
 73
0
 40
0.0
  0
LTYPE
  5
16
100
AcDbSymbolTableRecord
100
AcDbLinetypeTableRecord
  2
CONTINUOUS
 70
64
  3
Solid line
 72
65
 73
0
 40
0.0
  0
LTYPE
  5
1F5
100
AcDbSymbolTableRecord
100
AcDbLinetypeTableRecord
  2
CENTER
 70
64
  3
____ _ ____ _ ____ _ ____ _ ____ _ ____ _ ____
 72
65
 73
4
 40
0.6
 49
0.375
 74
0
 49
-0.075
 74
0
 49
0.075
 74
0
 49
-0.075
 74
0
  0
LTYPE
  5
1F6
100
AcDbSymbolTableRecord
100
AcDbLinetypeTableRecord
  2
HIDDEN
 70
64
  3
- - - - - - - - - - - - - - - - - - - -
 72
65
 73
2
 40
0.2
 49
0.1
 74
0
 49
-0.1
 74
0
  0
LTYPE
  5
1F7
100
AcDbSymbolTableRecord
100
AcDbLinetypeTableRecord
  2
PHANTOM
 70
64
  3
_____ _ _ _____ _ _ _____ _ _ _____
 72
65
 73
6
 40
0.8
 49
0.45
 74
0
 49
-0.05
 74
0
 49
0.1
 74
0
 49
-0.05
 74
0
 49
0.1
 74
0
 49
-0.05
 74
0
  0
LTYPE
  5
1F8
100
AcDbSymbolTableRecord
100
AcDbLinetypeTableRecord
  2
DOT
 70
64
  3
. . . . . . . . . . . . . . . . . . . .
 72
65
 73
2
 40
0.2
 49
0.1
 74
0
 49
-0.1
 74
0
  0
LTYPE
  5
1F9
100
AcDbSymbolTableRecord
100
AcDbLinetypeTableRecord
  2
DASHED
 70
64
  3
- - - - - - - - - - - - - - - - - - - -
 72
65
 73
2
 40
0.2
 49
0.1
 74
0
 49
-0.1
 74
0
  0
ENDTAB
  0
TABLE
  2
LAYER
  5
2
100
AcDbSymbolTable
 70
36
  0
LAYER
  5
10
100
AcDbSymbolTableRecord
100
AcDbLayerTableRecord
  2
0
 70
0
 62
7
  6
CONTINUOUS
370
-3
390
F
  0
LAYER
  5
1FA
100
AcDbSymbolTableRecord
100
AcDbLayerTableRecord
  2
DEFAULT_1
 70
0
 62
7
  6
CENTER
370
-3
390
F
  0
LAYER
  5
1FB
100
AcDbSymbolTableRecord
100
AcDbLayerTableRecord
  2
DEFAULT_2
 70
0
 62
7
  6
HIDDEN
370
-3
390
F
  0
LAYER
  5
1FC
100
AcDbSymbolTableRecord
100
AcDbLayerTableRecord
  2
DEFAULT_3
 70
0
 62
7
  6
PHANTOM
370
-3
390
F
  0
LAYER
  5
1FD
100
AcDbSymbolTableRecord
100
AcDbLayerTableRecord
  2
00_COMPONENTS
 70
0
 62
7
  6
CONTINUOUS
370
-3
390
F
  0
LAYER
  5
1FE
100
AcDbSymbolTableRecord
100
AcDbLayerTableRecord
  2
01_1_DEFAULT_DATUMS
 70
0
 62
7
  6
CONTINUOUS
370
-3
390
F
  0
LAYER
  5
1FF
100
AcDbSymbolTableRecord
100
AcDbLayerTableRecord
  2
01_PLANES
 70
0
 62
7
  6
CONTINUOUS
370
-3
390
F
  0
LAYER
  5
200
100
AcDbSymbolTableRecord
100
AcDbLayerTableRecord
  2
02_COORD_SYS
 70
0
 62
7
  6
CONTINUOUS
370
-3
390
F
  0
LAYER
  5
201
100
AcDbSymbolTableRecord
100
AcDbLayerTableRecord
  2
03_AXES
 70
0
 62
7
  6
CONTINUOUS
370
-3
390
F
  0
LAYER
  5
202
100
AcDbSymbolTableRecord
100
AcDbLayerTableRecord
  2
04_POINTS
 70
0
 62
7
  6
CONTINUOUS
370
-3
390
F
  0
LAYER
  5
203
100
AcDbSymbolTableRecord
100
AcDbLayerTableRecord
  2
05_CURVES
 70
0
 62
7
  6
CONTINUOUS
370
-3
390
F
  0
LAYER
  5
204
100
AcDbSymbolTableRecord
100
AcDbLayerTableRecord
  2
06_SURFS
 70
0
 62
7
  6
CONTINUOUS
370
-3
390
F
  0
LAYER
  5
205
100
AcDbSymbolTableRecord
100
AcDbLayerTableRecord
  2
07_COSMETICS
 70
0
 62
7
  6
CONTINUOUS
370
-3
390
F
  0
LAYER
  5
206
100
AcDbSymbolTableRecord
100
AcDbLayerTableRecord
  2
10_NOTES
 70
0
 62
7
  6
CONTINUOUS
370
-3
390
F
  0
LAYER
  5
207
100
AcDbSymbolTableRecord
100
AcDbLayerTableRecord
  2
11_NOTES_PUB
 70
0
 62
7
  6
CONTINUOUS
370
-3
390
F
  0
LAYER
  5
208
100
AcDbSymbolTableRecord
100
AcDbLayerTableRecord
  2
13_REF_GTOL
 70
0
 62
7
  6
CONTINUOUS
370
-3
390
F
  0
LAYER
  5
209
100
AcDbSymbolTableRecord
100
AcDbLayerTableRecord
  2
16_MISC
 70
0
 62
7
  6
CONTINUOUS
370
-3
390
F
  0
LAYER
  5
20A
100
AcDbSymbolTableRecord
100
AcDbLayerTableRecord
  2
17_NO_PRINT
 70
0
 62
7
  6
CONTINUOUS
370
-3
390
F
  0
LAYER
  5
20B
100
AcDbSymbolTableRecord
100
AcDbLayerTableRecord
  2
18_DATUM_CAMS_JOINTS
 70
0
 62
7
  6
CONTINUOUS
370
-3
390
F
  0
LAYER
  5
20C
100
AcDbSymbolTableRecord
100
AcDbLayerTableRecord
  2
19_DATUM_FUNCTIONAL
 70
0
 62
7
  6
CONTINUOUS
370
-3
390
F
  0
LAYER
  5
20D
100
AcDbSymbolTableRecord
100
AcDbLayerTableRecord
  2
20_DATUM_KINEMATIC_SCHEME
 70
0
 62
7
  6
CONTINUOUS
370
-3
390
F
  0
ENDTAB
  0
TABLE
  2
STYLE
  5
3
100
AcDbSymbolTable
 70
1
  0
STYLE
  5
11
100
AcDbSymbolTableRecord
100
AcDbTextStyleTableRecord
  2
STANDARD
 70
0
 40
0.0
 41
1.0
 50
0.0
 71
0
 42
0.2
  3
ARIAL.TTF
  4

  0
STYLE
  5
20E
100
AcDbSymbolTableRecord
100
AcDbTextStyleTableRecord
  2
TEXTSTYLE_1
 70
0
 40
0.0
 41
0.8
 50
0.0
 71
0
 42
0.2
  3
gdt
  4

  0
ENDTAB
  0
TABLE
  2
VIEW
  5
6
100
AcDbSymbolTable
 70
0
  0
ENDTAB
  0
TABLE
  2
UCS
  5
7
100
AcDbSymbolTable
 70
0
  0
ENDTAB
  0
TABLE
  2
APPID
  5
9
100
AcDbSymbolTable
 70
1
  0
APPID
  5
20F
100
AcDbSymbolTableRecord
100
AcDbRegAppTableRecord
  2
ACAD
 70
0
  0
ENDTAB
  0
TABLE
  2
BLOCK_RECORD
  5
1
100
AcDbSymbolTable
 70
0
  0
BLOCK_RECORD
  5
210
100
AcDbSymbolTableRecord
100
AcDbBlockTableRecord
  2
*Model_Space
  0
BLOCK_RECORD
  5
211
100
AcDbSymbolTableRecord
100
AcDbBlockTableRecord
  2
*Paper_Space
  0
BLOCK_RECORD
  5
212
100
AcDbSymbolTableRecord
100
AcDbBlockTableRecord
  2
_FILLED
  0
ENDTAB
  0
TABLE
  2
DIMSTYLE
  5
A
100
AcDbSymbolTable
 70
1
100
AcDbDimStyleTable
 71
0
  0
DIMSTYLE
105
213
100
AcDbSymbolTableRecord
100
AcDbDimStyleTableRecord
  2
STANDARD
 70
0
  3

  4

 40
1.0
 41
2.2474473976
 42
1.0
 43
0.38
 44
1.0
 45
0.0
 46
0.0
 47
0.01
 48
0.01
140
3.1464263567
141
0.09
142
0.0
143
25.4
144
1.0
145
0.0
146
1.0
147
0.625
 71
1
 72
0
 73
0
 74
0
 75
0
 76
0
 77
1
 78
8
 79
2
170
0
171
1
172
0
173
0
174
0
175
0
176
0
177
0
178
0
270
2
179
2
271
2
272
2
273
2
274
2
275
0
280
0
281
0
282
0
283
1
284
8
285
0
286
0
287
3
288
0
340
11
278
46
341
212
342
212
343
212
344
212
  0
ENDTAB
  0
ENDSEC
  0
SECTION
  2
BLOCKS
  0
BLOCK
  5
20
100
AcDbEntity
  8
0
100
AcDbBlockBegin
  2
*Model_Space
 70
0
 10
0.0
 20
0.0
 30
0.0
  3
*Model_Space
  1

  0
ENDBLK
  5
21
100
AcDbEntity
  8
0
100
AcDbBlockEnd
  0
BLOCK
  5
1C
100
AcDbEntity
  8
0
100
AcDbBlockBegin
  2
*Paper_Space
 70
0
 10
0.0
 20
0.0
 30
0.0
  3
*Paper_Space
  1

  0
ENDBLK
  5
1D
100
AcDbEntity
  8
0
100
AcDbBlockEnd
  0
BLOCK
  5
214
100
AcDbEntity
  8
0
100
AcDbBlockBegin
  2
_FILLED
 70
64
 10
0.0
 20
0.0
  3
_FILLED
  1

  0
SOLID
  5
215
100
AcDbEntity
  8
0
  6
BYBLOCK
 62
0
100
AcDbTrace
 10
0.0
 20
0.0
 11
-1.0
 21
0.25
 12
-1.0
 22
-0.25
 13
-1.0
 23
-0.25
  0
ENDBLK
  5
216
100
AcDbEntity
  8
0
  6
BYBLOCK
 62
0
100
AcDbBlockEnd
  0
ENDSEC
  0
SECTION
  2
ENTITIES
  0
LINE
  5
217
100
AcDbEntity
  8
0
100
AcDbLine
 62
7
  6
BYLAYER
 10
100.1013998276
 20
19.771485221
 11
98.951928323
 21
19.771485221
  0
LINE
  5
218
100
AcDbEntity
  8
0
100
AcDbLine
 62
7
  6
BYLAYER
 10
98.7542047462
 20
19.771485221
 11
97.1115835691
 21
19.771485221
  0
LINE
  5
219
100
AcDbEntity
  8
0
100
AcDbLine
 62
7
  6
BYLAYER
 10
100.6639531613
 20
69.771485221
 11
96.2643484325
 21
69.771485221
  0
LINE
  5
21A
100
AcDbEntity
  8
0
100
AcDbLine
 62
7
  6
BYLAYER
 10
88.4863981079
 20
240.7600179079
 11
88.5003199871
 21
240.9850545562
  0
LINE
  5
21B
100
AcDbEntity
  8
0
100
AcDbLine
 62
7
  6
BYLAYER
 10
89.3488328339
 20
240.9850545561
 11
89.3349109547
 21
240.7600179079
  0
LINE
  5
21C
100
AcDbEntity
  8
0
100
AcDbLine
 62
7
  6
BYLAYER
 10
94.0424180199
 20
234.159072484
 11
94.042417885
 21
237.9915497336
  0
LINE
  5
21D
100
AcDbEntity
  8
0
100
AcDbLine
 62
7
  6
BYLAYER
 10
94.4641507969
 20
232.971485221
 11
94.4641507969
 21
234.0166147211
  0
LINE
  5
21E
100
AcDbEntity
  8
0
100
AcDbLine
 62
7
  6
BYLAYER
 10
95.6443364059
 20
238.3980200493
 11
95.6578961213
 21
238.6172025932
  0
LINE
  5
21F
100
AcDbEntity
  8
0
100
AcDbLine
 62
7
  6
BYLAYER
 10
96.1821457305
 20
247.0913010411
 11
96.1957054459
 21
247.310483585
  0
LINE
  5
220
100
AcDbEntity
  8
0
100
AcDbLine
 62
7
  6
BYLAYER
 10
94.8264829007
 20
219.671485221
 11
94.5943305372
 21
232.971485221
  0
LINE
  5
221
100
AcDbEntity
  8
0
100
AcDbLine
 62
7
  6
BYLAYER
 10
96.2641507969
 20
69.771485221
 11
96.2641507969
 21
219.671485221
  0
LINE
  5
222
100
AcDbEntity
  8
0
100
AcDbLine
 62
7
  6
BYLAYER
 10
96.870794176
 20
234.1590493177
 11
96.8707940321
 21
238.2462760582
  0
LINE
  5
223
100
AcDbEntity
  8
0
100
AcDbLine
 62
7
  6
BYLAYER
 10
97.1113193215
 20
19.771485221
 11
97.1113193215
 21
69.771485221
  0
LINE
  5
224
100
AcDbEntity
  8
0
100
AcDbLine
 62
7
  6
BYLAYER
 10
97.4288049928
 20
238.3980961404
 11
97.4288047747
 21
233.9714623549
  0
LINE
  5
225
100
AcDbEntity
  8
0
100
AcDbLine
 62
7
  6
BYLAYER
 10
98.2613193215
 20
19.771485221
 11
98.2613193215
 21
69.771485221
  0
LINE
  5
226
100
AcDbEntity
  8
0
100
AcDbLine
 62
7
  6
BYLAYER
 10
98.7544689939
 20
19.771485221
 11
98.7544689939
 21
69.771485221
  0
LINE
  5
227
100
AcDbEntity
  8
0
100
AcDbLine
 62
7
  6
BYLAYER
 10
98.9516640753
 20
19.771485221
 11
98.9516640753
 21
69.771485221
  0
LINE
  5
228
100
AcDbEntity
  8
0
100
AcDbLine
 62
7
  6
BYLAYER
 10
100.1016640753
 20
19.771485221
 11
100.1016640753
 21
69.771485221
  0
LINE
  5
229
100
AcDbEntity
  8
0
100
AcDbLine
 62
7
  6
BYLAYER
 10
100.6641507969
 20
69.771485221
 11
100.6641507969
 21
219.671485221
  0
LINE
  5
22A
100
AcDbEntity
  8
0
100
AcDbLine
 62
7
  6
BYLAYER
 10
102.4641507969
 20
232.971485221
 11
102.4641507969
 21
238.349005661
  0
LINE
  5
22B
100
AcDbEntity
  8
0
100
AcDbLine
 62
7
  6
BYLAYER
 10
102.8858835739
 20
234.1590724837
 11
102.8858836191
 21
238.0306460377
  0
LINE
  5
22C
100
AcDbEntity
  8
0
100
AcDbLine
 62
7
  6
BYLAYER
 10
102.8858837129
 20
246.0644328842
 11
102.8858837177
 21
246.482738435
  0
LINE
  5
22D
100
AcDbEntity
  8
0
100
AcDbLine
 62
7
  6
BYLAYER
 10
102.1018186931
 20
219.671485221
 11
102.3339710566
 21
232.971485221
  0
LINE
  5
22E
100
AcDbEntity
  8
0
100
AcDbLine
 62
7
  6
BYLAYER
 10
102.1014248421
 20
219.671485221
 11
94.8268767517
 21
219.671485221
  0
LINE
  5
22F
100
AcDbEntity
  8
0
100
AcDbLine
 62
7
  6
BYLAYER
 10
102.4637177162
 20
232.971485221
 11
94.4645838776
 21
232.971485221
  0
LINE
  5
230
100
AcDbEntity
  8
0
100
AcDbLine
 62
7
  6
BYLAYER
 10
94.6004289165
 20
233.971485221
 11
97.4288046949
 21
233.971485221
  0
LINE
  5
231
100
AcDbEntity
  8
0
100
AcDbLine
 62
7
  6
BYLAYER
 10
96.870794257
 20
234.1590496557
 11
94.042417795
 21
234.1590496557
  0
LINE
  5
232
100
AcDbEntity
  8
0
100
AcDbLine
 62
7
  6
BYLAYER
 10
89.026100578
 20
241.4831519052
 11
88.8846817702
 21
241.4831519052
  0
LINE
  5
233
100
AcDbEntity
  8
0
100
AcDbLine
 62
7
  6
BYLAYER
 10
88.2565093036
 20
238.589755832
 11
88.5622554528
 21
238.5705242687
  0
LINE
  5
234
100
AcDbEntity
  8
0
100
AcDbLine
 62
7
  6
BYLAYER
 10
89.4842968745
 20
248.5132396863
 11
89.1785507253
 21
248.5324712496
  0
LINE
  5
235
100
AcDbEntity
  8
0
100
AcDbLine
 62
7
  6
BYLAYER
 10
92.9297135159
 20
238.0301586636
 11
92.6240102631
 21
238.0497367493
  0
LINE
  5
236
100
AcDbEntity
  8
0
100
AcDbLine
 62
7
  6
BYLAYER
 10
89.026100578
 20
241.4831519052
 11
89.0566138366
 21
241.4807493336
  0
LINE
  5
237
100
AcDbEntity
  8
0
100
AcDbLine
 62
7
  6
BYLAYER
 10
88.5599370157
 20
238.5517857025
 11
92.6239153154
 21
238.0489682602
  0
LINE
  5
238
100
AcDbEntity
  8
0
100
AcDbLine
 62
7
  6
BYLAYER
 10
94.853509862
 20
237.8738732194
 11
93.9041659279
 21
237.9913312011
  0
LINE
  5
239
100
AcDbEntity
  8
0
100
AcDbLine
 62
7
  6
BYLAYER
 10
95.6443364059
 20
238.3980200493
 11
96.8707940321
 21
238.2462760582
  0
LINE
  5
23A
100
AcDbEntity
  8
0
100
AcDbLine
 62
7
  6
BYLAYER
 10
102.7054324259
 20
237.7452431687
 11
102.4641507969
 21
237.7750958408
  0
LINE
  5
23B
100
AcDbEntity
  8
0
100
AcDbLine
 62
7
  6
BYLAYER
 10
97.4288049928
 20
238.3980961404
 11
95.6578961213
 21
238.6172025932
  0
LINE
  5
23C
100
AcDbEntity
  8
0
100
AcDbLine
 62
7
  6
BYLAYER
 10
88.4863981079
 20
240.7600179079
 11
89.6769654865
 21
240.612714453
  0
LINE
  5
23D
100
AcDbEntity
  8
0
100
AcDbLine
 62
7
  6
BYLAYER
 10
89.8428974859
 20
240.6971670585
 11
89.3349109547
 21
240.7600179079
  0
LINE
  5
23E
100
AcDbEntity
  8
0
100
AcDbLine
 62
7
  6
BYLAYER
 10
89.3360396533
 20
240.8816547853
 11
88.5003199871
 21
240.9850545562
  0
LINE
  5
23F
100
AcDbEntity
  8
0
100
AcDbLine
 62
7
  6
BYLAYER
 10
89.0564465601
 20
241.4793973357
 11
89.026100578
 21
241.4831519052
  0
LINE
  5
240
100
AcDbEntity
  8
0
100
AcDbLine
 62
7
  6
BYLAYER
 10
90.5219749815
 20
246.2088110995
 11
89.4304529402
 21
246.343860128
  0
LINE
  5
241
100
AcDbEntity
  8
0
100
AcDbLine
 62
7
  6
BYLAYER
 10
96.1821457305
 20
247.0913010411
 11
102.7054324259
 21
246.2842046223
  0
LINE
  5
242
100
AcDbEntity
  8
0
100
AcDbLine
 62
7
  6
BYLAYER
 10
102.8858837177
 20
246.482738435
 11
96.1957054459
 21
247.310483585
  0
LINE
  5
243
100
AcDbEntity
  8
0
100
AcDbLine
 62
7
  6
BYLAYER
 10
95.1074997678
 20
247.7171724331
 11
102.0747917318
 21
246.8551412738
  0
LINE
  5
244
100
AcDbEntity
  8
0
100
AcDbLine
 62
7
  6
BYLAYER
 10
89.4843489257
 20
248.513661653
 11
93.8518069888
 21
247.9732960479
  0
LINE
  5
245
100
AcDbEntity
  8
0
100
AcDbLine
 62
7
  6
BYLAYER
 10
96.1957054459
 20
247.310483585
 11
95.107472685
 21
247.7169539056
  0
ARC
  5
246
100
AcDbEntity
  8
0
100
AcDbCircle
 62
7
  6
BYLAYER
 10
87.4448832216
 20
279.1440747503
 40
47.5612754329
100
AcDbArc
 50
288.4083950113
 51
288.9446675494
  0
ARC
  5
247
100
AcDbEntity
  8
0
100
AcDbCircle
 62
7
  6
BYLAYER
 10
111.3023290144
 20
276.1644580634
 40
44.41535277
100
AcDbArc
 50
251.0391374741
 51
251.7985624149
  0
ARC
  5
248
100
AcDbEntity
  8
0
100
AcDbCircle
 62
7
  6
BYLAYER
 10
108.4738624918
 20
276.1642889033
 40
44.415141517
100
AcDbArc
 50
251.0391671083
 51
251.7985955216
  0
ARC
  5
249
100
AcDbEntity
  8
0
100
AcDbCircle
 62
7
  6
BYLAYER
 10
89.750176462
 20
243.4457387124
 40
7.0365684936
100
AcDbArc
 50
355.5821180227
 51
356.61878386
  0
ARC
  5
24A
100
AcDbEntity
  8
0
100
AcDbCircle
 62
7
  6
BYLAYER
 10
86.9737379699
 20
243.786181694
 40
4.4856419091
100
AcDbArc
 50
353.5774877146
 51
357.0534812253
  0
ARC
  5
24B
100
AcDbEntity
  8
0
100
AcDbCircle
 62
7
  6
BYLAYER
 10
91.4376157851
 20
243.2338667019
 40
4.4852386263
100
AcDbArc
 50
173.577435297
 51
176.3585470055
  0
ARC
  5
24C
100
AcDbEntity
  8
0
100
AcDbCircle
 62
7
  6
BYLAYER
 10
87.7696672689
 20
244.2906337684
 40
3.8802658538
100
AcDbArc
 50
24.9338750886
 51
26.1536831316
  0
ARC
  5
24D
100
AcDbEntity
  8
0
100
AcDbCircle
 62
7
  6
BYLAYER
 10
92.8255846263
 20
244.5381198537
 40
3.7106482741
100
AcDbArc
 50
38.6975377094
 51
41.3638228537
  0
ARC
  5
24E
100
AcDbEntity
  8
0
100
AcDbCircle
 62
7
  6
BYLAYER
 10
87.8515136892
 20
242.9012678452
 40
3.575289034
100
AcDbArc
 50
314.9797546994
 51
318.0366786919
  0
ARC
  5
24F
100
AcDbEntity
  8
0
100
AcDbCircle
 62
7
  6
BYLAYER
 10
87.8872858661
 20
243.392383703
 40
3.4859884401
100
AcDbArc
 50
326.0798615923
 51
329.3371923722
  0
ARC
  5
250
100
AcDbEntity
  8
0
100
AcDbCircle
 62
7
  6
BYLAYER
 10
93.2951841757
 20
245.0213355409
 40
3.0356974959
100
AcDbArc
 50
49.2733928195
 51
55.5014818435
  0
ARC
  5
251
100
AcDbEntity
  8
0
100
AcDbCircle
 62
7
  6
BYLAYER
 10
88.5029391189
 20
242.8882563254
 40
2.6884416145
100
AcDbArc
 50
312.5968281138
 51
314.7205376506
  0
ARC
  5
252
100
AcDbEntity
  8
0
100
AcDbCircle
 62
7
  6
BYLAYER
 10
94.8067914871
 20
245.2675961471
 40
2.4679448406
100
AcDbArc
 50
83.0014270956
 51
96.1479439599
  0
ARC
  5
253
100
AcDbEntity
  8
0
100
AcDbCircle
 62
7
  6
BYLAYER
 10
94.2089367666
 20
240.4377221811
 40
2.4652822314
100
AcDbArc
 50
249.6088601704
 51
262.8986922245
  0
ARC
  5
254
100
AcDbEntity
  8
0
100
AcDbCircle
 62
7
  6
BYLAYER
 10
89.4509612352
 20
242.761303739
 40
2.2777461999
100
AcDbArc
 50
214.6106100673
 51
215.7618663063
  0
ARC
  5
255
100
AcDbEntity
  8
0
100
AcDbCircle
 62
7
  6
BYLAYER
 10
88.9676638434
 20
242.1620588317
 40
1.8197821303
100
AcDbArc
 50
286.1118023416
 51
289.6658534384
  0
ARC
  5
256
100
AcDbEntity
  8
0
100
AcDbCircle
 62
7
  6
BYLAYER
 10
89.4005379642
 20
245.0717319649
 40
1.6011098751
100
AcDbArc
 50
82.9978615099
 51
95.7238153225
  0
ARC
  5
257
100
AcDbEntity
  8
0
100
AcDbCircle
 62
7
  6
BYLAYER
 10
88.9174297903
 20
242.1474556454
 40
1.4528495403
100
AcDbArc
 50
248.1190020246
 51
252.7416835
  0
ARC
  5
258
100
AcDbEntity
  8
0
100
AcDbCircle
 62
7
  6
BYLAYER
 10
102.1704959879
 20
245.8254020394
 40
0.9715301108
100
AcDbArc
 50
42.5784465749
 51
43.4665534767
  0
SPLINE
  5
259
100
AcDbEntity
  8
0
100
AcDbSpline
 62
7
  6
BYLAYER
 70
0
 71
3
 72
9
 73
5
 74
0
 42
0.0000001
 43
0.0000001
 44
0.0000000001
 40
0.0
 40
0.0
 40
0.0
 40
0.0
 40
0.2674282859
 40
1.0
 40
1.0
 40
1.0
 40
1.0
 10
87.0735846342
 20
243.5253510363
 30
0.0
 10
87.0618130687
 20
243.3350725824
 30
0.0
 10
87.0677257595
 20
242.6235409223
 30
0.0
 10
87.27966676
 20
241.8973549411
 30
0.0
 10
87.5763050452
 20
241.4675526345
 30
0.0
  0
SPLINE
  5
25A
100
AcDbEntity
  8
0
100
AcDbSpline
 62
7
  6
BYLAYER
 70
0
 71
3
 72
9
 73
5
 74
0
 42
0.0000001
 43
0.0000001
 44
0.0000000001
 40
0.0
 40
0.0
 40
0.0
 40
0.0
 40
0.5183415456
 40
1.0
 40
1.0
 40
1.0
 40
1.0
 10
87.6026773326
 20
241.4301484639
 30
0.0
 10
87.7044757615
 20
241.2888128415
 30
0.0
 10
87.9334028805
 20
241.0371107453
 30
0.0
 10
88.2257738353
 20
240.8595527251
 30
0.0
 10
88.3759817552
 20
240.7992695263
 30
0.0
  0
SPLINE
  5
25B
100
AcDbEntity
  8
0
100
AcDbSpline
 62
7
  6
BYLAYER
 70
0
 71
3
 72
11
 73
7
 74
0
 42
0.0000001
 43
0.0000001
 44
0.0000000001
 40
0.0
 40
0.0
 40
0.0
 40
0.0
 40
0.2875996537
 40
0.5567480882
 40
0.7923778638
 40
1.0
 40
1.0
 40
1.0
 40
1.0
 10
88.2685735601
 20
243.5253510363
 30
0.0
 10
88.2635104232
 20
243.4435092565
 30
0.0
 10
88.230779849
 20
243.2854761583
 30
0.0
 10
88.1204073247
 20
243.0841770113
 30
0.0
 10
87.9613352413
 20
242.9480191686
 30
0.0
 10
87.8294029936
 20
242.9227424619
 30
0.0
 10
87.7706488229
 20
242.9299586532
 30
0.0
  0
SPLINE
  5
25C
100
AcDbEntity
  8
0
100
AcDbSpline
 62
7
  6
BYLAYER
 70
0
 71
3
 72
11
 73
7
 74
0
 42
0.0000001
 43
0.0000001
 44
0.0000000001
 40
0.0
 40
0.0
 40
0.0
 40
0.0
 40
0.2875996537
 40
0.5567480882
 40
0.7923778638
 40
1.0
 40
1.0
 40
1.0
 40
1.0
 10
90.7434026967
 20
243.5253510363
 30
0.0
 10
90.7383395597
 20
243.4435092565
 30
0.0
 10
90.7056089856
 20
243.2854761583
 30
0.0
 10
90.5952364613
 20
243.0841770113
 30
0.0
 10
90.4361643778
 20
242.9480191686
 30
0.0
 10
90.3042321302
 20
242.9227424619
 30
0.0
 10
90.2454779595
 20
242.9299586532
 30
0.0
  0
SPLINE
  5
25D
100
AcDbEntity
  8
0
100
AcDbSpline
 62
7
  6
BYLAYER
 70
0
 71
3
 72
11
 73
7
 74
0
 42
0.0000001
 43
0.0000001
 44
0.0000000001
 40
0.0
 40
0.0
 40
0.0
 40
0.0
 40
0.2875996537
 40
0.5567480882
 40
0.7923778638
 40
1.0
 40
1.0
 40
1.0
 40
1.0
 10
89.6138398011
 20
245.268691758
 30
0.0
 10
89.6087766641
 20
245.1868499782
 30
0.0
 10
89.57604609
 20
245.0288168799
 30
0.0
 10
89.4656735657
 20
244.8275177329
 30
0.0
 10
89.3066014822
 20
244.6913598903
 30
0.0
 10
89.1746692346
 20
244.6660831836
 30
0.0
 10
89.1159150639
 20
244.6732993748
 30
0.0
  0
SPLINE
  5
25E
100
AcDbEntity
  8
0
100
AcDbSpline
 62
7
  6
BYLAYER
 70
0
 71
3
 72
11
 73
7
 74
0
 42
0.0000001
 43
0.0000001
 44
0.0000000001
 40
0.0
 40
0.0
 40
0.0
 40
0.0
 40
0.2106433385
 40
0.4451133007
 40
0.7114361651
 40
1.0
 40
1.0
 40
1.0
 40
1.0
 10
90.3928145871
 20
244.1207434194
 30
0.0
 10
90.445258869
 20
244.1143022091
 30
0.0
 10
90.5533624662
 20
244.0684003851
 30
0.0
 10
90.6706996497
 20
243.9276137209
 30
0.0
 10
90.7387222883
 20
243.7384227857
 30
0.0
 10
90.747872193
 20
243.5975970644
 30
0.0
 10
90.7434026967
 20
243.5253510363
 30
0.0
  0
SPLINE
  5
25F
100
AcDbEntity
  8
0
100
AcDbSpline
 62
7
  6
BYLAYER
 70
0
 71
3
 72
11
 73
7
 74
0
 42
0.0000001
 43
0.0000001
 44
0.0000000001
 40
0.0
 40
0.0
 40
0.0
 40
0.0
 40
0.2106433385
 40
0.4451133007
 40
0.7114361651
 40
1.0
 40
1.0
 40
1.0
 40
1.0
 10
87.9179854505
 20
244.1207434194
 30
0.0
 10
87.9704297324
 20
244.1143022091
 30
0.0
 10
88.0785333297
 20
244.0684003851
 30
0.0
 10
88.1958705131
 20
243.9276137209
 30
0.0
 10
88.2638931517
 20
243.7384227857
 30
0.0
 10
88.2730430565
 20
243.5975970644
 30
0.0
 10
88.2685735601
 20
243.5253510363
 30
0.0
  0
SPLINE
  5
260
100
AcDbEntity
  8
0
100
AcDbSpline
 62
7
  6
BYLAYER
 70
0
 71
3
 72
9
 73
5
 74
0
 42
0.0000001
 43
0.0000001
 44
0.0000000001
 40
0.0
 40
0.0
 40
0.0
 40
0.0
 40
0.2331015995
 40
1.0
 40
1.0
 40
1.0
 40
1.0
 10
90.9316849975
 20
245.7465648668
 30
0.0
 10
91.0277356919
 20
245.598328344
 30
0.0
 10
91.3763795374
 20
244.9216576126
 30
0.0
 10
91.4833231812
 20
244.1359579316
 30
0.0
 10
91.4534496419
 20
243.5556027022
 30
0.0
  0
SPLINE
  5
261
100
AcDbEntity
  8
0
100
AcDbSpline
 62
7
  6
BYLAYER
 70
0
 71
3
 72
9
 73
5
 74
0
 42
0.0000001
 43
0.0000001
 44
0.0000000001
 40
0.0
 40
0.0
 40
0.0
 40
0.0
 40
0.2566395618
 40
1.0
 40
1.0
 40
1.0
 40
1.0
 10
91.4312281913
 20
243.2844205333
 30
0.0
 10
91.4143480332
 20
243.134484971
 30
0.0
 10
91.3193512718
 20
242.5542298514
 30
0.0
 10
91.1088413461
 20
241.9904623843
 30
0.0
 10
90.8858755993
 20
241.6145830909
 30
0.0
  0
SPLINE
  5
262
100
AcDbEntity
  8
0
100
AcDbSpline
 62
7
  6
BYLAYER
 70
0
 71
3
 72
9
 73
5
 74
0
 42
0.0000001
 43
0.0000001
 44
0.0000000001
 40
0.0
 40
0.0
 40
0.0
 40
0.0
 40
0.2566591745
 40
1.0
 40
1.0
 40
1.0
 40
1.0
 10
90.7800155353
 20
241.4470738394
 30
0.0
 10
90.750996492
 20
241.4039438443
 30
0.0
 10
90.6341062917
 20
241.2385316627
 30
0.0
 10
90.5016478979
 20
241.0839187711
 30
0.0
 10
90.3946595646
 20
240.9779914041
 30
0.0
  0
SPLINE
  5
263
100
AcDbEntity
  8
0
100
AcDbSpline
 62
7
  6
BYLAYER
 70
0
 71
3
 72
9
 73
5
 74
0
 42
0.0000001
 43
0.0000001
 44
0.0000000001
 40
0.0
 40
0.0
 40
0.0
 40
0.0
 40
0.2623042541
 40
1.0
 40
1.0
 40
1.0
 40
1.0
 10
90.3225710863
 20
240.9092015465
 30
0.0
 10
90.2661165294
 20
240.8573060049
 30
0.0
 10
90.0426361166
 20
240.6689244245
 30
0.0
 10
89.7831777763
 20
240.5209601937
 30
0.0
 10
89.5800826038
 20
240.4484222706
 30
0.0
  0
SPLINE
  5
264
100
AcDbEntity
  8
0
100
AcDbSpline
 62
7
  6
BYLAYER
 70
0
 71
3
 72
9
 73
5
 74
0
 42
0.0000001
 43
0.0000001
 44
0.0000000001
 40
0.0
 40
0.0
 40
0.0
 40
0.0
 40
0.2551505597
 40
1.0
 40
1.0
 40
1.0
 40
1.0
 10
89.4726762374
 20
240.4137540861
 30
0.0
 10
89.4186263402
 20
240.3981534852
 30
0.0
 10
89.2040847443
 20
240.3468994137
 30
0.0
 10
88.9790164764
 20
240.3389525528
 30
0.0
 10
88.8160314786
 20
240.3591072368
 30
0.0
  0
SPLINE
  5
265
100
AcDbEntity
  8
0
100
AcDbSpline
 62
7
  6
BYLAYER
 70
0
 71
3
 72
19
 73
15
 74
0
 42
0.0000001
 43
0.0000001
 44
0.0000000001
 40
0.0
 40
0.0
 40
0.0
 40
0.0
 40
0.051917588
 40
0.1063722439
 40
0.1643957338
 40
0.2264841463
 40
0.3612797148
 40
0.5048817823
 40
0.6472959188
 40
0.7789835506
 40
0.8392159253
 40
0.8955137143
 40
0.9486386259
 40
1.0
 40
1.0
 40
1.0
 40
1.0
 10
89.1785507253
 20
248.5324712496
 30
0.0
 10
88.9511324601
 20
248.5324712496
 30
0.0
 10
88.4832426788
 20
248.4676811186
 30
0.0
 10
87.8115617404
 20
248.1904899614
 30
0.0
 10
87.1828148528
 20
247.7452443803
 30
0.0
 10
86.4100879414
 20
246.9313079615
 30
0.0
 10
85.6829938428
 20
245.5988921864
 30
0.0
 10
85.2704222724
 20
243.781257737
 30
0.0
 10
85.3387093328
 20
241.9319721088
 30
0.0
 10
85.8117828556
 20
240.5157280888
 30
0.0
 10
86.428097287
 20
239.6122250284
 30
0.0
 10
86.9692040898
 20
239.0936847389
 30
0.0
 10
87.5845169335
 20
238.7365024818
 30
0.0
 10
88.0332010021
 20
238.6171475679
 30
0.0
 10
88.2564698956
 20
238.5894378099
 30
0.0
  0
SPLINE
  5
266
100
AcDbEntity
  8
0
100
AcDbSpline
 62
7
  6
BYLAYER
 70
0
 71
3
 72
13
 73
9
 74
0
 42
0.0000001
 43
0.0000001
 44
0.0000000001
 40
0.0
 40
0.0
 40
0.0
 40
0.0
 40
0.1023914949
 40
0.2089548723
 40
0.3227680209
 40
0.4452645012
 40
0.7133646483
 40
1.0
 40
1.0
 40
1.0
 40
1.0
 10
89.4304423944
 20
246.343782408
 30
0.0
 10
89.2928284027
 20
246.3608578497
 30
0.0
 10
89.0051332861
 20
246.3531281184
 30
0.0
 10
88.5843596961
 20
246.217168798
 30
0.0
 10
88.1886853207
 20
245.9658244754
 30
0.0
 10
87.70187226
 20
245.4803574827
 30
0.0
 10
87.2517043575
 20
244.6598671217
 30
0.0
 10
87.0975542671
 20
243.9128020239
 30
0.0
 10
87.0735846342
 20
243.5253510363
 30
0.0
  0
SPLINE
  5
267
100
AcDbEntity
  8
0
100
AcDbSpline
 62
7
  6
BYLAYER
 70
0
 71
3
 72
9
 73
5
 74
0
 42
0.0000001
 43
0.0000001
 44
0.0000000001
 40
0.0
 40
0.0
 40
0.0
 40
0.0
 40
0.4758506039
 40
1.0
 40
1.0
 40
1.0
 40
1.0
 10
89.0566748898
 20
241.4812397464
 30
0.0
 10
89.0977960282
 20
241.4760883573
 30
0.0
 10
89.1823038649
 20
241.4422799148
 30
0.0
 10
89.2422423613
 20
241.3755652054
 30
0.0
 10
89.2670647419
 20
241.3372549289
 30
0.0
  0
SPLINE
  5
268
100
AcDbEntity
  8
0
100
AcDbSpline
 62
7
  6
BYLAYER
 70
0
 71
3
 72
9
 73
5
 74
0
 42
0.0000001
 43
0.0000001
 44
0.0000000001
 40
0.0
 40
0.0
 40
0.0
 40
0.0
 40
0.2329530027
 40
1.0
 40
1.0
 40
1.0
 40
1.0
 10
89.2670647419
 20
241.3372549289
 30
0.0
 10
89.2824787798
 20
241.3134652664
 30
0.0
 10
89.3382782824
 20
241.2046853248
 30
0.0
 10
89.3545961534
 20
241.0782142561
 30
0.0
 10
89.3488328339
 20
240.9850545561
 30
0.0
  0
SPLINE
  5
269
100
AcDbEntity
  8
0
100
AcDbSpline
 62
7
  6
BYLAYER
 70
0
 71
3
 72
9
 73
5
 74
0
 42
0.0000001
 43
0.0000001
 44
0.0000000001
 40
0.0
 40
0.0
 40
0.0
 40
0.0
 40
0.2606892776
 40
1.0
 40
1.0
 40
1.0
 40
1.0
 10
102.0747890402
 20
246.8551378262
 30
0.0
 10
102.100373713
 20
246.8519691805
 30
0.0
 10
102.1982658889
 20
246.8379513239
 30
0.0
 10
102.2951395437
 20
246.8162576221
 30
0.0
 10
102.3651398869
 20
246.7951548061
 30
0.0
  0
SPLINE
  5
26A
100
AcDbEntity
  8
0
100
AcDbSpline
 62
7
  6
BYLAYER
 70
0
 71
3
 72
9
 73
5
 74
0
 42
0.0000001
 43
0.0000001
 44
0.0000000001
 40
0.0
 40
0.0
 40
0.0
 40
0.0
 40
0.5255477098
 40
1.0
 40
1.0
 40
1.0
 40
1.0
 10
102.3651398869
 20
246.7951548061
 30
0.0
 10
102.4654291418
 20
246.7649208731
 30
0.0
 10
102.6513450033
 20
246.6871515448
 30
0.0
 10
102.8105564281
 20
246.5623800224
 30
0.0
 10
102.8756092992
 20
246.4937477392
 30
0.0
  0
SPLINE
  5
26B
100
AcDbEntity
  8
0
100
AcDbSpline
 62
7
  6
BYLAYER
 70
0
 71
3
 72
9
 73
5
 74
0
 42
0.0000001
 43
0.0000001
 44
0.0000000001
 40
0.0
 40
0.0
 40
0.0
 40
0.0
 40
0.4928226189
 40
1.0
 40
1.0
 40
1.0
 40
1.0
 10
93.8517944489
 20
247.9731925963
 30
0.0
 10
94.0565377609
 20
247.9477826838
 30
0.0
 10
94.467101582
 20
247.843745023
 30
0.0
 10
94.8395316715
 20
247.6433744762
 30
0.0
 10
95.0145574661
 20
247.5231778171
 30
0.0
  0
SPLINE
  5
26C
100
AcDbEntity
  8
0
100
AcDbSpline
 62
7
  6
BYLAYER
 70
0
 71
3
 72
9
 73
5
 74
0
 42
0.0000001
 43
0.0000001
 44
0.0000000001
 40
0.0
 40
0.0
 40
0.0
 40
0.0
 40
0.2461832921
 40
1.0
 40
1.0
 40
1.0
 40
1.0
 10
95.2758262155
 20
247.3218825186
 30
0.0
 10
95.3051671297
 20
247.2966743527
 30
0.0
 10
95.4224739371
 20
247.1921071767
 30
0.0
 10
95.5322420334
 20
247.0791412339
 30
0.0
 10
95.6105318324
 20
246.9902576299
 30
0.0
  0
SPLINE
  5
26D
100
AcDbEntity
  8
0
100
AcDbSpline
 62
7
  6
BYLAYER
 70
0
 71
3
 72
9
 73
5
 74
0
 42
0.0000001
 43
0.0000001
 44
0.0000000001
 40
0.0
 40
0.0
 40
0.0
 40
0.0
 40
0.4727260846
 40
1.0
 40
1.0
 40
1.0
 40
1.0
 10
95.7215870723
 20
246.8580509835
 30
0.0
 10
96.1190777819
 20
246.3620320626
 30
0.0
 10
96.6986534681
 20
245.1012184512
 30
0.0
 10
96.8163044433
 20
243.738476828
 30
0.0
 10
96.7744958188
 20
243.0307281846
 30
0.0
  0
SPLINE
  5
26E
100
AcDbEntity
  8
0
100
AcDbSpline
 62
7
  6
BYLAYER
 70
0
 71
3
 72
9
 73
5
 74
0
 42
0.0000001
 43
0.0000001
 44
0.0000000001
 40
0.0
 40
0.0
 40
0.0
 40
0.0
 40
0.5216848914
 40
1.0
 40
1.0
 40
1.0
 40
1.0
 10
96.7658376198
 20
242.9037104064
 30
0.0
 10
96.707990731
 20
242.1548916679
 30
0.0
 10
96.3729218157
 20
240.7283062462
 30
0.0
 10
95.5769927937
 20
239.4782555365
 30
0.0
 10
95.0835677462
 20
238.9979242419
 30
0.0
  0
SPLINE
  5
26F
100
AcDbEntity
  8
0
100
AcDbSpline
 62
7
  6
BYLAYER
 70
0
 71
3
 72
9
 73
5
 74
0
 42
0.0000001
 43
0.0000001
 44
0.0000000001
 40
0.0
 40
0.0
 40
0.0
 40
0.0
 40
0.51688693
 40
1.0
 40
1.0
 40
1.0
 40
1.0
 10
95.0835677462
 20
238.9979242419
 30
0.0
 10
94.8935073812
 20
238.8129074056
 30
0.0
 10
94.4915474774
 20
238.4877100662
 30
0.0
 10
94.0265891703
 20
238.2577461881
 30
0.0
 10
93.7920527488
 20
238.1774143702
 30
0.0
  0
SPLINE
  5
270
100
AcDbEntity
  8
0
100
AcDbSpline
 62
7
  6
BYLAYER
 70
0
 71
3
 72
9
 73
5
 74
0
 42
0.0000001
 43
0.0000001
 44
0.0000000001
 40
0.0
 40
0.0
 40
0.0
 40
0.0
 40
0.2555459088
 40
1.0
 40
1.0
 40
1.0
 40
1.0
 10
93.7920527488
 20
238.1774143702
 30
0.0
 10
93.7213759129
 20
238.1532066217
 30
0.0
 10
93.4412922155
 20
238.0692098337
 30
0.0
 10
93.1473511306
 20
238.0301586636
 30
0.0
 10
92.9297135159
 20
238.0301586636
 30
0.0
  0
SPLINE
  5
271
100
AcDbEntity
  8
0
100
AcDbSpline
 62
7
  6
BYLAYER
 70
0
 71
3
 72
9
 73
5
 74
0
 42
0.0000001
 43
0.0000001
 44
0.0000000001
 40
0.0
 40
0.0
 40
0.0
 40
0.0
 40
0.4835947728
 40
1.0
 40
1.0
 40
1.0
 40
1.0
 10
89.5957234871
 20
246.6609001258
 30
0.0
 10
89.7979046772
 20
246.6358984505
 30
0.0
 10
90.2089010675
 20
246.4993692091
 30
0.0
 10
90.5407004049
 20
246.2257775097
 30
0.0
 10
90.6871903977
 20
246.0649494682
 30
0.0
  0
SPLINE
  5
272
100
AcDbEntity
  8
0
100
AcDbSpline
 62
7
  6
BYLAYER
 70
0
 71
3
 72
9
 73
5
 74
0
 42
0.0000001
 43
0.0000001
 44
0.0000000001
 40
0.0
 40
0.0
 40
0.0
 40
0.0
 40
0.2453064921
 40
1.0
 40
1.0
 40
1.0
 40
1.0
 10
90.6871903977
 20
246.0649494682
 30
0.0
 10
90.7093079319
 20
246.040667129
 30
0.0
 10
90.7973211635
 20
245.9397345721
 30
0.0
 10
90.8767359571
 20
245.8313685711
 30
0.0
 10
90.9316849975
 20
245.7465648668
 30
0.0
  0
SPLINE
  5
273
100
AcDbEntity
  8
0
100
AcDbSpline
 62
7
  6
BYLAYER
 70
0
 71
3
 72
11
 73
7
 74
0
 42
0.0000001
 43
0.0000001
 44
0.0000000001
 40
0.0
 40
0.0
 40
0.0
 40
0.0
 40
0.2106433385
 40
0.4451133007
 40
0.7114361651
 40
1.0
 40
1.0
 40
1.0
 40
1.0
 10
89.2632516915
 20
245.8640841411
 30
0.0
 10
89.3156959734
 20
245.8576429308
 30
0.0
 10
89.4237995707
 20
245.8117411067
 30
0.0
 10
89.5411367541
 20
245.6709544426
 30
0.0
 10
89.6091593927
 20
245.4817635074
 30
0.0
 10
89.6183092974
 20
245.3409377861
 30
0.0
 10
89.6138398011
 20
245.268691758
 30
0.0
  0
SPLINE
  5
274
100
AcDbEntity
  8
0
100
AcDbSpline
 62
7
  6
BYLAYER
 70
0
 71
3
 72
9
 73
5
 74
0
 42
0.0000001
 43
0.0000001
 44
0.0000000001
 40
0.0
 40
0.0
 40
0.0
 40
0.0
 40
0.2608155866
 40
1.0
 40
1.0
 40
1.0
 40
1.0
 10
91.0898787758
 20
243.5253510363
 30
0.0
 10
91.0990230226
 20
243.6731608707
 30
0.0
 10
91.1025729578
 20
244.2407455169
 30
0.0
 10
90.9804674034
 20
244.8140755683
 30
0.0
 10
90.805838646
 20
245.195734482
 30
0.0
  0
SPLINE
  5
275
100
AcDbEntity
  8
0
100
AcDbSpline
 62
7
  6
BYLAYER
 70
0
 71
3
 72
9
 73
5
 74
0
 42
0.0000001
 43
0.0000001
 44
0.0000000001
 40
0.0
 40
0.0
 40
0.0
 40
0.0
 40
0.2544796949
 40
1.0
 40
1.0
 40
1.0
 40
1.0
 10
90.805838646
 20
245.195734482
 30
0.0
 10
90.7936347995
 20
245.2224065312
 30
0.0
 10
90.7440174689
 20
245.326445083
 30
0.0
 10
90.687693072
 20
245.427312328
 30
0.0
 10
90.6418874545
 20
245.5000146408
 30
0.0
  0
SPLINE
  5
276
100
AcDbEntity
  8
0
100
AcDbSpline
 62
7
  6
BYLAYER
 70
0
 71
3
 72
10
 73
6
 74
0
 42
0.0000001
 43
0.0000001
 44
0.0000000001
 40
0.0
 40
0.0
 40
0.0
 40
0.0
 40
0.5233420613
 40
0.7652477275
 40
1.0
 40
1.0
 40
1.0
 40
1.0
 10
90.6418874545
 20
245.5000146408
 30
0.0
 10
90.5005921629
 20
245.7242774073
 30
0.0
 10
90.2337114363
 20
246.0246100152
 30
0.0
 10
89.7853069842
 20
246.268474352
 30
0.0
 10
89.548434977
 20
246.3291416331
 30
0.0
 10
89.4304423944
 20
246.343782408
 30
0.0
  0
SPLINE
  5
277
100
AcDbEntity
  8
0
100
AcDbSpline
 62
7
  6
BYLAYER
 70
0
 71
3
 72
11
 73
7
 74
0
 42
0.0000001
 43
0.0000001
 44
0.0000000001
 40
0.0
 40
0.0
 40
0.0
 40
0.0
 40
0.2150119883
 40
0.4570896206
 40
0.7227472658
 40
1.0
 40
1.0
 40
1.0
 40
1.0
 10
89.3349109547
 20
240.7600179079
 30
0.0
 10
89.5721708296
 20
240.8309322001
 30
0.0
 10
90.0427513969
 20
241.102266988
 30
0.0
 10
90.5836330183
 20
241.7508741812
 30
0.0
 10
90.9573588528
 20
242.584570455
 30
0.0
 10
91.0701621228
 20
243.2066462521
 30
0.0
 10
91.0898787758
 20
243.5253510363
 30
0.0
  0
SPLINE
  5
278
100
AcDbEntity
  8
0
100
AcDbSpline
 62
7
  6
BYLAYER
 70
0
 71
3
 72
11
 73
7
 74
0
 42
0.0000001
 43
0.0000001
 44
0.0000000001
 40
0.0
 40
0.0
 40
0.0
 40
0.0
 40
0.2249026492
 40
0.4636351294
 40
0.7216153368
 40
1.0
 40
1.0
 40
1.0
 40
1.0
 10
88.5622554528
 20
238.5705242687
 30
0.0
 10
88.8292088049
 20
238.5705242687
 30
0.0
 10
89.3824778987
 20
238.6608001568
 30
0.0
 10
90.1608879832
 20
239.0416931425
 30
0.0
 10
90.867471635
 20
239.6433399432
 30
0.0
 10
91.2571781659
 20
240.1528404879
 30
0.0
 10
91.4337039751
 20
240.4321717671
 30
0.0
  0
SPLINE
  5
279
100
AcDbEntity
  8
0
100
AcDbSpline
 62
7
  6
BYLAYER
 70
0
 71
3
 72
14
 73
10
 74
0
 42
0.0000001
 43
0.0000001
 44
0.0000000001
 40
0.0
 40
0.0
 40
0.0
 40
0.0
 40
0.2716899711
 40
0.4120698022
 40
0.5483519917
 40
0.6762741407
 40
0.7933661422
 40
0.8999607201
 40
1.0
 40
1.0
 40
1.0
 40
1.0
 10
91.4337039751
 20
240.4321717671
 30
0.0
 10
91.896789749
 20
241.1649504023
 30
0.0
 10
92.3466750925
 20
242.450069836
 30
0.0
 10
92.4581686494
 20
244.201361577
 30
0.0
 10
92.2926736395
 20
245.4911563121
 30
0.0
 10
91.8853661902
 20
246.6482556189
 30
0.0
 10
91.258142233
 20
247.5950753425
 30
0.0
 10
90.4447690726
 20
248.2610257741
 30
0.0
 10
89.8010865873
 20
248.4742460328
 30
0.0
 10
89.4843362825
 20
248.5135577083
 30
0.0
  0
SPLINE
  5
27A
100
AcDbEntity
  8
0
100
AcDbSpline
 62
7
  6
BYLAYER
 70
0
 71
3
 72
18
 73
14
 74
0
 42
0.0000001
 43
0.0000001
 44
0.0000000001
 40
0.0
 40
0.0
 40
0.0
 40
0.0
 40
0.130132869
 40
0.2724498274
 40
0.4172290668
 40
0.5537141891
 40
0.6165817248
 40
0.6752485791
 40
0.7301391974
 40
0.7824113163
 40
0.8338104417
 40
0.8862932553
 40
1.0
 40
1.0
 40
1.0
 40
1.0
 10
86.6961025535
 20
240.7338022999
 30
0.0
 10
86.4426027773
 20
241.1250324268
 30
0.0
 10
86.0797264829
 20
242.0559760667
 30
0.0
 10
85.9734501408
 20
243.5646351476
 30
0.0
 10
86.2734679353
 20
245.0702900417
 30
0.0
 10
86.8507739532
 20
246.1848846359
 30
0.0
 10
87.477933867
 20
246.8705318685
 30
0.0
 10
87.9919990004
 20
247.2464792075
 30
0.0
 10
88.5441484652
 20
247.4812996558
 30
0.0
 10
89.1134280203
 20
247.562583463
 30
0.0
 10
89.6749753782
 20
247.4837394661
 30
0.0
 10
90.3950400166
 20
247.1638848881
 30
0.0
 10
90.8230923627
 20
246.7110788532
 30
0.0
 10
91.044593929
 20
246.3692320587
 30
0.0
  0
SPLINE
  5
27B
100
AcDbEntity
  8
0
100
AcDbSpline
 62
7
  6
BYLAYER
 70
0
 71
3
 72
9
 73
5
 74
0
 42
0.0000001
 43
0.0000001
 44
0.0000000001
 40
0.0
 40
0.0
 40
0.0
 40
0.0
 40
0.2457119783
 40
1.0
 40
1.0
 40
1.0
 40
1.0
 10
91.044593929
 20
246.3692320587
 30
0.0
 10
91.06343812
 20
246.3401495272
 30
0.0
 10
91.1382698591
 20
246.2205901847
 30
0.0
 10
91.2057573945
 20
246.0964659806
 30
0.0
 10
91.2526520325
 20
246.0009788307
 30
0.0
  0
SPLINE
  5
27C
100
AcDbEntity
  8
0
100
AcDbSpline
 62
7
  6
BYLAYER
 70
0
 71
3
 72
9
 73
5
 74
0
 42
0.0000001
 43
0.0000001
 44
0.0000000001
 40
0.0
 40
0.0
 40
0.0
 40
0.0
 40
0.2460743258
 40
1.0
 40
1.0
 40
1.0
 40
1.0
 10
91.2882726566
 20
245.9264452555
 30
0.0
 10
91.305688832
 20
245.8889873854
 30
0.0
 10
91.374059239
 20
245.7356553609
 30
0.0
 10
91.4329050052
 20
245.5781026304
 30
0.0
 10
91.472026664
 20
245.4577384819
 30
0.0
  0
SPLINE
  5
27D
100
AcDbEntity
  8
0
100
AcDbSpline
 62
7
  6
BYLAYER
 70
0
 71
3
 72
11
 73
7
 74
0
 42
0.0000001
 43
0.0000001
 44
0.0000000001
 40
0.0
 40
0.0
 40
0.0
 40
0.0
 40
0.2456029925
 40
0.501825224
 40
0.7570752928
 40
1.0
 40
1.0
 40
1.0
 40
1.0
 10
91.472026664
 20
245.4577384819
 30
0.0
 10
91.5916549333
 20
245.0896826483
 30
0.0
 10
91.7382093505
 20
244.3037573893
 30
0.0
 10
91.6960301007
 20
243.1029899743
 30
0.0
 10
91.4049826484
 20
241.9415522822
 30
0.0
 10
91.0465150462
 20
241.2330140087
 30
0.0
 10
90.829686703
 20
240.9175576668
 30
0.0
  0
SPLINE
  5
27E
100
AcDbEntity
  8
0
100
AcDbSpline
 62
7
  6
BYLAYER
 70
0
 71
3
 72
9
 73
5
 74
0
 42
0.0000001
 43
0.0000001
 44
0.0000000001
 40
0.0
 40
0.0
 40
0.0
 40
0.0
 40
0.2543466304
 40
1.0
 40
1.0
 40
1.0
 40
1.0
 10
90.829686703
 20
240.9175576668
 30
0.0
 10
90.8048252897
 20
240.8813876238
 30
0.0
 10
90.7048817654
 20
240.7407089151
 30
0.0
 10
90.5960650825
 20
240.6062861177
 30
0.0
 10
90.5100021767
 20
240.5106339044
 30
0.0
  0
SPLINE
  5
27F
100
AcDbEntity
  8
0
100
AcDbSpline
 62
7
  6
BYLAYER
 70
0
 71
3
 72
9
 73
5
 74
0
 42
0.0000001
 43
0.0000001
 44
0.0000000001
 40
0.0
 40
0.0
 40
0.0
 40
0.0
 40
0.5198057159
 40
1.0
 40
1.0
 40
1.0
 40
1.0
 10
90.3787313512
 20
240.3722635815
 30
0.0
 10
90.20109427
 20
240.194853974
 30
0.0
 10
89.8209681533
 20
239.8885742842
 30
0.0
 10
89.3711353765
 20
239.6924645843
 30
0.0
 10
89.1466048459
 20
239.6343699985
 30
0.0
  0
SPLINE
  5
280
100
AcDbEntity
  8
0
100
AcDbSpline
 62
7
  6
BYLAYER
 70
0
 71
3
 72
11
 73
7
 74
0
 42
0.0000001
 43
0.0000001
 44
0.0000000001
 40
0.0
 40
0.0
 40
0.0
 40
0.0
 40
0.2401971059
 40
0.4787035681
 40
0.7289910259
 40
1.0
 40
1.0
 40
1.0
 40
1.0
 10
89.1466048459
 20
239.6343699985
 30
0.0
 10
88.9242235529
 20
239.5768315022
 30
0.0
 10
88.4581168839
 20
239.5326149134
 30
0.0
 10
87.7707403324
 20
239.7139275423
 30
0.0
 10
87.1585004419
 20
240.126611676
 30
0.0
 10
86.837034623
 20
240.5162996564
 30
0.0
 10
86.6961025535
 20
240.7338022999
 30
0.0
  0
SPLINE
  5
281
100
AcDbEntity
  8
0
100
AcDbSpline
 62
7
  6
BYLAYER
 70
0
 71
3
 72
9
 73
5
 74
0
 42
0.0000001
 43
0.0000001
 44
0.0000000001
 40
0.0
 40
0.0
 40
0.0
 40
0.0
 40
0.5487432752
 40
1.0
 40
1.0
 40
1.0
 40
1.0
 10
96.870794257
 20
238.2462761248
 30
0.0
 10
96.5190277354
 20
238.108334448
 30
0.0
 10
95.8609711073
 20
237.8988872485
 30
0.0
 10
95.1619416296
 20
237.8356521915
 30
0.0
 10
94.8535877927
 20
237.8739257772
 30
0.0
  0
SPLINE
  5
282
100
AcDbEntity
  8
0
100
AcDbSpline
 62
7
  6
BYLAYER
 70
0
 71
3
 72
9
 73
5
 74
0
 42
0.0000001
 43
0.0000001
 44
0.0000000001
 40
0.0
 40
0.0
 40
0.0
 40
0.0
 40
0.2648175936
 40
1.0
 40
1.0
 40
1.0
 40
1.0
 10
102.1617086663
 20
239.3124200728
 30
0.0
 10
102.2116451578
 20
239.237733308
 30
0.0
 10
102.3780429266
 20
238.9418340408
 30
0.0
 10
102.4644357029
 20
238.5984326638
 30
0.0
 10
102.4642654961
 20
238.349011988
 30
0.0
  0
SPLINE
  5
283
100
AcDbEntity
  8
0
100
AcDbSpline
 62
7
  6
BYLAYER
 70
0
 71
3
 72
10
 73
6
 74
0
 42
0.0000001
 43
0.0000001
 44
0.0000000001
 40
0.0
 40
0.0
 40
0.0
 40
0.0
 40
0.2682723123
 40
0.5207339619
 40
1.0
 40
1.0
 40
1.0
 40
1.0
 10
101.292526953
 20
239.8872881442
 30
0.0
 10
101.3876732549
 20
239.8755161275
 30
0.0
 10
101.5706451986
 20
239.8293148145
 30
0.0
 10
101.8854974165
 20
239.6539943053
 30
0.0
 10
102.0665112067
 20
239.4548007261
 30
0.0
 10
102.1617086663
 20
239.3124200728
 30
0.0
  0
SPLINE
  5
284
100
AcDbEntity
  8
0
100
AcDbSpline
 62
7
  6
BYLAYER
 70
0
 71
3
 72
11
 73
7
 74
0
 42
0.0000001
 43
0.0000001
 44
0.0000000001
 40
0.0
 40
0.0
 40
0.0
 40
0.0
 40
0.2875996537
 40
0.5567480882
 40
0.7923778638
 40
1.0
 40
1.0
 40
1.0
 40
1.0
 10
87.4200607133
 20
243.5253510363
 30
0.0
 10
87.4251238503
 20
243.6071928161
 30
0.0
 10
87.4578544244
 20
243.7652259143
 30
0.0
 10
87.5682269487
 20
243.9665250613
 30
0.0
 10
87.7272990322
 20
244.102682904
 30
0.0
 10
87.8592312798
 20
244.1279596107
 30
0.0
 10
87.9179854505
 20
244.1207434194
 30
0.0
  0
SPLINE
  5
285
100
AcDbEntity
  8
0
100
AcDbSpline
 62
7
  6
BYLAYER
 70
0
 71
3
 72
9
 73
5
 74
0
 42
0.0000001
 43
0.0000001
 44
0.0000000001
 40
0.0
 40
0.0
 40
0.0
 40
0.0
 40
0.4855860981
 40
1.0
 40
1.0
 40
1.0
 40
1.0
 10
93.9041684037
 20
237.9913508426
 30
0.0
 10
94.1953660838
 20
237.9553228697
 30
0.0
 10
94.8132674854
 20
237.9931211458
 30
0.0
 10
95.3785344789
 20
238.2368705056
 30
0.0
 10
95.6443364059
 20
238.3980200493
 30
0.0
  0
SPLINE
  5
286
100
AcDbEntity
  8
0
100
AcDbSpline
 62
7
  6
BYLAYER
 70
0
 71
3
 72
11
 73
7
 74
0
 42
0.0000001
 43
0.0000001
 44
0.0000000001
 40
0.0
 40
0.0
 40
0.0
 40
0.0
 40
0.2766552608
 40
0.5394712294
 40
0.7811772288
 40
1.0
 40
1.0
 40
1.0
 40
1.0
 10
97.8291748313
 20
242.8542518171
 30
0.0
 10
97.8560896131
 20
243.2893089103
 30
0.0
 10
97.825572319
 20
244.1455587538
 30
0.0
 10
97.5236188529
 20
245.3490559906
 30
0.0
 10
96.9867959602
 20
246.3682369083
 30
0.0
 10
96.4658128656
 20
246.8953438186
 30
0.0
 10
96.1821457305
 20
247.0913010411
 30
0.0
  0
SPLINE
  5
287
100
AcDbEntity
  8
0
100
AcDbSpline
 62
7
  6
BYLAYER
 70
0
 71
3
 72
9
 73
5
 74
0
 42
0.0000001
 43
0.0000001
 44
0.0000000001
 40
0.0
 40
0.0
 40
0.0
 40
0.0
 40
0.2391125273
 40
1.0
 40
1.0
 40
1.0
 40
1.0
 10
96.6429509597
 20
244.7860898321
 30
0.0
 10
96.7036971658
 20
244.6417182019
 30
0.0
 10
96.9170216778
 20
244.0210842202
 30
0.0
 10
96.9760831945
 20
243.3517211588
 30
0.0
 10
96.9453072825
 20
242.8542518171
 30
0.0
  0
SPLINE
  5
288
100
AcDbEntity
  8
0
100
AcDbSpline
 62
7
  6
BYLAYER
 70
0
 71
3
 72
10
 73
6
 74
0
 42
0.0000001
 43
0.0000001
 44
0.0000000001
 40
0.0
 40
0.0
 40
0.0
 40
0.0
 40
0.2438942303
 40
0.4957253944
 40
1.0
 40
1.0
 40
1.0
 40
1.0
 10
99.9898175891
 20
239.5811382194
 30
0.0
 10
99.7800418621
 20
239.488336441
 30
0.0
 10
99.3604634243
 20
239.284547725
 30
0.0
 10
98.5198035566
 20
238.8635151401
 30
0.0
 10
97.8724572533
 20
238.5657620195
 30
0.0
 10
97.4288046949
 20
238.3980960117
 30
0.0
  0
SPLINE
  5
289
100
AcDbEntity
  8
0
100
AcDbSpline
 62
7
  6
BYLAYER
 70
0
 71
3
 72
9
 73
5
 74
0
 42
0.0000001
 43
0.0000001
 44
0.0000000001
 40
0.0
 40
0.0
 40
0.0
 40
0.0
 40
0.4637638401
 40
1.0
 40
1.0
 40
1.0
 40
1.0
 10
101.292526953
 20
239.8872881442
 30
0.0
 10
101.0854851515
 20
239.912904479
 30
0.0
 10
100.6270717766
 20
239.8478698302
 30
0.0
 10
100.2104168795
 20
239.6787281873
 30
0.0
 10
99.9898175891
 20
239.5811382194
 30
0.0
  0
SPLINE
  5
28A
100
AcDbEntity
  8
0
100
AcDbSpline
 62
7
  6
BYLAYER
 70
0
 71
3
 72
10
 73
6
 74
0
 42
0.0000001
 43
0.0000001
 44
0.0000000001
 40
0.0
 40
0.0
 40
0.0
 40
0.0
 40
0.4668759976
 40
0.7297351531
 40
1.0
 40
1.0
 40
1.0
 40
1.0
 10
95.6578961213
 20
238.6172025932
 30
0.0
 10
96.3010319981
 20
239.0264973005
 30
0.0
 10
97.086954349
 20
240.0164036526
 30
0.0
 10
97.6605028997
 20
241.5463127045
 30
0.0
 10
97.8019261353
 20
242.4137972546
 30
0.0
 10
97.8291748313
 20
242.8542518171
 30
0.0
  0
SPLINE
  5
28B
100
AcDbEntity
  8
0
100
AcDbSpline
 62
7
  6
BYLAYER
 70
0
 71
3
 72
11
 73
7
 74
0
 42
0.0000001
 43
0.0000001
 44
0.0000000001
 40
0.0
 40
0.0
 40
0.0
 40
0.0
 40
0.2106433385
 40
0.4451133007
 40
0.7114361651
 40
1.0
 40
1.0
 40
1.0
 40
1.0
 10
90.2454779595
 20
242.9299586532
 30
0.0
 10
90.1930336776
 20
242.9363998635
 30
0.0
 10
90.0849300803
 20
242.9823016875
 30
0.0
 10
89.9675928969
 20
243.1230883516
 30
0.0
 10
89.8995702583
 20
243.3122792869
 30
0.0
 10
89.8904203535
 20
243.4531050082
 30
0.0
 10
89.8948898499
 20
243.5253510363
 30
0.0
  0
SPLINE
  5
28C
100
AcDbEntity
  8
0
100
AcDbSpline
 62
7
  6
BYLAYER
 70
0
 71
3
 72
11
 73
7
 74
0
 42
0.0000001
 43
0.0000001
 44
0.0000000001
 40
0.0
 40
0.0
 40
0.0
 40
0.0
 40
0.2875996537
 40
0.5567480882
 40
0.7923778638
 40
1.0
 40
1.0
 40
1.0
 40
1.0
 10
89.8948898499
 20
243.5253510363
 30
0.0
 10
89.8999529868
 20
243.6071928161
 30
0.0
 10
89.932683561
 20
243.7652259143
 30
0.0
 10
90.0430560853
 20
243.9665250613
 30
0.0
 10
90.2021281687
 20
244.102682904
 30
0.0
 10
90.3340604164
 20
244.1279596107
 30
0.0
 10
90.3928145871
 20
244.1207434194
 30
0.0
  0
SPLINE
  5
28D
100
AcDbEntity
  8
0
100
AcDbSpline
 62
7
  6
BYLAYER
 70
0
 71
3
 72
11
 73
7
 74
0
 42
0.0000001
 43
0.0000001
 44
0.0000000001
 40
0.0
 40
0.0
 40
0.0
 40
0.0
 40
0.2875996537
 40
0.5567480882
 40
0.7923778638
 40
1.0
 40
1.0
 40
1.0
 40
1.0
 10
88.7653269543
 20
245.268691758
 30
0.0
 10
88.7703900912
 20
245.3505335377
 30
0.0
 10
88.8031206654
 20
245.508566636
 30
0.0
 10
88.9134931897
 20
245.709865783
 30
0.0
 10
89.0725652731
 20
245.8460236256
 30
0.0
 10
89.2044975208
 20
245.8713003323
 30
0.0
 10
89.2632516915
 20
245.8640841411
 30
0.0
  0
SPLINE
  5
28E
100
AcDbEntity
  8
0
100
AcDbSpline
 62
7
  6
BYLAYER
 70
0
 71
3
 72
11
 73
7
 74
0
 42
0.0000001
 43
0.0000001
 44
0.0000000001
 40
0.0
 40
0.0
 40
0.0
 40
0.0
 40
0.2847697101
 40
0.5531647196
 40
0.7909705075
 40
1.0
 40
1.0
 40
1.0
 40
1.0
 10
88.5003199871
 20
240.9850545562
 30
0.0
 10
88.5043236182
 20
241.0497702244
 30
0.0
 10
88.5293292014
 20
241.175135516
 30
0.0
 10
88.6134573634
 20
241.3373163275
 30
0.0
 10
88.7345369827
 20
241.4521357628
 30
0.0
 10
88.8370877153
 20
241.4831519052
 30
0.0
 10
88.8846817703
 20
241.4831519052
 30
0.0
  0
SPLINE
  5
28F
100
AcDbEntity
  8
0
100
AcDbSpline
 62
7
  6
BYLAYER
 70
0
 71
3
 72
9
 73
5
 74
0
 42
0.0000001
 43
0.0000001
 44
0.0000000001
 40
0.0
 40
0.0
 40
0.0
 40
0.0
 40
0.2568780162
 40
1.0
 40
1.0
 40
1.0
 40
1.0
 10
96.9453072825
 20
242.8542518171
 30
0.0
 10
96.9333701852
 20
242.6612976682
 30
0.0
 10
96.8423600851
 20
241.9141809461
 30
0.0
 10
96.5772413215
 20
241.1834748377
 30
0.0
 10
96.2795725043
 20
240.7100095431
 30
0.0
  0
SPLINE
  5
290
100
AcDbEntity
  8
0
100
AcDbSpline
 62
7
  6
BYLAYER
 70
0
 71
3
 72
9
 73
5
 74
0
 42
0.0000001
 43
0.0000001
 44
0.0000000001
 40
0.0
 40
0.0
 40
0.0
 40
0.0
 40
0.7474599747
 40
1.0
 40
1.0
 40
1.0
 40
1.0
 10
88.8160314786
 20
240.3591072368
 30
0.0
 10
88.7026101498
 20
240.3731328899
 30
0.0
 10
88.5522365345
 20
240.4086969346
 30
0.0
 10
88.4098966951
 20
240.4646449168
 30
0.0
 10
88.3744657798
 20
240.4799943919
 30
0.0
  0
SPLINE
  5
291
100
AcDbEntity
  8
0
100
AcDbSpline
 62
7
  6
BYLAYER
 70
0
 71
3
 72
9
 73
5
 74
0
 42
0.0000001
 43
0.0000001
 44
0.0000000001
 40
0.0
 40
0.0
 40
0.0
 40
0.0
 40
0.2452035963
 40
1.0
 40
1.0
 40
1.0
 40
1.0
 10
88.3744657798
 20
240.4799943919
 30
0.0
 10
88.3378341394
 20
240.4958640482
 30
0.0
 10
88.1907727977
 20
240.5658964713
 30
0.0
 10
88.0538226809
 20
240.6567044766
 30
0.0
 10
87.9582472887
 20
240.7339495462
 30
0.0
  0
SPLINE
  5
292
100
AcDbEntity
  8
0
100
AcDbSpline
 62
7
  6
BYLAYER
 70
0
 71
3
 72
9
 73
5
 74
0
 42
0.0000001
 43
0.0000001
 44
0.0000000001
 40
0.0
 40
0.0
 40
0.0
 40
0.0
 40
0.2413943965
 40
1.0
 40
1.0
 40
1.0
 40
1.0
 10
87.9582472887
 20
240.7339495462
 30
0.0
 10
87.9130243031
 20
240.770499254
 30
0.0
 10
87.732436236
 20
240.9302047356
 30
0.0
 10
87.5794355558
 20
241.1200900469
 30
0.0
 10
87.4800699682
 20
241.2734424957
 30
0.0
  0
SPLINE
  5
293
100
AcDbEntity
  8
0
100
AcDbSpline
 62
7
  6
BYLAYER
 70
0
 71
3
 72
11
 73
7
 74
0
 42
0.0000001
 43
0.0000001
 44
0.0000000001
 40
0.0
 40
0.0
 40
0.0
 40
0.0
 40
0.2106433385
 40
0.4451133007
 40
0.7114361651
 40
1.0
 40
1.0
 40
1.0
 40
1.0
 10
89.1159150639
 20
244.6732993748
 30
0.0
 10
89.063470782
 20
244.6797405851
 30
0.0
 10
88.9553671847
 20
244.7256424092
 30
0.0
 10
88.8380300013
 20
244.8664290733
 30
0.0
 10
88.7700073627
 20
245.0556200085
 30
0.0
 10
88.7608574579
 20
245.1964457299
 30
0.0
 10
88.7653269543
 20
245.268691758
 30
0.0
  0
SPLINE
  5
294
100
AcDbEntity
  8
0
100
AcDbSpline
 62
7
  6
BYLAYER
 70
0
 71
3
 72
11
 73
7
 74
0
 42
0.0000001
 43
0.0000001
 44
0.0000000001
 40
0.0
 40
0.0
 40
0.0
 40
0.0
 40
0.2106433385
 40
0.4451133007
 40
0.7114361651
 40
1.0
 40
1.0
 40
1.0
 40
1.0
 10
87.7706488229
 20
242.9299586532
 30
0.0
 10
87.718204541
 20
242.9363998635
 30
0.0
 10
87.6101009438
 20
242.9823016875
 30
0.0
 10
87.4927637603
 20
243.1230883516
 30
0.0
 10
87.4247411217
 20
243.3122792869
 30
0.0
 10
87.415591217
 20
243.4531050082
 30
0.0
 10
87.4200607133
 20
243.5253510363
 30
0.0
  0
SPLINE
  5
295
100
AcDbEntity
  8
0
100
AcDbSpline
 62
7
  6
BYLAYER
 70
0
 71
3
 72
9
 73
5
 74
0
 42
0.0000001
 43
0.0000001
 44
0.0000000001
 40
0.0
 40
0.0
 40
0.0
 40
0.0
 40
0.2329754653
 40
1.0
 40
1.0
 40
1.0
 40
1.0
 10
87.4800699682
 20
241.2734424957
 30
0.0
 10
87.3818122898
 20
241.4250850912
 30
0.0
 10
87.0264390839
 20
242.1186085085
 30
0.0
 10
86.9236441928
 20
242.9250412096
 30
0.0
 10
86.9614326813
 20
243.518735719
 30
0.0
  0
SPLINE
  5
296
100
AcDbEntity
  8
0
100
AcDbSpline
 62
7
  6
BYLAYER
 70
0
 71
3
 72
12
 73
8
 74
0
 42
0.0000001
 43
0.0000001
 44
0.0000000001
 40
0.0
 40
0.0
 40
0.0
 40
0.0
 40
0.2826519226
 40
0.5489156493
 40
0.7873633561
 40
0.8963558898
 40
1.0
 40
1.0
 40
1.0
 40
1.0
 10
86.9805267744
 20
243.7355868292
 30
0.0
 10
87.0222918961
 20
244.1065594801
 30
0.0
 10
87.1931726332
 20
244.8205956985
 30
0.0
 10
87.6911487005
 20
245.7471214495
 30
0.0
 10
88.2890939722
 20
246.3233355466
 30
0.0
 10
88.8278300637
 20
246.5874324772
 30
0.0
 10
89.1046452487
 20
246.6512250759
 30
0.0
 10
89.2408539258
 20
246.6648590282
 30
0.0
  0
ELLIPSE
  5
297
100
AcDbEntity
  8
0
100
AcDbEllipse
 62
7
  6
BYLAYER
 10
101.6701885582
 20
241.967838862
 30
0.0
 11
0.0773331792
 21
4.7190713619
 31
0.0
 40
0.5152695267
 41
3.6129350257
 42
5.8754284944
  0
ENDSEC
  0
SECTION
  2
OBJECTS
  0
DICTIONARY
  5
C
100
AcDbDictionary
280
0
281
1
  3
ACAD_GROUP
350
D
  3
ACAD_MLINESTYLE
350
17
  3
ACAD_LAYOUT
350
1A
  3
ACAD_PLOTSETTINGS
350
19
  3
ACAD_PLOTSTYLENAME
350
E
  0
DICTIONARY
  5
D
102
{ACAD_REACTORS
330
C
102
}
100
AcDbDictionary
280
0
281
1
  0
ACDBDICTIONARYWDFLT
  5
E
102
{ACAD_REACTORS
330
C
102
}
100
AcDbDictionary
281
1
  3
Normal
350
F
100
AcDbDictionaryWithDefault
340
F
  0
DICTIONARY
  5
17
102
{ACAD_REACTORS
330
C
102
}
100
AcDbDictionary
280
0
281
1
  3
Standard
350
18
  0
DICTIONARY
  5
19
102
{ACAD_REACTORS
330
C
102
}
100
AcDbDictionary
281
1
  0
DICTIONARY
  5
1A
102
{ACAD_REACTORS
330
C
102
}
100
AcDbDictionary
281
1
  3
Model
350
298
  3
Layout1
350
299
  0
ACDBPLACEHOLDER
  5
F
102
{ACAD_REACTORS
330
E
102
}
  0
MLINESTYLE
  5
18
102
{ACAD_REACTORS
330
17
102
}
100
AcDbMlineStyle
  2
STANDARD
 70
0
  3

 62
256
 51
90.0
 52
90.0
 71
2
 49
0.5
 62
256
  6
BYLAYER
 49
-0.5
 62
256
  6
BYLAYER
  0
LAYOUT
  5
298
102
{ACAD_REACTORS
330
1A
102
}
100
AcDbPlotSettings
  1

  2
none_device
  4

  6

 40
0.0
 41
0.0
 42
0.0
 43
0.0
 44
210.0
 45
297.0
 46
0.0
 47
0.0
 48
0.0
 49
0.0
140
0.0
141
0.0
142
1.0
143
1.0
 70
1024
 72
1
 73
0
 74
0
  7

 75
0
147
1.0
148
0.0
149
0.0
100
AcDbLayout
  1
Model
 70
0
 71
0
 10
0.0
 20
0.0
 11
210.0
 21
297.0
 12
0.0
 22
0.0
 32
0.0
 14
0.0
 24
0.0
 34
0.0
 15
0.0
 25
0.0
 35
0.0
146
0.0
 13
0.0
 23
0.0
 33
0.0
 16
1.0
 26
0.0
 36
0.0
 17
0.0
 27
1.0
 37
0.0
 76
0
330
210
345
0
346
0
  0
LAYOUT
  5
299
102
{ACAD_REACTORS
330
1A
102
}
100
AcDbPlotSettings
  1

  2
none_device
  4

  6

 40
0.0
 41
0.0
 42
0.0
 43
0.0
 44
210.0
 45
297.0
 46
0.0
 47
0.0
 48
0.0
 49
0.0
140
0.0
141
0.0
142
1.0
143
1.0
 70
0
 72
1
 73
0
 74
0
  7

 75
0
147
1.0
148
0.0
149
0.0
100
AcDbLayout
  1
Layout1
 70
0
 71
1
 10
0.0
 20
0.0
 11
210.0
 21
297.0
 12
0.0
 22
0.0
 32
0.0
 14
0.0
 24
0.0
 34
0.0
 15
0.0
 25
0.0
 35
0.0
146
0.0
 13
0.0
 23
0.0
 33
0.0
 16
1.0
 26
0.0
 36
0.0
 17
0.0
 27
1.0
 37
0.0
 76
0
330
211
345
0
346
0
  0
ENDSEC
  0
EOF
