999
DXF file: C:\Users\sesa63760\Dev\_Creo\CAD\MCADID0003904_3D-CAD\drw0001_7.dxf
999
Pro/ENGINEER 2019471 by Parametric Technology Corporation
  0
SECTION
  2
HEADER
  9
$ACADVER
  1
AC1024
  9
$DWGCODEPAGE
  3
ANSI_1252
  9
$EXTMAX
 10
59.1994761996
 20
83.7249734823
 30
0.0
  9
$EXTMIN
 10
0.0
 20
0.0
 30
0.0
  9
$LIMMIN
 10
0.0
 20
0.0
  9
$LIMMAX
 10
59.1994761996
 20
83.7249734823
  9
$VIEWCTR
 10
29.5997380998
 20
41.8624867411
  9
$VIEWSIZE
 40
83.7249734823
  9
$CLAYER
  8
0
  9
$LTSCALE
 40
5.4576279011
  9
$CELTYPE
  6
BYLAYER
  9
$DIMSCALE
 40
1.0
  9
$DIMASZ
 40
0.704755669
  9
$DIMEXO
 40
1.0
  9
$DIMDLI
 40
3.7707247316
  9
$DIMEXE
 40
1.0
  9
$DIMCEN
 40
0.8930663838
  9
$DIMLFAC
 40
1.0
  9
$DIMBLK
  1
_FILLED
  9
$DIMALT
 70
0
  9
$DIMALTF
 40
0.0393700787
  9
$DIMTXT
 40
0.9866579367
  9
$DIMTOL
 70
1
  9
$DIMLIM
 70
0
  9
$DIMTFAC
 40
1.0
  9
$DIMTP
 40
0.01
  9
$DIMTM
 40
0.01
  9
$DIMGAP
 40
0.625
  9
$DIMDSEP
 70
46
  9
$AUNITS
 70
0
  9
$PDMODE
 70
3
  9
$PDSIZE
 40
0.3125
  9
$HANDSEED
  5
268
  9
$TILEMODE
 70
1
  9
$MEASUREMENT
 70
1
  9
$INSUNITS
 70
4
  0
ENDSEC
  0
SECTION
  2
CLASSES
  0
CLASS
  1
ACDBDICTIONARYWDFLT
  2
AcDbDictionaryWithDefault
  3
AutoCAD 2000
 90
0
 91
1
280
0
281
0
  0
CLASS
  1
ACDBPLACEHOLDER
  2
AcDbPlaceHolder
  3
AutoCAD 2000
 90
0
 91
1
280
0
281
0
  0
CLASS
  1
LAYOUT
  2
AcDbLayout
  3
AutoCAD 2000
 90
0
 91
0
280
0
281
0
  0
ENDSEC
  0
SECTION
  2
TABLES
  0
TABLE
  2
VPORT
  5
8
100
AcDbSymbolTable
 70
2
  0
VPORT
  5
1F4
100
AcDbSymbolTableRecord
100
AcDbViewportTableRecord
  2
*ACTIVE
 70
0
 10
0.0
 20
0.0
 11
1.0
 21
1.0
 12
29.5997380998
 22
41.8624867411
 13
0.0
 23
0.0
 14
1.0
 24
1.0
 15
0.0
 25
0.0
 16
0.0
 26
0.0
 36
1.0
 17
0.0
 27
0.0
 37
0.0
 40
83.7249734823
 41
0.7070707071
 42
50.0
 43
0.0
 44
0.0
 50
0.0
 51
0.0
 71
0
 72
100
 73
1
 74
1
 75
0
 76
0
 77
0
 78
0
  0
ENDTAB
  0
TABLE
  2
LTYPE
  5
5
100
AcDbSymbolTable
 70
6
  0
LTYPE
  5
14
100
AcDbSymbolTableRecord
100
AcDbLinetypeTableRecord
  2
BYBLOCK
 70
0
  3

 72
65
 73
0
 40
0.0
  0
LTYPE
  5
15
100
AcDbSymbolTableRecord
100
AcDbLinetypeTableRecord
  2
BYLAYER
 70
0
  3

 72
65
 73
0
 40
0.0
  0
LTYPE
  5
16
100
AcDbSymbolTableRecord
100
AcDbLinetypeTableRecord
  2
CONTINUOUS
 70
64
  3
Solid line
 72
65
 73
0
 40
0.0
  0
LTYPE
  5
1F5
100
AcDbSymbolTableRecord
100
AcDbLinetypeTableRecord
  2
CENTER
 70
64
  3
____ _ ____ _ ____ _ ____ _ ____ _ ____ _ ____
 72
65
 73
4
 40
0.6
 49
0.375
 74
0
 49
-0.075
 74
0
 49
0.075
 74
0
 49
-0.075
 74
0
  0
LTYPE
  5
1F6
100
AcDbSymbolTableRecord
100
AcDbLinetypeTableRecord
  2
HIDDEN
 70
64
  3
- - - - - - - - - - - - - - - - - - - -
 72
65
 73
2
 40
0.2
 49
0.1
 74
0
 49
-0.1
 74
0
  0
LTYPE
  5
1F7
100
AcDbSymbolTableRecord
100
AcDbLinetypeTableRecord
  2
PHANTOM
 70
64
  3
_____ _ _ _____ _ _ _____ _ _ _____
 72
65
 73
6
 40
0.8
 49
0.45
 74
0
 49
-0.05
 74
0
 49
0.1
 74
0
 49
-0.05
 74
0
 49
0.1
 74
0
 49
-0.05
 74
0
  0
LTYPE
  5
1F8
100
AcDbSymbolTableRecord
100
AcDbLinetypeTableRecord
  2
DOT
 70
64
  3
. . . . . . . . . . . . . . . . . . . .
 72
65
 73
2
 40
0.2
 49
0.1
 74
0
 49
-0.1
 74
0
  0
LTYPE
  5
1F9
100
AcDbSymbolTableRecord
100
AcDbLinetypeTableRecord
  2
DASHED
 70
64
  3
- - - - - - - - - - - - - - - - - - - -
 72
65
 73
2
 40
0.2
 49
0.1
 74
0
 49
-0.1
 74
0
  0
ENDTAB
  0
TABLE
  2
LAYER
  5
2
100
AcDbSymbolTable
 70
36
  0
LAYER
  5
10
100
AcDbSymbolTableRecord
100
AcDbLayerTableRecord
  2
0
 70
0
 62
7
  6
CONTINUOUS
370
-3
390
F
  0
LAYER
  5
1FA
100
AcDbSymbolTableRecord
100
AcDbLayerTableRecord
  2
DEFAULT_1
 70
0
 62
7
  6
CENTER
370
-3
390
F
  0
LAYER
  5
1FB
100
AcDbSymbolTableRecord
100
AcDbLayerTableRecord
  2
DEFAULT_2
 70
0
 62
7
  6
HIDDEN
370
-3
390
F
  0
LAYER
  5
1FC
100
AcDbSymbolTableRecord
100
AcDbLayerTableRecord
  2
DEFAULT_3
 70
0
 62
7
  6
PHANTOM
370
-3
390
F
  0
LAYER
  5
1FD
100
AcDbSymbolTableRecord
100
AcDbLayerTableRecord
  2
00_COMPONENTS
 70
0
 62
7
  6
CONTINUOUS
370
-3
390
F
  0
LAYER
  5
1FE
100
AcDbSymbolTableRecord
100
AcDbLayerTableRecord
  2
01_1_DEFAULT_DATUMS
 70
0
 62
7
  6
CONTINUOUS
370
-3
390
F
  0
LAYER
  5
1FF
100
AcDbSymbolTableRecord
100
AcDbLayerTableRecord
  2
01_PLANES
 70
0
 62
7
  6
CONTINUOUS
370
-3
390
F
  0
LAYER
  5
200
100
AcDbSymbolTableRecord
100
AcDbLayerTableRecord
  2
02_COORD_SYS
 70
0
 62
7
  6
CONTINUOUS
370
-3
390
F
  0
LAYER
  5
201
100
AcDbSymbolTableRecord
100
AcDbLayerTableRecord
  2
03_AXES
 70
0
 62
7
  6
CONTINUOUS
370
-3
390
F
  0
LAYER
  5
202
100
AcDbSymbolTableRecord
100
AcDbLayerTableRecord
  2
04_POINTS
 70
0
 62
7
  6
CONTINUOUS
370
-3
390
F
  0
LAYER
  5
203
100
AcDbSymbolTableRecord
100
AcDbLayerTableRecord
  2
05_CURVES
 70
0
 62
7
  6
CONTINUOUS
370
-3
390
F
  0
LAYER
  5
204
100
AcDbSymbolTableRecord
100
AcDbLayerTableRecord
  2
06_SURFS
 70
0
 62
7
  6
CONTINUOUS
370
-3
390
F
  0
LAYER
  5
205
100
AcDbSymbolTableRecord
100
AcDbLayerTableRecord
  2
07_COSMETICS
 70
0
 62
7
  6
CONTINUOUS
370
-3
390
F
  0
LAYER
  5
206
100
AcDbSymbolTableRecord
100
AcDbLayerTableRecord
  2
10_NOTES
 70
0
 62
7
  6
CONTINUOUS
370
-3
390
F
  0
LAYER
  5
207
100
AcDbSymbolTableRecord
100
AcDbLayerTableRecord
  2
11_NOTES_PUB
 70
0
 62
7
  6
CONTINUOUS
370
-3
390
F
  0
LAYER
  5
208
100
AcDbSymbolTableRecord
100
AcDbLayerTableRecord
  2
13_REF_GTOL
 70
0
 62
7
  6
CONTINUOUS
370
-3
390
F
  0
LAYER
  5
209
100
AcDbSymbolTableRecord
100
AcDbLayerTableRecord
  2
16_MISC
 70
0
 62
7
  6
CONTINUOUS
370
-3
390
F
  0
LAYER
  5
20A
100
AcDbSymbolTableRecord
100
AcDbLayerTableRecord
  2
17_NO_PRINT
 70
0
 62
7
  6
CONTINUOUS
370
-3
390
F
  0
LAYER
  5
20B
100
AcDbSymbolTableRecord
100
AcDbLayerTableRecord
  2
18_DATUM_CAMS_JOINTS
 70
0
 62
7
  6
CONTINUOUS
370
-3
390
F
  0
LAYER
  5
20C
100
AcDbSymbolTableRecord
100
AcDbLayerTableRecord
  2
19_DATUM_FUNCTIONAL
 70
0
 62
7
  6
CONTINUOUS
370
-3
390
F
  0
LAYER
  5
20D
100
AcDbSymbolTableRecord
100
AcDbLayerTableRecord
  2
20_DATUM_KINEMATIC_SCHEME
 70
0
 62
7
  6
CONTINUOUS
370
-3
390
F
  0
ENDTAB
  0
TABLE
  2
STYLE
  5
3
100
AcDbSymbolTable
 70
1
  0
STYLE
  5
11
100
AcDbSymbolTableRecord
100
AcDbTextStyleTableRecord
  2
STANDARD
 70
0
 40
0.0
 41
1.0
 50
0.0
 71
0
 42
0.2
  3
ARIAL.TTF
  4

  0
STYLE
  5
20E
100
AcDbSymbolTableRecord
100
AcDbTextStyleTableRecord
  2
TEXTSTYLE_1
 70
0
 40
0.0
 41
0.8
 50
0.0
 71
0
 42
0.2
  3
gdt
  4

  0
ENDTAB
  0
TABLE
  2
VIEW
  5
6
100
AcDbSymbolTable
 70
0
  0
ENDTAB
  0
TABLE
  2
UCS
  5
7
100
AcDbSymbolTable
 70
0
  0
ENDTAB
  0
TABLE
  2
APPID
  5
9
100
AcDbSymbolTable
 70
1
  0
APPID
  5
20F
100
AcDbSymbolTableRecord
100
AcDbRegAppTableRecord
  2
ACAD
 70
0
  0
ENDTAB
  0
TABLE
  2
BLOCK_RECORD
  5
1
100
AcDbSymbolTable
 70
0
  0
BLOCK_RECORD
  5
210
100
AcDbSymbolTableRecord
100
AcDbBlockTableRecord
  2
*Model_Space
  0
BLOCK_RECORD
  5
211
100
AcDbSymbolTableRecord
100
AcDbBlockTableRecord
  2
*Paper_Space
  0
BLOCK_RECORD
  5
212
100
AcDbSymbolTableRecord
100
AcDbBlockTableRecord
  2
_FILLED
  0
ENDTAB
  0
TABLE
  2
DIMSTYLE
  5
A
100
AcDbSymbolTable
 70
1
100
AcDbDimStyleTable
 71
0
  0
DIMSTYLE
105
213
100
AcDbSymbolTableRecord
100
AcDbDimStyleTableRecord
  2
STANDARD
 70
0
  3

  4

 40
1.0
 41
0.704755669
 42
1.0
 43
0.38
 44
1.0
 45
0.0
 46
0.0
 47
0.01
 48
0.01
140
0.9866579367
141
0.09
142
0.0
143
25.4
144
1.0
145
0.0
146
1.0
147
0.625
 71
1
 72
0
 73
0
 74
0
 75
0
 76
0
 77
1
 78
8
 79
2
170
0
171
1
172
0
173
0
174
0
175
0
176
0
177
0
178
0
270
2
179
2
271
2
272
2
273
2
274
2
275
0
280
0
281
0
282
0
283
1
284
8
285
0
286
0
287
3
288
0
340
11
278
46
341
212
342
212
343
212
344
212
  0
ENDTAB
  0
ENDSEC
  0
SECTION
  2
BLOCKS
  0
BLOCK
  5
20
100
AcDbEntity
  8
0
100
AcDbBlockBegin
  2
*Model_Space
 70
0
 10
0.0
 20
0.0
 30
0.0
  3
*Model_Space
  1

  0
ENDBLK
  5
21
100
AcDbEntity
  8
0
100
AcDbBlockEnd
  0
BLOCK
  5
1C
100
AcDbEntity
  8
0
100
AcDbBlockBegin
  2
*Paper_Space
 70
0
 10
0.0
 20
0.0
 30
0.0
  3
*Paper_Space
  1

  0
ENDBLK
  5
1D
100
AcDbEntity
  8
0
100
AcDbBlockEnd
  0
BLOCK
  5
214
100
AcDbEntity
  8
0
100
AcDbBlockBegin
  2
_FILLED
 70
64
 10
0.0
 20
0.0
  3
_FILLED
  1

  0
SOLID
  5
215
100
AcDbEntity
  8
0
  6
BYBLOCK
 62
0
100
AcDbTrace
 10
0.0
 20
0.0
 11
-1.0
 21
0.25
 12
-1.0
 22
-0.25
 13
-1.0
 23
-0.25
  0
ENDBLK
  5
216
100
AcDbEntity
  8
0
  6
BYBLOCK
 62
0
100
AcDbBlockEnd
  0
ENDSEC
  0
SECTION
  2
ENTITIES
  0
LINE
  5
217
100
AcDbEntity
  8
0
100
AcDbLine
 62
7
  6
BYLAYER
 10
19.1217273828
 20
73.9099355364
 11
18.7967273828
 21
73.5849355364
  0
LINE
  5
218
100
AcDbEntity
  8
0
100
AcDbLine
 62
7
  6
BYLAYER
 10
39.8507282683
 20
6.1999521367
 11
31.430526835
 21
9.2646548249
  0
LINE
  5
219
100
AcDbEntity
  8
0
100
AcDbLine
 62
7
  6
BYLAYER
 10
18.6967301396
 20
72.9349341194
 11
18.0967289476
 21
72.3349324637
  0
LINE
  5
21A
100
AcDbEntity
  8
0
100
AcDbLine
 62
7
  6
BYLAYER
 10
41.2872128702
 20
10.146661144
 11
32.867011437
 21
13.2113638322
  0
LINE
  5
21B
100
AcDbEntity
  8
0
100
AcDbLine
 62
7
  6
BYLAYER
 10
27.6689705693
 20
20.6349355364
 11
23.4689705693
 21
20.6349355364
  0
LINE
  5
21C
100
AcDbEntity
  8
0
100
AcDbLine
 62
7
  6
BYLAYER
 10
18.8022592062
 20
38.5980567137
 11
18.7967273828
 21
38.6722269391
  0
LINE
  5
21D
100
AcDbEntity
  8
0
100
AcDbLine
 62
7
  6
BYLAYER
 10
18.0967273828
 20
72.3349308989
 11
18.0967273828
 21
47.7849355364
  0
LINE
  5
21E
100
AcDbEntity
  8
0
100
AcDbLine
 62
7
  6
BYLAYER
 10
18.7467273828
 20
47.1349355364
 11
18.7467273828
 21
40.7849388986
  0
LINE
  5
21F
100
AcDbEntity
  8
0
100
AcDbLine
 62
7
  6
BYLAYER
 10
18.7967273828
 20
40.6349355364
 11
18.7967273828
 21
38.6722269391
  0
LINE
  5
220
100
AcDbEntity
  8
0
100
AcDbLine
 62
7
  6
BYLAYER
 10
18.7967273828
 20
72.9349355364
 11
18.7967273828
 21
73.5849355364
  0
LINE
  5
221
100
AcDbEntity
  8
0
100
AcDbLine
 62
7
  6
BYLAYER
 10
19.1217273828
 20
73.9099355364
 11
19.1217273828
 21
77.7349355364
  0
LINE
  5
222
100
AcDbEntity
  8
0
100
AcDbLine
 62
7
  6
BYLAYER
 10
19.6635588101
 20
35.5941446856
 11
19.5296488147
 21
36.2369126635
  0
LINE
  5
223
100
AcDbEntity
  8
0
100
AcDbLine
 62
7
  6
BYLAYER
 10
19.097177735
 20
36.6319331884
 11
18.8022592064
 21
38.5980567127
  0
LINE
  5
224
100
AcDbEntity
  8
0
100
AcDbLine
 62
7
  6
BYLAYER
 10
22.7803857285
 20
35.0207839436
 11
22.7907232854
 21
34.9174083753
  0
LINE
  5
225
100
AcDbEntity
  8
0
100
AcDbLine
 62
7
  6
BYLAYER
 10
28.0350888795
 20
34.6349355364
 11
23.102852259
 21
34.6349355364
  0
LWPOLYLINE
  5
226
100
AcDbEntity
  8
0
100
AcDbPolyline
 62
7
  6
BYLAYER
 90
6
 70
0
 10
22.3542278615
 20
35.4345422571
 10
22.4195466619
 20
35.4251085305
 10
22.5517180553
 20
35.3717116764
 10
22.6824999244
 20
35.257315869
 10
22.7622941509
 20
35.1074318755
 10
22.7803848487
 20
35.0208045444
  0
LINE
  5
227
100
AcDbEntity
  8
0
100
AcDbLine
 62
7
  6
BYLAYER
 10
18.8967301394
 20
40.6349360478
 11
18.7467278945
 21
40.784938387
  0
LINE
  5
228
100
AcDbEntity
  8
0
100
AcDbLine
 62
7
  6
BYLAYER
 10
23.4689705693
 20
20.6349355364
 11
23.4689705693
 21
34.6349355364
  0
LINE
  5
229
100
AcDbEntity
  8
0
100
AcDbLine
 62
7
  6
BYLAYER
 10
22.3521290071
 20
35.4357502808
 11
22.3523958824
 21
35.4357741547
  0
LINE
  5
22A
100
AcDbEntity
  8
0
100
AcDbLine
 62
7
  6
BYLAYER
 10
28.3472178531
 20
34.9174083753
 11
22.7907232854
 21
34.9174083753
  0
LINE
  5
22B
100
AcDbEntity
  8
0
100
AcDbLine
 62
7
  6
BYLAYER
 10
22.3337890839
 20
35.4349355364
 11
19.859354894
 21
35.4349355364
  0
LINE
  5
22C
100
AcDbEntity
  8
0
100
AcDbLine
 62
7
  6
BYLAYER
 10
22.3389822854
 20
35.5941446856
 11
19.6635588101
 21
35.5941446856
  0
LINE
  5
22D
100
AcDbEntity
  8
0
100
AcDbLine
 62
7
  6
BYLAYER
 10
19.5296488147
 20
36.2369126635
 11
22.401267307
 21
36.2369126635
  0
LINE
  5
22E
100
AcDbEntity
  8
0
100
AcDbLine
 62
7
  6
BYLAYER
 10
23.22114562
 20
36.3647866521
 11
28.4919556808
 21
36.3647866521
  0
LINE
  5
22F
100
AcDbEntity
  8
0
100
AcDbLine
 62
7
  6
BYLAYER
 10
29.0966627428
 20
36.6349355364
 11
19.1349330999
 21
36.6349355364
  0
LINE
  5
230
100
AcDbEntity
  8
0
100
AcDbLine
 62
7
  6
BYLAYER
 10
29.4467273828
 20
47.1349355364
 11
30.0967273828
 21
47.7849355364
  0
LINE
  5
231
100
AcDbEntity
  8
0
100
AcDbLine
 62
7
  6
BYLAYER
 10
18.8022592062
 20
38.5980567137
 11
29.3911955594
 21
38.5980567137
  0
LINE
  5
232
100
AcDbEntity
  8
0
100
AcDbLine
 62
7
  6
BYLAYER
 10
29.3967273828
 20
38.6722269389
 11
18.7967273828
 21
38.6722269389
  0
LINE
  5
233
100
AcDbEntity
  8
0
100
AcDbLine
 62
7
  6
BYLAYER
 10
18.7467273828
 20
47.1349355364
 11
18.0967273828
 21
47.7849355364
  0
LINE
  5
234
100
AcDbEntity
  8
0
100
AcDbLine
 62
7
  6
BYLAYER
 10
27.6689705693
 20
20.6349355364
 11
27.6689705693
 21
34.6349355364
  0
LINE
  5
235
100
AcDbEntity
  8
0
100
AcDbLine
 62
7
  6
BYLAYER
 10
29.0717273828
 20
73.9099355364
 11
29.0717273828
 21
77.7349355364
  0
LINE
  5
236
100
AcDbEntity
  8
0
100
AcDbLine
 62
7
  6
BYLAYER
 10
29.3967273828
 20
40.6349355364
 11
29.3967273828
 21
38.6722269391
  0
LINE
  5
237
100
AcDbEntity
  8
0
100
AcDbLine
 62
7
  6
BYLAYER
 10
29.3967273828
 20
72.9349355364
 11
29.3967273828
 21
73.5849355364
  0
LINE
  5
238
100
AcDbEntity
  8
0
100
AcDbLine
 62
7
  6
BYLAYER
 10
29.4467273828
 20
47.1349355364
 11
29.4467273828
 21
40.7849388986
  0
LINE
  5
239
100
AcDbEntity
  8
0
100
AcDbLine
 62
7
  6
BYLAYER
 10
29.3911955594
 20
38.5980567137
 11
29.3967273828
 21
38.6722269391
  0
LINE
  5
23A
100
AcDbEntity
  8
0
100
AcDbLine
 62
7
  6
BYLAYER
 10
28.4919556808
 20
36.3647866521
 11
28.3472178531
 21
34.9174083753
  0
LINE
  5
23B
100
AcDbEntity
  8
0
100
AcDbLine
 62
7
  6
BYLAYER
 10
29.0967273828
 20
36.6349355364
 11
29.3911955593
 21
38.5980567127
  0
LINE
  5
23C
100
AcDbEntity
  8
0
100
AcDbLine
 62
7
  6
BYLAYER
 10
18.7967949373
 20
40.6349355364
 11
29.3966598283
 21
40.6349355364
  0
LINE
  5
23D
100
AcDbEntity
  8
0
100
AcDbLine
 62
7
  6
BYLAYER
 10
29.4467273828
 20
40.7849378753
 11
18.7467273828
 21
40.7849378753
  0
LINE
  5
23E
100
AcDbEntity
  8
0
100
AcDbLine
 62
7
  6
BYLAYER
 10
30.0967273828
 20
72.3349308989
 11
30.0967273828
 21
47.7849355364
  0
LINE
  5
23F
100
AcDbEntity
  8
0
100
AcDbLine
 62
7
  6
BYLAYER
 10
29.2967246263
 20
40.6349360478
 11
29.4467268712
 21
40.784938387
  0
LINE
  5
240
100
AcDbEntity
  8
0
100
AcDbLine
 62
7
  6
BYLAYER
 10
18.7467273828
 20
47.1349355364
 11
29.4467273828
 21
47.1349355364
  0
LINE
  5
241
100
AcDbEntity
  8
0
100
AcDbLine
 62
7
  6
BYLAYER
 10
30.0967273828
 20
47.7849355364
 11
18.0967273828
 21
47.7849355364
  0
LINE
  5
242
100
AcDbEntity
  8
0
100
AcDbLine
 62
7
  6
BYLAYER
 10
31.430526835
 20
9.2646548249
 11
32.867011437
 21
13.2113638322
  0
LINE
  5
243
100
AcDbEntity
  8
0
100
AcDbLine
 62
7
  6
BYLAYER
 10
41.2872128702
 20
10.146661144
 11
39.8507282683
 21
6.1999521367
  0
LINE
  5
244
100
AcDbEntity
  8
0
100
AcDbLine
 62
7
  6
BYLAYER
 10
29.4967246261
 20
72.9349341194
 11
30.0967258181
 21
72.3349324637
  0
LINE
  5
245
100
AcDbEntity
  8
0
100
AcDbLine
 62
7
  6
BYLAYER
 10
29.0717273828
 20
73.9099355364
 11
29.3967273828
 21
73.5849355364
  0
LINE
  5
246
100
AcDbEntity
  8
0
100
AcDbLine
 62
7
  6
BYLAYER
 10
18.0967273828
 20
72.3349340284
 11
30.0967273828
 21
72.3349340284
  0
LINE
  5
247
100
AcDbEntity
  8
0
100
AcDbLine
 62
7
  6
BYLAYER
 10
18.6968173565
 20
72.9349355364
 11
29.4966374091
 21
72.9349355364
  0
LINE
  5
248
100
AcDbEntity
  8
0
100
AcDbLine
 62
7
  6
BYLAYER
 10
18.7967273828
 20
73.5849355364
 11
29.3967273828
 21
73.5849355364
  0
LINE
  5
249
100
AcDbEntity
  8
0
100
AcDbLine
 62
7
  6
BYLAYER
 10
29.0717273828
 20
73.9099355364
 11
19.1217273828
 21
73.9099355364
  0
LINE
  5
24A
100
AcDbEntity
  8
0
100
AcDbLine
 62
7
  6
BYLAYER
 10
19.1217273828
 20
77.7349355364
 11
29.0717273828
 21
77.7349355364
  0
LINE
  5
24B
100
AcDbEntity
  8
0
100
AcDbLine
 62
7
  6
BYLAYER
 10
19.3217302508
 20
77.9349355364
 11
28.8717245148
 21
77.9349355364
  0
ARC
  5
24C
100
AcDbEntity
  8
0
100
AcDbCircle
 62
7
  6
BYLAYER
 10
-153.6900154809
 20
52.9759766436
 40
176.8850930317
100
AcDbArc
 50
354.360658746
 51
354.5698364246
  0
ARC
  5
24D
100
AcDbEntity
  8
0
100
AcDbCircle
 62
7
  6
BYLAYER
 10
35.5689705693
 20
20.6349355364
 40
12.1
100
AcDbArc
 50
180.0
 51
250.0
  0
ARC
  5
24E
100
AcDbEntity
  8
0
100
AcDbCircle
 62
7
  6
BYLAYER
 10
35.5689705693
 20
20.6349355364
 40
7.9
100
AcDbArc
 50
180.0
 51
250.0
  0
ARC
  5
24F
100
AcDbEntity
  8
0
100
AcDbCircle
 62
7
  6
BYLAYER
 10
19.0401586048
 20
36.1349355364
 40
0.5
100
AcDbArc
 50
11.768288932
 51
83.4472755045
  0
ARC
  5
250
100
AcDbEntity
  8
0
100
AcDbCircle
 62
7
  6
BYLAYER
 10
28.0350888795
 20
34.9486212727
 40
0.3136857363
100
AcDbArc
 50
270.0
 51
354.2894068625
  0
ARC
  5
251
100
AcDbEntity
  8
0
100
AcDbCircle
 62
7
  6
BYLAYER
 10
23.102852259
 20
34.9486212727
 40
0.3136857363
100
AcDbArc
 50
185.7105931375
 51
270.0
  0
ARC
  5
252
100
AcDbEntity
  8
0
100
AcDbCircle
 62
7
  6
BYLAYER
 10
28.7904668379
 20
36.3349355364
 40
0.3
100
AcDbArc
 50
90.0
 51
174.2894068625
  0
ARC
  5
253
100
AcDbEntity
  8
0
100
AcDbCircle
 62
7
  6
BYLAYER
 10
19.3217273828
 20
77.7349355364
 40
0.2
100
AcDbArc
 50
90.0
 51
180.0
  0
ARC
  5
254
100
AcDbEntity
  8
0
100
AcDbCircle
 62
7
  6
BYLAYER
 10
28.8717273828
 20
77.7349355364
 40
0.2
100
AcDbArc
 50
0.0
 51
90.0
  0
ARC
  5
255
100
AcDbEntity
  8
0
100
AcDbCircle
 62
7
  6
BYLAYER
 10
19.859354894
 20
35.6349355364
 40
0.2
100
AcDbArc
 50
191.7682889319
 51
270.0
  0
ARC
  5
256
100
AcDbEntity
  8
0
100
AcDbCircle
 62
7
  6
BYLAYER
 10
22.3340998716
 20
35.6349355364
 40
0.2
100
AcDbArc
 50
270.0
 51
275.2487592199
  0
ARC
  5
257
100
AcDbEntity
  8
0
100
AcDbCircle
 62
7
  6
BYLAYER
 10
22.3479580641
 20
35.4846134904
 40
0.0490406811
100
AcDbArc
 50
275.1918136346
 51
276.8385001126
  0
ARC
  5
258
100
AcDbEntity
  8
0
100
AcDbCircle
 62
7
  6
BYLAYER
 10
22.3494284594
 20
35.4721558111
 40
0.036496555
100
AcDbArc
 50
276.8752605382
 51
277.891858234
  0
SPLINE
  5
259
100
AcDbEntity
  8
0
100
AcDbSpline
 62
7
  6
BYLAYER
 70
0
 71
3
 72
20
 73
16
 74
0
 42
0.0000001
 43
0.0000001
 44
0.0000000001
 40
0.0
 40
0.0
 40
0.0
 40
0.0
 40
0.040829541
 40
0.0888234754
 40
0.1442019745
 40
0.2066694588
 40
0.3498463199
 40
0.5075607633
 40
0.6640262535
 40
0.7367714428
 40
0.8037765045
 40
0.8639046679
 40
0.9166850725
 40
0.9619397202
 40
1.0
 40
1.0
 40
1.0
 40
1.0
 10
23.1814064969
 20
35.54191747
 30
0.0
 10
23.1709506158
 20
35.5471514419
 30
0.0
 10
23.1477092666
 20
35.5575574064
 30
0.0
 10
23.1089599038
 20
35.5719033462
 30
0.0
 10
23.0635270269
 20
35.5858215467
 30
0.0
 10
22.9910199487
 20
35.6041059346
 30
0.0
 10
22.8884440768
 20
35.622426782
 30
0.0
 10
22.7580048343
 20
35.6354553098
 30
0.0
 10
22.647102349
 20
35.6382057191
 30
0.0
 10
22.5623108349
 20
35.6350094521
 30
0.0
 10
22.505238356
 20
35.6303523785
 30
0.0
 10
22.4541300746
 20
35.6236518158
 30
0.0
 10
22.4095800079
 20
35.6153241885
 30
0.0
 10
22.3717755958
 20
35.6057320915
 30
0.0
 10
22.3491237316
 20
35.5981293002
 30
0.0
 10
22.3389784389
 20
35.5941448493
 30
0.0
  0
SPLINE
  5
25A
100
AcDbEntity
  8
0
100
AcDbSpline
 62
7
  6
BYLAYER
 70
0
 71
3
 72
15
 73
11
 74
0
 42
0.0000001
 43
0.0000001
 44
0.0000000001
 40
0.0
 40
0.0
 40
0.0
 40
0.0
 40
0.0583258225
 40
0.1287640951
 40
0.216223487
 40
0.3266424945
 40
0.463165255
 40
0.6243014891
 40
0.8052043139
 40
1.0
 40
1.0
 40
1.0
 40
1.0
 10
22.8786876668
 20
34.9876225597
 30
0.0
 10
22.8918394895
 20
34.9890483513
 30
0.0
 10
22.9207432584
 20
34.9941965324
 30
0.0
 10
22.9665528923
 20
35.0130038251
 30
0.0
 10
23.015643554
 20
35.0500799924
 30
0.0
 10
23.0641323276
 20
35.1091561966
 30
0.0
 10
23.1084077851
 20
35.1909451013
 30
0.0
 10
23.1449612376
 20
35.2935268284
 30
0.0
 10
23.1708192427
 20
35.4127979413
 30
0.0
 10
23.1793122763
 20
35.4977883116
 30
0.0
 10
23.1814185738
 20
35.5419196928
 30
0.0
  0
SPLINE
  5
25B
100
AcDbEntity
  8
0
100
AcDbSpline
 62
7
  6
BYLAYER
 70
0
 71
3
 72
15
 73
11
 74
0
 42
0.0000001
 43
0.0000001
 44
0.0000000001
 40
0.0
 40
0.0
 40
0.0
 40
0.0
 40
0.2364175304
 40
0.2999599452
 40
0.3646485188
 40
0.4957043425
 40
0.6272470019
 40
0.7566562025
 40
0.8813649466
 40
1.0
 40
1.0
 40
1.0
 40
1.0
 10
22.8786876738
 20
34.9876225608
 30
0.0
 10
22.8725274173
 20
35.0475722406
 30
0.0
 10
22.8510519032
 20
35.1232796399
 30
0.0
 10
22.8060062017
 20
35.2046370949
 30
0.0
 10
22.7686153326
 20
35.2592510485
 30
0.0
 10
22.7116055241
 20
35.3210238504
 30
0.0
 10
22.6293362174
 20
35.3789639023
 30
0.0
 10
22.5386924621
 20
35.4188140506
 30
0.0
 10
22.4449873866
 20
35.4380843891
 30
0.0
 10
22.3825103987
 20
35.4385404139
 30
0.0
 10
22.3523958609
 20
35.4357739366
 30
0.0
  0
SPLINE
  5
25C
100
AcDbEntity
  8
0
100
AcDbSpline
 62
7
  6
BYLAYER
 70
0
 71
3
 72
21
 73
17
 74
0
 42
0.0000001
 43
0.0000001
 44
0.0000000001
 40
0.0
 40
0.0
 40
0.0
 40
0.0
 40
0.2353151672
 40
0.4385603265
 40
0.6101935043
 40
0.7505102348
 40
0.8089750043
 40
0.8596509824
 40
0.9025349832
 40
0.9376223489
 40
0.9649125458
 40
0.9844055614
 40
0.9912281223
 40
0.9961013832
 40
0.9990253426
 40
1.0
 40
1.0
 40
1.0
 40
1.0
 10
19.1350216025
 20
36.6349355364
 30
0.0
 10
19.1320412494
 20
36.6349355364
 30
0.0
 10
19.1264860543
 20
36.6348380778
 30
0.0
 10
19.1187674308
 20
36.6344208778
 30
0.0
 10
19.1122666414
 20
36.6338440932
 30
0.0
 10
19.107608076
 20
36.6332836886
 30
0.0
 10
19.1044793116
 20
36.6328444513
 30
0.0
 10
19.1025749891
 20
36.6325586966
 30
0.0
 10
19.100965525
 20
36.632308072
 30
0.0
 10
19.0996464968
 20
36.6321049561
 30
0.0
 10
19.0986259432
 20
36.6319428859
 30
0.0
 10
19.0979465744
 20
36.6318448499
 30
0.0
 10
19.0975676417
 20
36.6317758434
 30
0.0
 10
19.0973659529
 20
36.6317610283
 30
0.0
 10
19.0972892483
 20
36.6317197983
 30
0.0
 10
19.0972062171
 20
36.6317371493
 30
0.0
 10
19.0972080908
 20
36.631724948
 30
0.0
  0
SPLINE
  5
25D
100
AcDbEntity
  8
0
100
AcDbSpline
 62
7
  6
BYLAYER
 70
0
 71
3
 72
15
 73
11
 74
0
 42
0.0000001
 43
0.0000001
 44
0.0000000001
 40
0.0
 40
0.0
 40
0.0
 40
0.0
 40
0.1423974747
 40
0.2409934676
 40
0.3137406414
 40
0.3893694751
 40
0.4896966546
 40
0.6228638984
 40
0.7921408412
 40
1.0
 40
1.0
 40
1.0
 40
1.0
 10
22.3544364704
 20
35.4360045937
 30
0.0
 10
22.3553413837
 20
35.4361302854
 30
0.0
 10
22.356862528
 20
35.4364002899
 30
0.0
 10
22.3587897705
 20
35.437084188
 30
0.0
 10
22.3599344185
 20
35.4383169214
 30
0.0
 10
22.3600561015
 20
35.4399871762
 30
0.0
 10
22.359574364
 20
35.4419111289
 30
0.0
 10
22.3586874208
 20
35.444342637
 30
0.0
 10
22.3574654361
 20
35.4473787298
 30
0.0
 10
22.3565892805
 20
35.449634821
 30
0.0
 10
22.3561258287
 20
35.4508852942
 30
0.0
  0
SPLINE
  5
25E
100
AcDbEntity
  8
0
100
AcDbSpline
 62
7
  6
BYLAYER
 70
0
 71
3
 72
14
 73
10
 74
0
 42
0.0000001
 43
0.0000001
 44
0.0000000001
 40
0.0
 40
0.0
 40
0.0
 40
0.0
 40
0.0597266686
 40
0.1373807628
 40
0.2347054118
 40
0.3519639399
 40
0.4890758387
 40
0.6449745097
 40
1.0
 40
1.0
 40
1.0
 40
1.0
 10
22.3561258287
 20
35.4508852942
 30
0.0
 10
22.3551253656
 20
35.4535847174
 30
0.0
 10
22.3530352137
 20
35.4598762828
 30
0.0
 10
22.3504804154
 20
35.4709133807
 30
0.0
 10
22.3483719541
 20
35.4848484776
 30
0.0
 10
22.3465179764
 20
35.5017008761
 30
0.0
 10
22.3448765605
 20
35.5214094772
 30
0.0
 10
22.3426918435
 20
35.5525674193
 30
0.0
 10
22.3407762543
 20
35.5771261569
 30
0.0
 10
22.3389767917
 20
35.5941436924
 30
0.0
  0
SPLINE
  5
25F
100
AcDbEntity
  8
0
100
AcDbSpline
 62
7
  6
BYLAYER
 70
0
 71
3
 72
15
 73
11
 74
0
 42
0.0000001
 43
0.0000001
 44
0.0000000001
 40
0.0
 40
0.0
 40
0.0
 40
0.0
 40
0.1172209379
 40
0.2375635054
 40
0.3606545878
 40
0.4861471377
 40
0.6134904775
 40
0.7420521253
 40
0.8712070295
 40
1.0
 40
1.0
 40
1.0
 40
1.0
 10
22.8935221507
 20
36.6349355364
 30
0.0
 10
22.8671696926
 20
36.6349355364
 30
0.0
 10
22.813647437
 20
36.6296566848
 30
0.0
 10
22.7353501181
 20
36.6071244274
 30
0.0
 10
22.6603532726
 20
36.5708177641
 30
0.0
 10
22.590865195
 20
36.5221127498
 30
0.0
 10
22.5287412255
 20
36.4625611652
 30
0.0
 10
22.4753506064
 20
36.3940433797
 30
0.0
 10
22.432045665
 20
36.3183961107
 30
0.0
 10
22.4103097104
 20
36.2644164736
 30
0.0
 10
22.4012613555
 20
36.2369126635
 30
0.0
  0
SPLINE
  5
260
100
AcDbEntity
  8
0
100
AcDbSpline
 62
7
  6
BYLAYER
 70
0
 71
3
 72
15
 73
11
 74
0
 42
0.0000001
 43
0.0000001
 44
0.0000000001
 40
0.0
 40
0.0
 40
0.0
 40
0.0
 40
0.167851885
 40
0.333618264
 40
0.4906101609
 40
0.6323504324
 40
0.7537236381
 40
0.853337488
 40
0.9330571221
 40
1.0
 40
1.0
 40
1.0
 40
1.0
 10
23.0039155751
 20
36.3989138793
 30
0.0
 10
23.0026470458
 20
36.4143458279
 30
0.0
 10
22.9991665456
 20
36.4449482287
 30
0.0
 10
22.9910031833
 20
36.4895073499
 30
0.0
 10
22.9797655385
 20
36.5309138581
 30
0.0
 10
22.9659503498
 20
36.5672179555
 30
0.0
 10
22.9498131346
 20
36.5966765444
 30
0.0
 10
22.932193478
 20
36.6183922346
 30
0.0
 10
22.9133250059
 20
36.6317381825
 30
0.0
 10
22.8997052825
 20
36.6349155994
 30
0.0
 10
22.8935299368
 20
36.634915679
 30
0.0
  0
SPLINE
  5
261
100
AcDbEntity
  8
0
100
AcDbSpline
 62
7
  6
BYLAYER
 70
0
 71
3
 72
14
 73
10
 74
0
 42
0.0000001
 43
0.0000001
 44
0.0000000001
 40
0.0
 40
0.0
 40
0.0
 40
0.0
 40
0.2643066465
 40
0.4001292505
 40
0.5333665481
 40
0.6610803369
 40
0.781717759
 40
0.8944434346
 40
1.0
 40
1.0
 40
1.0
 40
1.0
 10
23.2211587349
 20
36.3647860646
 30
0.0
 10
23.2183699256
 20
36.3995073596
 30
0.0
 10
23.2067155025
 20
36.4519819407
 30
0.0
 10
23.1756322192
 20
36.5152961341
 30
0.0
 10
23.1448446497
 20
36.5579506482
 30
0.0
 10
23.107741116
 20
36.5923833602
 30
0.0
 10
23.0668045406
 20
36.6173512103
 30
0.0
 10
23.0241546012
 20
36.6317605208
 30
0.0
 10
22.995304505
 20
36.6349353299
 30
0.0
 10
22.9813931492
 20
36.6349355364
 30
0.0
  0
SPLINE
  5
262
100
AcDbEntity
  8
0
100
AcDbSpline
 62
7
  6
BYLAYER
 70
0
 71
3
 72
18
 73
14
 74
0
 42
0.0000001
 43
0.0000001
 44
0.0000000001
 40
0.0
 40
0.0
 40
0.0
 40
0.0
 40
0.1822302756
 40
0.3399640984
 40
0.4744169904
 40
0.5866350133
 40
0.6350123167
 40
0.6790342233
 40
0.7201647121
 40
0.7609248817
 40
0.8560997622
 40
0.9200428237
 40
1.0
 40
1.0
 40
1.0
 40
1.0
 10
22.8786876209
 20
34.9876224782
 30
0.0
 10
22.8714486512
 20
34.9868368231
 30
0.0
 10
22.857891591
 20
34.9858169633
 30
0.0
 10
22.8389357082
 20
34.9854109022
 30
0.0
 10
22.8227773581
 20
34.985394429
 30
0.0
 10
22.8109868516
 20
34.9860243783
 30
0.0
 10
22.8028918728
 20
34.9872327915
 30
0.0
 10
22.797720015
 20
34.9886169717
 30
0.0
 10
22.7931349395
 20
34.9907723902
 30
0.0
 10
22.7875515089
 20
34.9952501119
 30
0.0
 10
22.7837436761
 20
35.0026254202
 30
0.0
 10
22.7814729483
 20
35.0118887217
 30
0.0
 10
22.7807051202
 20
35.017605271
 30
0.0
 10
22.7803868764
 20
35.0207842758
 30
0.0
  0
SPLINE
  5
263
100
AcDbEntity
  8
0
100
AcDbSpline
 62
7
  6
BYLAYER
 70
0
 71
3
 72
9
 73
5
 74
0
 42
0.0000001
 43
0.0000001
 44
0.0000000001
 40
0.0
 40
0.0
 40
0.0
 40
0.0
 40
0.2505270379
 40
1.0
 40
1.0
 40
1.0
 40
1.0
 10
23.2211750981
 20
36.3647762858
 30
0.0
 10
23.2177953726
 20
36.2960628915
 30
0.0
 10
23.2043923106
 20
36.0217832241
 30
0.0
 10
23.1912584209
 20
35.7474905026
 30
0.0
 10
23.1814298415
 20
35.5419148497
 30
0.0
  0
SPLINE
  5
264
100
AcDbEntity
  8
0
100
AcDbSpline
 62
7
  6
BYLAYER
 70
0
 71
3
 72
10
 73
6
 74
0
 42
0.0000001
 43
0.0000001
 44
0.0000000001
 40
0.0
 40
0.0
 40
0.0
 40
0.0
 40
0.4498807427
 40
0.7147666848
 40
1.0
 40
1.0
 40
1.0
 40
1.0
 10
23.2211457996
 20
36.3647905421
 30
0.0
 10
23.1890617674
 20
36.3724988404
 30
0.0
 10
23.1374531853
 20
36.3821212896
 30
0.0
 10
23.0648179016
 20
36.3922918228
 30
0.0
 10
23.0247184585
 20
36.3968434636
 30
0.0
 10
23.0039006877
 20
36.3989167947
 30
0.0
  0
SPLINE
  5
265
100
AcDbEntity
  8
0
100
AcDbSpline
 62
7
  6
BYLAYER
 70
0
 71
3
 72
15
 73
11
 74
0
 42
0.0000001
 43
0.0000001
 44
0.0000000001
 40
0.0
 40
0.0
 40
0.0
 40
0.0
 40
0.1307802414
 40
0.2653785445
 40
0.4004704887
 40
0.5333397162
 40
0.6614962592
 40
0.7828793083
 40
0.8958550217
 40
1.0
 40
1.0
 40
1.0
 40
1.0
 10
23.0038980805
 20
36.3989154223
 30
0.0
 10
22.9761977432
 20
36.4017083493
 30
0.0
 10
22.9196540302
 20
36.4043388982
 30
0.0
 10
22.8343836232
 20
36.4003576685
 30
0.0
 10
22.7493747747
 20
36.3886431047
 30
0.0
 10
22.6670542048
 20
36.3698607044
 30
0.0
 10
22.5895316855
 20
36.3446429185
 30
0.0
 10
22.5185843496
 20
36.3139545571
 30
0.0
 10
22.455650132
 20
36.2785784983
 30
0.0
 10
22.4181897163
 20
36.2512426118
 30
0.0
 10
22.4012679153
 20
36.2369182075
 30
0.0
  0
ENDSEC
  0
SECTION
  2
OBJECTS
  0
DICTIONARY
  5
C
100
AcDbDictionary
280
0
281
1
  3
ACAD_GROUP
350
D
  3
ACAD_MLINESTYLE
350
17
  3
ACAD_LAYOUT
350
1A
  3
ACAD_PLOTSETTINGS
350
19
  3
ACAD_PLOTSTYLENAME
350
E
  0
DICTIONARY
  5
D
102
{ACAD_REACTORS
330
C
102
}
100
AcDbDictionary
280
0
281
1
  0
ACDBDICTIONARYWDFLT
  5
E
102
{ACAD_REACTORS
330
C
102
}
100
AcDbDictionary
281
1
  3
Normal
350
F
100
AcDbDictionaryWithDefault
340
F
  0
DICTIONARY
  5
17
102
{ACAD_REACTORS
330
C
102
}
100
AcDbDictionary
280
0
281
1
  3
Standard
350
18
  0
DICTIONARY
  5
19
102
{ACAD_REACTORS
330
C
102
}
100
AcDbDictionary
281
1
  0
DICTIONARY
  5
1A
102
{ACAD_REACTORS
330
C
102
}
100
AcDbDictionary
281
1
  3
Model
350
266
  3
Layout1
350
267
  0
ACDBPLACEHOLDER
  5
F
102
{ACAD_REACTORS
330
E
102
}
  0
MLINESTYLE
  5
18
102
{ACAD_REACTORS
330
17
102
}
100
AcDbMlineStyle
  2
STANDARD
 70
0
  3

 62
256
 51
90.0
 52
90.0
 71
2
 49
0.5
 62
256
  6
BYLAYER
 49
-0.5
 62
256
  6
BYLAYER
  0
LAYOUT
  5
266
102
{ACAD_REACTORS
330
1A
102
}
100
AcDbPlotSettings
  1

  2
none_device
  4

  6

 40
0.0
 41
0.0
 42
0.0
 43
0.0
 44
210.0
 45
297.0
 46
0.0
 47
0.0
 48
0.0
 49
0.0
140
0.0
141
0.0
142
1.0
143
1.0
 70
1024
 72
1
 73
0
 74
0
  7

 75
0
147
1.0
148
0.0
149
0.0
100
AcDbLayout
  1
Model
 70
0
 71
0
 10
0.0
 20
0.0
 11
210.0
 21
297.0
 12
0.0
 22
0.0
 32
0.0
 14
0.0
 24
0.0
 34
0.0
 15
0.0
 25
0.0
 35
0.0
146
0.0
 13
0.0
 23
0.0
 33
0.0
 16
1.0
 26
0.0
 36
0.0
 17
0.0
 27
1.0
 37
0.0
 76
0
330
210
345
0
346
0
  0
LAYOUT
  5
267
102
{ACAD_REACTORS
330
1A
102
}
100
AcDbPlotSettings
  1

  2
none_device
  4

  6

 40
0.0
 41
0.0
 42
0.0
 43
0.0
 44
210.0
 45
297.0
 46
0.0
 47
0.0
 48
0.0
 49
0.0
140
0.0
141
0.0
142
1.0
143
1.0
 70
0
 72
1
 73
0
 74
0
  7

 75
0
147
1.0
148
0.0
149
0.0
100
AcDbLayout
  1
Layout1
 70
0
 71
1
 10
0.0
 20
0.0
 11
210.0
 21
297.0
 12
0.0
 22
0.0
 32
0.0
 14
0.0
 24
0.0
 34
0.0
 15
0.0
 25
0.0
 35
0.0
146
0.0
 13
0.0
 23
0.0
 33
0.0
 16
1.0
 26
0.0
 36
0.0
 17
0.0
 27
1.0
 37
0.0
 76
0
330
211
345
0
346
0
  0
ENDSEC
  0
EOF
