999
DXF file: C:\Users\sesa63760\Dev\_Creo\CAD\MCADID0003395_3D-CAD\drw0001_1.dxf
999
Pro/ENGINEER 2019471 by Parametric Technology Corporation
  0
SECTION
  2
HEADER
  9
$ACADVER
  1
AC1024
  9
$DWGCODEPAGE
  3
ANSI_1252
  9
$EXTMAX
 10
72.4286806935
 20
102.4348484094
 30
0.0
  9
$EXTMIN
 10
0.0
 20
0.0
 30
0.0
  9
$LIMMIN
 10
0.0
 20
0.0
  9
$LIMMAX
 10
72.4286806935
 20
102.4348484094
  9
$VIEWCTR
 10
36.2143403468
 20
51.2174242047
  9
$VIEWSIZE
 40
102.4348484094
  9
$CLAYER
  8
0
  9
$LTSCALE
 40
6.677234563
  9
$CELTYPE
  6
BYLAYER
  9
$DIMSCALE
 40
1.0
  9
$DIMASZ
 40
0.8622461987
  9
$DIMEXO
 40
1.0
  9
$DIMDLI
 40
4.6133620617
  9
$DIMEXE
 40
1.0
  9
$DIMCEN
 40
1.092638383
  9
$DIMLFAC
 40
1.0
  9
$DIMBLK
  1
_FILLED
  9
$DIMALT
 70
0
  9
$DIMALTF
 40
0.0393700787
  9
$DIMTXT
 40
1.2071446782
  9
$DIMTOL
 70
1
  9
$DIMLIM
 70
0
  9
$DIMTFAC
 40
1.0
  9
$DIMTP
 40
0.01
  9
$DIMTM
 40
0.01
  9
$DIMGAP
 40
0.625
  9
$DIMDSEP
 70
46
  9
$AUNITS
 70
0
  9
$PDMODE
 70
3
  9
$PDSIZE
 40
0.3125
  9
$HANDSEED
  5
36C
  9
$TILEMODE
 70
1
  9
$MEASUREMENT
 70
1
  9
$INSUNITS
 70
4
  0
ENDSEC
  0
SECTION
  2
CLASSES
  0
CLASS
  1
ACDBDICTIONARYWDFLT
  2
AcDbDictionaryWithDefault
  3
AutoCAD 2000
 90
0
 91
1
280
0
281
0
  0
CLASS
  1
ACDBPLACEHOLDER
  2
AcDbPlaceHolder
  3
AutoCAD 2000
 90
0
 91
1
280
0
281
0
  0
CLASS
  1
LAYOUT
  2
AcDbLayout
  3
AutoCAD 2000
 90
0
 91
0
280
0
281
0
  0
ENDSEC
  0
SECTION
  2
TABLES
  0
TABLE
  2
VPORT
  5
8
100
AcDbSymbolTable
 70
2
  0
VPORT
  5
1F4
100
AcDbSymbolTableRecord
100
AcDbViewportTableRecord
  2
*ACTIVE
 70
0
 10
0.0
 20
0.0
 11
1.0
 21
1.0
 12
36.2143403468
 22
51.2174242047
 13
0.0
 23
0.0
 14
1.0
 24
1.0
 15
0.0
 25
0.0
 16
0.0
 26
0.0
 36
1.0
 17
0.0
 27
0.0
 37
0.0
 40
102.4348484094
 41
0.7070707071
 42
50.0
 43
0.0
 44
0.0
 50
0.0
 51
0.0
 71
0
 72
100
 73
1
 74
1
 75
0
 76
0
 77
0
 78
0
  0
ENDTAB
  0
TABLE
  2
LTYPE
  5
5
100
AcDbSymbolTable
 70
6
  0
LTYPE
  5
14
100
AcDbSymbolTableRecord
100
AcDbLinetypeTableRecord
  2
BYBLOCK
 70
0
  3

 72
65
 73
0
 40
0.0
  0
LTYPE
  5
15
100
AcDbSymbolTableRecord
100
AcDbLinetypeTableRecord
  2
BYLAYER
 70
0
  3

 72
65
 73
0
 40
0.0
  0
LTYPE
  5
16
100
AcDbSymbolTableRecord
100
AcDbLinetypeTableRecord
  2
CONTINUOUS
 70
64
  3
Solid line
 72
65
 73
0
 40
0.0
  0
LTYPE
  5
1F5
100
AcDbSymbolTableRecord
100
AcDbLinetypeTableRecord
  2
CENTER
 70
64
  3
____ _ ____ _ ____ _ ____ _ ____ _ ____ _ ____
 72
65
 73
4
 40
0.6
 49
0.375
 74
0
 49
-0.075
 74
0
 49
0.075
 74
0
 49
-0.075
 74
0
  0
LTYPE
  5
1F6
100
AcDbSymbolTableRecord
100
AcDbLinetypeTableRecord
  2
HIDDEN
 70
64
  3
- - - - - - - - - - - - - - - - - - - -
 72
65
 73
2
 40
0.2
 49
0.1
 74
0
 49
-0.1
 74
0
  0
LTYPE
  5
1F7
100
AcDbSymbolTableRecord
100
AcDbLinetypeTableRecord
  2
PHANTOM
 70
64
  3
_____ _ _ _____ _ _ _____ _ _ _____
 72
65
 73
6
 40
0.8
 49
0.45
 74
0
 49
-0.05
 74
0
 49
0.1
 74
0
 49
-0.05
 74
0
 49
0.1
 74
0
 49
-0.05
 74
0
  0
LTYPE
  5
1F8
100
AcDbSymbolTableRecord
100
AcDbLinetypeTableRecord
  2
DOT
 70
64
  3
. . . . . . . . . . . . . . . . . . . .
 72
65
 73
2
 40
0.2
 49
0.1
 74
0
 49
-0.1
 74
0
  0
LTYPE
  5
1F9
100
AcDbSymbolTableRecord
100
AcDbLinetypeTableRecord
  2
DASHED
 70
64
  3
- - - - - - - - - - - - - - - - - - - -
 72
65
 73
2
 40
0.2
 49
0.1
 74
0
 49
-0.1
 74
0
  0
ENDTAB
  0
TABLE
  2
LAYER
  5
2
100
AcDbSymbolTable
 70
36
  0
LAYER
  5
10
100
AcDbSymbolTableRecord
100
AcDbLayerTableRecord
  2
0
 70
0
 62
7
  6
CONTINUOUS
370
-3
390
F
  0
LAYER
  5
1FA
100
AcDbSymbolTableRecord
100
AcDbLayerTableRecord
  2
DEFAULT_1
 70
0
 62
7
  6
CENTER
370
-3
390
F
  0
LAYER
  5
1FB
100
AcDbSymbolTableRecord
100
AcDbLayerTableRecord
  2
DEFAULT_2
 70
0
 62
7
  6
HIDDEN
370
-3
390
F
  0
LAYER
  5
1FC
100
AcDbSymbolTableRecord
100
AcDbLayerTableRecord
  2
DEFAULT_3
 70
0
 62
7
  6
PHANTOM
370
-3
390
F
  0
LAYER
  5
1FD
100
AcDbSymbolTableRecord
100
AcDbLayerTableRecord
  2
00_COMPONENTS
 70
0
 62
7
  6
CONTINUOUS
370
-3
390
F
  0
LAYER
  5
1FE
100
AcDbSymbolTableRecord
100
AcDbLayerTableRecord
  2
01_1_DEFAULT_DATUMS
 70
0
 62
7
  6
CONTINUOUS
370
-3
390
F
  0
LAYER
  5
1FF
100
AcDbSymbolTableRecord
100
AcDbLayerTableRecord
  2
01_PLANES
 70
0
 62
7
  6
CONTINUOUS
370
-3
390
F
  0
LAYER
  5
200
100
AcDbSymbolTableRecord
100
AcDbLayerTableRecord
  2
02_COORD_SYS
 70
0
 62
7
  6
CONTINUOUS
370
-3
390
F
  0
LAYER
  5
201
100
AcDbSymbolTableRecord
100
AcDbLayerTableRecord
  2
03_AXES
 70
0
 62
7
  6
CONTINUOUS
370
-3
390
F
  0
LAYER
  5
202
100
AcDbSymbolTableRecord
100
AcDbLayerTableRecord
  2
04_POINTS
 70
0
 62
7
  6
CONTINUOUS
370
-3
390
F
  0
LAYER
  5
203
100
AcDbSymbolTableRecord
100
AcDbLayerTableRecord
  2
05_CURVES
 70
0
 62
7
  6
CONTINUOUS
370
-3
390
F
  0
LAYER
  5
204
100
AcDbSymbolTableRecord
100
AcDbLayerTableRecord
  2
06_SURFS
 70
0
 62
7
  6
CONTINUOUS
370
-3
390
F
  0
LAYER
  5
205
100
AcDbSymbolTableRecord
100
AcDbLayerTableRecord
  2
07_COSMETICS
 70
0
 62
7
  6
CONTINUOUS
370
-3
390
F
  0
LAYER
  5
206
100
AcDbSymbolTableRecord
100
AcDbLayerTableRecord
  2
10_NOTES
 70
0
 62
7
  6
CONTINUOUS
370
-3
390
F
  0
LAYER
  5
207
100
AcDbSymbolTableRecord
100
AcDbLayerTableRecord
  2
11_NOTES_PUB
 70
0
 62
7
  6
CONTINUOUS
370
-3
390
F
  0
LAYER
  5
208
100
AcDbSymbolTableRecord
100
AcDbLayerTableRecord
  2
13_REF_GTOL
 70
0
 62
7
  6
CONTINUOUS
370
-3
390
F
  0
LAYER
  5
209
100
AcDbSymbolTableRecord
100
AcDbLayerTableRecord
  2
16_MISC
 70
0
 62
7
  6
CONTINUOUS
370
-3
390
F
  0
LAYER
  5
20A
100
AcDbSymbolTableRecord
100
AcDbLayerTableRecord
  2
17_NO_PRINT
 70
0
 62
7
  6
CONTINUOUS
370
-3
390
F
  0
LAYER
  5
20B
100
AcDbSymbolTableRecord
100
AcDbLayerTableRecord
  2
18_DATUM_CAMS_JOINTS
 70
0
 62
7
  6
CONTINUOUS
370
-3
390
F
  0
LAYER
  5
20C
100
AcDbSymbolTableRecord
100
AcDbLayerTableRecord
  2
19_DATUM_FUNCTIONAL
 70
0
 62
7
  6
CONTINUOUS
370
-3
390
F
  0
LAYER
  5
20D
100
AcDbSymbolTableRecord
100
AcDbLayerTableRecord
  2
20_DATUM_KINEMATIC_SCHEME
 70
0
 62
7
  6
CONTINUOUS
370
-3
390
F
  0
ENDTAB
  0
TABLE
  2
STYLE
  5
3
100
AcDbSymbolTable
 70
1
  0
STYLE
  5
11
100
AcDbSymbolTableRecord
100
AcDbTextStyleTableRecord
  2
STANDARD
 70
0
 40
0.0
 41
1.0
 50
0.0
 71
0
 42
0.2
  3
ARIAL.TTF
  4

  0
STYLE
  5
20E
100
AcDbSymbolTableRecord
100
AcDbTextStyleTableRecord
  2
TEXTSTYLE_1
 70
0
 40
0.0
 41
0.8
 50
0.0
 71
0
 42
0.2
  3
gdt
  4

  0
ENDTAB
  0
TABLE
  2
VIEW
  5
6
100
AcDbSymbolTable
 70
0
  0
ENDTAB
  0
TABLE
  2
UCS
  5
7
100
AcDbSymbolTable
 70
0
  0
ENDTAB
  0
TABLE
  2
APPID
  5
9
100
AcDbSymbolTable
 70
1
  0
APPID
  5
20F
100
AcDbSymbolTableRecord
100
AcDbRegAppTableRecord
  2
ACAD
 70
0
  0
ENDTAB
  0
TABLE
  2
BLOCK_RECORD
  5
1
100
AcDbSymbolTable
 70
0
  0
BLOCK_RECORD
  5
210
100
AcDbSymbolTableRecord
100
AcDbBlockTableRecord
  2
*Model_Space
  0
BLOCK_RECORD
  5
211
100
AcDbSymbolTableRecord
100
AcDbBlockTableRecord
  2
*Paper_Space
  0
BLOCK_RECORD
  5
212
100
AcDbSymbolTableRecord
100
AcDbBlockTableRecord
  2
_FILLED
  0
ENDTAB
  0
TABLE
  2
DIMSTYLE
  5
A
100
AcDbSymbolTable
 70
1
100
AcDbDimStyleTable
 71
0
  0
DIMSTYLE
105
213
100
AcDbSymbolTableRecord
100
AcDbDimStyleTableRecord
  2
STANDARD
 70
0
  3

  4

 40
1.0
 41
0.8622461987
 42
1.0
 43
0.38
 44
1.0
 45
0.0
 46
0.0
 47
0.01
 48
0.01
140
1.2071446782
141
0.09
142
0.0
143
25.4
144
1.0
145
0.0
146
1.0
147
0.625
 71
1
 72
0
 73
0
 74
0
 75
0
 76
0
 77
1
 78
8
 79
2
170
0
171
1
172
0
173
0
174
0
175
0
176
0
177
0
178
0
270
2
179
2
271
2
272
2
273
2
274
2
275
0
280
0
281
0
282
0
283
1
284
8
285
0
286
0
287
3
288
0
340
11
278
46
341
212
342
212
343
212
344
212
  0
ENDTAB
  0
ENDSEC
  0
SECTION
  2
BLOCKS
  0
BLOCK
  5
20
100
AcDbEntity
  8
0
100
AcDbBlockBegin
  2
*Model_Space
 70
0
 10
0.0
 20
0.0
 30
0.0
  3
*Model_Space
  1

  0
ENDBLK
  5
21
100
AcDbEntity
  8
0
100
AcDbBlockEnd
  0
BLOCK
  5
1C
100
AcDbEntity
  8
0
100
AcDbBlockBegin
  2
*Paper_Space
 70
0
 10
0.0
 20
0.0
 30
0.0
  3
*Paper_Space
  1

  0
ENDBLK
  5
1D
100
AcDbEntity
  8
0
100
AcDbBlockEnd
  0
BLOCK
  5
214
100
AcDbEntity
  8
0
100
AcDbBlockBegin
  2
_FILLED
 70
64
 10
0.0
 20
0.0
  3
_FILLED
  1

  0
SOLID
  5
215
100
AcDbEntity
  8
0
  6
BYBLOCK
 62
0
100
AcDbTrace
 10
0.0
 20
0.0
 11
-1.0
 21
0.25
 12
-1.0
 22
-0.25
 13
-1.0
 23
-0.25
  0
ENDBLK
  5
216
100
AcDbEntity
  8
0
  6
BYBLOCK
 62
0
100
AcDbBlockEnd
  0
ENDSEC
  0
SECTION
  2
ENTITIES
  0
LINE
  5
217
100
AcDbEntity
  8
0
100
AcDbLine
 62
7
  6
BYLAYER
 10
39.5541260339
 20
8.2303548276
 11
42.2399089873
 21
8.8332450029
  0
LINE
  5
218
100
AcDbEntity
  8
0
100
AcDbLine
 62
7
  6
BYLAYER
 10
37.3547291264
 20
7.9885434527
 11
39.5541260339
 21
8.2303548276
  0
LINE
  5
219
100
AcDbEntity
  8
0
100
AcDbLine
 62
7
  6
BYLAYER
 10
39.4675561581
 20
94.4547644182
 11
35.5784850535
 21
92.2094215719
  0
LINE
  5
21A
100
AcDbEntity
  8
0
100
AcDbLine
 62
7
  6
BYLAYER
 10
37.3547291264
 20
7.9885434527
 11
35.233399951
 21
9.2132657162
  0
LINE
  5
21B
100
AcDbEntity
  8
0
100
AcDbLine
 62
7
  6
BYLAYER
 10
17.5556568223
 20
19.4192845792
 11
15.4343276469
 21
20.6440068428
  0
LINE
  5
21C
100
AcDbEntity
  8
0
100
AcDbLine
 62
7
  6
BYLAYER
 10
37.1269334489
 20
8.3121821603
 11
15.2065319693
 21
20.9676455504
  0
LINE
  5
21D
100
AcDbEntity
  8
0
100
AcDbLine
 62
7
  6
BYLAYER
 10
38.7718296674
 20
8.1443457224
 11
39.1845873626
 21
7.906045347
  0
LINE
  5
21E
100
AcDbEntity
  8
0
100
AcDbLine
 62
7
  6
BYLAYER
 10
34.1538407888
 20
88.7886491542
 11
32.3193585055
 21
87.7295166363
  0
LINE
  5
21F
100
AcDbEntity
  8
0
100
AcDbLine
 62
7
  6
BYLAYER
 10
26.3089758892
 20
84.2594413284
 11
23.6573364997
 21
82.7285257513
  0
LINE
  5
220
100
AcDbEntity
  8
0
100
AcDbLine
 62
7
  6
BYLAYER
 10
44.5546865026
 20
94.2167051898
 11
43.6167825475
 21
93.6752093211
  0
LINE
  5
221
100
AcDbEntity
  8
0
100
AcDbLine
 62
7
  6
BYLAYER
 10
36.9533202525
 20
89.8280805357
 11
27.5042385116
 21
84.3725158343
  0
LINE
  5
222
100
AcDbEntity
  8
0
100
AcDbLine
 62
7
  6
BYLAYER
 10
15.4343276469
 20
20.6440068428
 11
15.2065319693
 21
20.9676455504
  0
LINE
  5
223
100
AcDbEntity
  8
0
100
AcDbLine
 62
7
  6
BYLAYER
 10
17.3278611447
 20
19.7429232868
 11
17.5556568223
 21
19.4192845792
  0
LINE
  5
224
100
AcDbEntity
  8
0
100
AcDbLine
 62
7
  6
BYLAYER
 10
17.5556568223
 20
19.4192845792
 11
17.8351984027
 21
19.4500186108
  0
LINE
  5
225
100
AcDbEntity
  8
0
100
AcDbLine
 62
7
  6
BYLAYER
 10
29.3910970615
 20
76.6757553607
 11
32.0427364511
 21
78.2066709377
  0
LINE
  5
226
100
AcDbEntity
  8
0
100
AcDbLine
 62
7
  6
BYLAYER
 10
47.2924985479
 20
12.6017059839
 11
47.3758030484
 21
12.5536111962
  0
LINE
  5
227
100
AcDbEntity
  8
0
100
AcDbLine
 62
7
  6
BYLAYER
 10
47.2522410443
 20
13.2987754828
 11
45.5538399181
 21
14.2793256472
  0
LINE
  5
228
100
AcDbEntity
  8
0
100
AcDbLine
 62
7
  6
BYLAYER
 10
49.1286209291
 20
13.483944789
 11
49.0579087347
 21
13.5247695699
  0
LINE
  5
229
100
AcDbEntity
  8
0
100
AcDbLine
 62
7
  6
BYLAYER
 10
35.233399951
 20
9.2132657162
 11
35.0056042734
 21
9.5369044238
  0
LINE
  5
22A
100
AcDbEntity
  8
0
100
AcDbLine
 62
7
  6
BYLAYER
 10
23.7294561347
 20
72.8341251137
 11
18.8733893719
 21
70.0304903964
  0
LINE
  5
22B
100
AcDbEntity
  8
0
100
AcDbLine
 62
7
  6
BYLAYER
 10
19.0739512725
 20
70.0445389356
 11
23.7903921088
 21
72.7675610677
  0
LINE
  5
22C
100
AcDbEntity
  8
0
100
AcDbLine
 62
7
  6
BYLAYER
 10
47.8291461911
 20
86.2916162153
 11
48.8049847662
 21
86.8550135163
  0
LINE
  5
22D
100
AcDbEntity
  8
0
100
AcDbLine
 62
7
  6
BYLAYER
 10
32.0427364511
 20
77.1772210786
 11
41.2036185162
 21
82.4663888622
  0
LINE
  5
22E
100
AcDbEntity
  8
0
100
AcDbLine
 62
7
  6
BYLAYER
 10
32.0427364511
 20
75.1039617526
 11
29.3910970615
 21
73.5730461756
  0
LINE
  5
22F
100
AcDbEntity
  8
0
100
AcDbLine
 62
7
  6
BYLAYER
 10
49.4686129182
 20
14.9143255321
 11
49.4809980421
 21
14.9071751393
  0
LINE
  5
230
100
AcDbEntity
  8
0
100
AcDbLine
 62
7
  6
BYLAYER
 10
49.8878544872
 20
15.380028988
 11
49.6219284658
 21
15.5335579748
  0
LINE
  5
231
100
AcDbEntity
  8
0
100
AcDbLine
 62
7
  6
BYLAYER
 10
49.7527844314
 20
16.0620774923
 11
50.4109997973
 21
15.6820652706
  0
LINE
  5
232
100
AcDbEntity
  8
0
100
AcDbLine
 62
7
  6
BYLAYER
 10
49.8033763965
 20
16.2664154519
 11
50.7646622557
 21
15.7114293578
  0
LINE
  5
233
100
AcDbEntity
  8
0
100
AcDbLine
 62
7
  6
BYLAYER
 10
37.1269334489
 20
8.3121821603
 11
37.3547291264
 21
7.9885434527
  0
LINE
  5
234
100
AcDbEntity
  8
0
100
AcDbLine
 62
7
  6
BYLAYER
 10
15.2065319693
 20
56.2677498483
 11
15.2065319693
 21
20.9676455504
  0
LINE
  5
235
100
AcDbEntity
  8
0
100
AcDbLine
 62
7
  6
BYLAYER
 10
46.46752482
 20
82.3303906722
 11
42.5784537153
 21
80.0850478259
  0
LINE
  5
236
100
AcDbEntity
  8
0
100
AcDbLine
 62
7
  6
BYLAYER
 10
35.0481208987
 20
75.2479658722
 11
32.71449069
 21
73.9006518854
  0
LINE
  5
237
100
AcDbEntity
  8
0
100
AcDbLine
 62
7
  6
BYLAYER
 10
30.0982067867
 20
72.3483030039
 11
35.0481208987
 21
75.2061201901
  0
LINE
  5
238
100
AcDbEntity
  8
0
100
AcDbLine
 62
7
  6
BYLAYER
 10
22.3245608349
 20
66.5715200822
 11
22.6781127535
 21
66.7756421591
  0
LINE
  5
239
100
AcDbEntity
  8
0
100
AcDbLine
 62
7
  6
BYLAYER
 10
20.4108300478
 20
64.4689902475
 11
21.9298773541
 21
65.3460073837
  0
LINE
  5
23A
100
AcDbEntity
  8
0
100
AcDbLine
 62
7
  6
BYLAYER
 10
24.0744415755
 20
65.9694895755
 11
23.7208896569
 21
65.7653674985
  0
LINE
  5
23B
100
AcDbEntity
  8
0
100
AcDbLine
 62
7
  6
BYLAYER
 10
18.7491221937
 20
69.7558188315
 11
18.7491221937
 21
58.55358602
  0
LINE
  5
23C
100
AcDbEntity
  8
0
100
AcDbLine
 62
7
  6
BYLAYER
 10
20.4108300478
 20
64.4689902475
 11
20.4108300478
 21
62.8359854133
  0
LINE
  5
23D
100
AcDbEntity
  8
0
100
AcDbLine
 62
7
  6
BYLAYER
 10
22.915935841
 20
64.282300284
 11
20.4108300478
 21
62.8359854133
  0
LINE
  5
23E
100
AcDbEntity
  8
0
100
AcDbLine
 62
7
  6
BYLAYER
 10
22.3244868893
 20
68.1960290729
 11
22.3245608349
 21
66.5715200822
  0
LINE
  5
23F
100
AcDbEntity
  8
0
100
AcDbLine
 62
7
  6
BYLAYER
 10
22.6735546726
 20
80.5540425286
 11
22.6735546726
 21
73.9875500742
  0
LINE
  5
240
100
AcDbEntity
  8
0
100
AcDbLine
 62
7
  6
BYLAYER
 10
22.678057391
 20
67.9918996666
 11
22.6781127535
 21
66.7756421591
  0
LINE
  5
241
100
AcDbEntity
  8
0
100
AcDbLine
 62
7
  6
BYLAYER
 10
23.451401866
 20
62.5638004683
 11
23.451401866
 21
62.7135550031
  0
LINE
  5
242
100
AcDbEntity
  8
0
100
AcDbLine
 62
7
  6
BYLAYER
 10
21.7386886158
 20
55.918242138
 11
21.5291473452
 21
55.526156809
  0
LINE
  5
243
100
AcDbEntity
  8
0
100
AcDbLine
 62
7
  6
BYLAYER
 10
25.7949885326
 20
61.3561387547
 11
25.6047590094
 21
61.2320413743
  0
LINE
  5
244
100
AcDbEntity
  8
0
100
AcDbLine
 62
7
  6
BYLAYER
 10
18.829248126
 20
58.5998464724
 11
15.4292709327
 21
56.636880442
  0
LINE
  5
245
100
AcDbEntity
  8
0
100
AcDbLine
 62
7
  6
BYLAYER
 10
15.6441175186
 20
56.6897694673
 11
18.9954640905
 21
58.624658763
  0
LINE
  5
246
100
AcDbEntity
  8
0
100
AcDbLine
 62
7
  6
BYLAYER
 10
21.9311159569
 20
60.2027875942
 11
24.0139192677
 21
61.4052874684
  0
LINE
  5
247
100
AcDbEntity
  8
0
100
AcDbLine
 62
7
  6
BYLAYER
 10
24.1585247266
 20
60.6722866629
 11
22.6382256821
 21
59.7945468397
  0
LINE
  5
248
100
AcDbEntity
  8
0
100
AcDbLine
 62
7
  6
BYLAYER
 10
28.525311431
 20
62.9335365933
 11
25.794697508
 21
61.3570253203
  0
LINE
  5
249
100
AcDbEntity
  8
0
100
AcDbLine
 62
7
  6
BYLAYER
 10
50.8679304481
 20
15.6005922671
 11
50.7646521319
 21
15.7114117972
  0
LINE
  5
24A
100
AcDbEntity
  8
0
100
AcDbLine
 62
7
  6
BYLAYER
 10
51.0066978849
 20
15.442428514
 11
50.8679304481
 21
15.6005922671
  0
LINE
  5
24B
100
AcDbEntity
  8
0
100
AcDbLine
 62
7
  6
BYLAYER
 10
24.4882787849
 20
56.6996830149
 11
24.8281942392
 21
56.947803761
  0
LINE
  5
24C
100
AcDbEntity
  8
0
100
AcDbLine
 62
7
  6
BYLAYER
 10
21.5291473452
 20
55.526156809
 11
21.3702117748
 21
55.419538089
  0
LINE
  5
24D
100
AcDbEntity
  8
0
100
AcDbLine
 62
7
  6
BYLAYER
 10
24.9171693547
 20
57.006452229
 11
24.8281022806
 21
56.9479656101
  0
LINE
  5
24E
100
AcDbEntity
  8
0
100
AcDbLine
 62
7
  6
BYLAYER
 10
24.5679309564
 20
56.7515481199
 11
24.4882787849
 21
56.6996830149
  0
LINE
  5
24F
100
AcDbEntity
  8
0
100
AcDbLine
 62
7
  6
BYLAYER
 10
28.1201383993
 20
59.7795843554
 11
30.9244953663
 21
61.3986709405
  0
LINE
  5
250
100
AcDbEntity
  8
0
100
AcDbLine
 62
7
  6
BYLAYER
 10
20.3820925662
 20
55.2324688748
 11
21.8132276166
 21
56.0587301493
  0
LINE
  5
251
100
AcDbEntity
  8
0
100
AcDbLine
 62
7
  6
BYLAYER
 10
32.2757802111
 20
59.6100850082
 11
31.9222282925
 21
59.4059629312
  0
LINE
  5
252
100
AcDbEntity
  8
0
100
AcDbLine
 62
7
  6
BYLAYER
 10
29.3910970615
 20
73.5730461756
 11
29.3910970615
 21
76.6757553607
  0
LINE
  5
253
100
AcDbEntity
  8
0
100
AcDbLine
 62
7
  6
BYLAYER
 10
25.0520014824
 20
55.1169316336
 11
24.5019991925
 21
54.7993785845
  0
LINE
  5
254
100
AcDbEntity
  8
0
100
AcDbLine
 62
7
  6
BYLAYER
 10
24.1711470505
 20
54.0887293214
 11
26.8342113483
 21
55.6262906027
  0
LINE
  5
255
100
AcDbEntity
  8
0
100
AcDbLine
 62
7
  6
BYLAYER
 10
27.3842141286
 20
54.6736642638
 11
24.7211532273
 21
53.1361049434
  0
LINE
  5
256
100
AcDbEntity
  8
0
100
AcDbLine
 62
7
  6
BYLAYER
 10
35.6977562101
 20
58.8506768012
 11
36.0513081287
 21
59.0547988781
  0
LINE
  5
257
100
AcDbEntity
  8
0
100
AcDbLine
 62
7
  6
BYLAYER
 10
25.772447524
 20
52.7615907359
 11
26.3224498138
 21
53.079143785
  0
LINE
  5
258
100
AcDbEntity
  8
0
100
AcDbLine
 62
7
  6
BYLAYER
 10
26.0162337711
 20
53.4312355953
 11
26.2452535983
 21
53.0345638207
  0
LINE
  5
259
100
AcDbEntity
  8
0
100
AcDbLine
 62
7
  6
BYLAYER
 10
30.803152007
 20
50.1719288499
 11
30.5936685228
 21
50.8059327609
  0
LINE
  5
25A
100
AcDbEntity
  8
0
100
AcDbLine
 62
7
  6
BYLAYER
 10
39.1162754336
 20
8.1822156057
 11
39.1845873626
 21
7.906045347
  0
LINE
  5
25B
100
AcDbEntity
  8
0
100
AcDbLine
 62
7
  6
BYLAYER
 10
32.0427364511
 20
78.2066709377
 11
32.0427364511
 21
75.1039617526
  0
LINE
  5
25C
100
AcDbEntity
  8
0
100
AcDbLine
 62
7
  6
BYLAYER
 10
32.891290201
 20
70.7357520236
 11
32.891290201
 21
67.4697423551
  0
LINE
  5
25D
100
AcDbEntity
  8
0
100
AcDbLine
 62
7
  6
BYLAYER
 10
29.7972681169
 20
53.4013344737
 11
33.2460738797
 21
55.3924915237
  0
LINE
  5
25E
100
AcDbEntity
  8
0
100
AcDbLine
 62
7
  6
BYLAYER
 10
35.9672440011
 20
55.4876936481
 11
37.4862913074
 21
56.3647107842
  0
LINE
  5
25F
100
AcDbEntity
  8
0
100
AcDbLine
 62
7
  6
BYLAYER
 10
37.5890287072
 20
56.2742713608
 11
35.9672440011
 21
55.3379391132
  0
LINE
  5
260
100
AcDbEntity
  8
0
100
AcDbLine
 62
7
  6
BYLAYER
 10
40.3446945945
 20
57.7641473724
 11
58.0222905248
 21
67.9702512192
  0
LINE
  5
261
100
AcDbEntity
  8
0
100
AcDbLine
 62
7
  6
BYLAYER
 10
40.6695236733
 20
57.1003554413
 11
58.3471196036
 21
67.3064592881
  0
LINE
  5
262
100
AcDbEntity
  8
0
100
AcDbLine
 62
7
  6
BYLAYER
 10
27.1408366981
 20
52.1052905145
 11
27.2256024679
 21
52.1483515855
  0
LINE
  5
263
100
AcDbEntity
  8
0
100
AcDbLine
 62
7
  6
BYLAYER
 10
27.5122697337
 20
52.2752883105
 11
27.4262090124
 21
52.2321193258
  0
LINE
  5
264
100
AcDbEntity
  8
0
100
AcDbLine
 62
7
  6
BYLAYER
 10
27.1408366981
 20
52.1052905145
 11
27.4264385983
 21
52.231686033
  0
LINE
  5
265
100
AcDbEntity
  8
0
100
AcDbLine
 62
7
  6
BYLAYER
 10
35.7054341698
 20
55.2471534466
 11
35.9672440011
 21
55.3379391132
  0
LINE
  5
266
100
AcDbEntity
  8
0
100
AcDbLine
 62
7
  6
BYLAYER
 10
21.7386886158
 20
55.918242138
 11
24.0149087216
 21
54.6040955771
  0
LINE
  5
267
100
AcDbEntity
  8
0
100
AcDbLine
 62
7
  6
BYLAYER
 10
27.7352378021
 20
52.4562111727
 11
30.5936685228
 21
50.8059327609
  0
LINE
  5
268
100
AcDbEntity
  8
0
100
AcDbLine
 62
7
  6
BYLAYER
 10
40.6695236733
 20
45.657589669
 11
40.655501136
 21
45.6656854015
  0
LINE
  5
269
100
AcDbEntity
  8
0
100
AcDbLine
 62
7
  6
BYLAYER
 10
51.6009040829
 20
14.3552818394
 11
51.0066978849
 21
15.442428514
  0
LINE
  5
26A
100
AcDbEntity
  8
0
100
AcDbLine
 62
7
  6
BYLAYER
 10
35.0481208987
 20
74.0017052546
 11
35.0481208987
 21
78.4924685488
  0
LINE
  5
26B
100
AcDbEntity
  8
0
100
AcDbLine
 62
7
  6
BYLAYER
 10
35.9672440011
 20
55.4876936481
 11
35.9672440011
 21
55.3379391132
  0
LINE
  5
26C
100
AcDbEntity
  8
0
100
AcDbLine
 62
7
  6
BYLAYER
 10
37.0940850321
 20
58.0445242175
 11
37.0940850321
 21
59.6689905167
  0
LINE
  5
26D
100
AcDbEntity
  8
0
100
AcDbLine
 62
7
  6
BYLAYER
 10
37.1269334489
 20
8.3121821603
 11
37.1269334489
 21
43.6122864581
  0
LINE
  5
26E
100
AcDbEntity
  8
0
100
AcDbLine
 62
7
  6
BYLAYER
 10
34.3033160012
 20
52.1927374116
 11
30.803152007
 21
50.1719288499
  0
LINE
  5
26F
100
AcDbEntity
  8
0
100
AcDbLine
 62
7
  6
BYLAYER
 10
34.2006538117
 20
50.978945936
 11
34.8238576112
 21
51.3387506697
  0
LINE
  5
270
100
AcDbEntity
  8
0
100
AcDbLine
 62
7
  6
BYLAYER
 10
36.780420185
 20
51.6297317493
 11
39.0078158192
 21
52.9157115421
  0
LINE
  5
271
100
AcDbEntity
  8
0
100
AcDbLine
 62
7
  6
BYLAYER
 10
31.9516320902
 20
48.5528211724
 11
34.9442569744
 21
50.2806036414
  0
LINE
  5
272
100
AcDbEntity
  8
0
100
AcDbLine
 62
7
  6
BYLAYER
 10
21.9311159569
 20
60.2027875942
 11
22.6382256821
 21
59.7945468397
  0
LINE
  5
273
100
AcDbEntity
  8
0
100
AcDbLine
 62
7
  6
BYLAYER
 10
36.780420185
 20
51.6297317493
 11
37.4875299101
 21
51.2214909948
  0
LINE
  5
274
100
AcDbEntity
  8
0
100
AcDbLine
 62
7
  6
BYLAYER
 10
31.8521456337
 20
59.4144694508
 11
31.8652579003
 21
59.3837003275
  0
LINE
  5
275
100
AcDbEntity
  8
0
100
AcDbLine
 62
7
  6
BYLAYER
 10
31.8521456337
 20
59.4144694508
 11
31.864116035
 21
59.3835007037
  0
LINE
  5
276
100
AcDbEntity
  8
0
100
AcDbLine
 62
7
  6
BYLAYER
 10
33.2460738797
 20
55.3924915237
 11
34.3033160012
 21
52.1927374116
  0
LINE
  5
277
100
AcDbEntity
  8
0
100
AcDbLine
 62
7
  6
BYLAYER
 10
38.0531190674
 20
80.4813103828
 11
38.0531190674
 21
80.6474580148
  0
LINE
  5
278
100
AcDbEntity
  8
0
100
AcDbLine
 62
7
  6
BYLAYER
 10
39.0078158192
 20
52.0992535694
 11
39.0078158192
 21
53.7322584037
  0
LINE
  5
279
100
AcDbEntity
  8
0
100
AcDbLine
 62
7
  6
BYLAYER
 10
39.0078289547
 20
52.099230818
 11
37.4875299101
 21
51.2214909948
  0
LINE
  5
27A
100
AcDbEntity
  8
0
100
AcDbLine
 62
7
  6
BYLAYER
 10
28.2375735636
 20
59.3317587094
 11
25.3216702686
 21
61.0152181767
  0
LINE
  5
27B
100
AcDbEntity
  8
0
100
AcDbLine
 62
7
  6
BYLAYER
 10
40.6695236733
 20
45.657589669
 11
40.6695236733
 21
57.1003554413
  0
LINE
  5
27C
100
AcDbEntity
  8
0
100
AcDbLine
 62
7
  6
BYLAYER
 10
42.0481208987
 20
74.0017052546
 11
42.0481208987
 21
78.4924685488
  0
LINE
  5
27D
100
AcDbEntity
  8
0
100
AcDbLine
 62
7
  6
BYLAYER
 10
36.6889592997
 20
44.539799269
 11
40.0402933396
 21
46.4746813294
  0
LINE
  5
27E
100
AcDbEntity
  8
0
100
AcDbLine
 62
7
  6
BYLAYER
 10
42.291304504
 20
46.593919679
 11
40.6695236733
 21
45.657589669
  0
LINE
  5
27F
100
AcDbEntity
  8
0
100
AcDbLine
 62
7
  6
BYLAYER
 10
37.1269334489
 20
43.6122864581
 11
40.6624526349
 21
45.6535072275
  0
LINE
  5
280
100
AcDbEntity
  8
0
100
AcDbLine
 62
7
  6
BYLAYER
 10
31.831682994
 20
59.458238101
 11
31.9222282925
 21
59.4059629312
  0
LINE
  5
281
100
AcDbEntity
  8
0
100
AcDbLine
 62
7
  6
BYLAYER
 10
32.2757802111
 20
59.6100850082
 11
31.5702611848
 21
60.017407393
  0
LINE
  5
282
100
AcDbEntity
  8
0
100
AcDbLine
 62
7
  6
BYLAYER
 10
22.3245608349
 20
66.5715200822
 11
23.7208896569
 21
65.7653674985
  0
LINE
  5
283
100
AcDbEntity
  8
0
100
AcDbLine
 62
7
  6
BYLAYER
 10
35.6977562101
 20
58.8506768012
 11
37.0940850321
 21
58.0445242175
  0
LINE
  5
284
100
AcDbEntity
  8
0
100
AcDbLine
 62
7
  6
BYLAYER
 10
37.0940850321
 20
58.4527649721
 11
36.0513081287
 21
59.0547988781
  0
LINE
  5
285
100
AcDbEntity
  8
0
100
AcDbLine
 62
7
  6
BYLAYER
 10
22.6781127535
 20
66.7756421591
 11
24.0744415755
 21
65.9694895755
  0
LINE
  5
286
100
AcDbEntity
  8
0
100
AcDbLine
 62
7
  6
BYLAYER
 10
22.6735546726
 20
73.9875500742
 11
24.2501849718
 21
72.2653015446
  0
LINE
  5
287
100
AcDbEntity
  8
0
100
AcDbLine
 62
7
  6
BYLAYER
 10
47.3024378782
 20
12.4296038066
 11
47.2522410443
 21
13.2987754828
  0
LINE
  5
288
100
AcDbEntity
  8
0
100
AcDbLine
 62
7
  6
BYLAYER
 10
46.5481208987
 20
70.4953155709
 11
46.5481208987
 21
74.0017052546
  0
LINE
  5
289
100
AcDbEntity
  8
0
100
AcDbLine
 62
7
  6
BYLAYER
 10
18.8292317025
 20
58.5998651169
 11
18.9956447814
 21
58.6246000455
  0
LINE
  5
28A
100
AcDbEntity
  8
0
100
AcDbLine
 62
7
  6
BYLAYER
 10
37.0940850321
 20
59.6689905167
 11
22.3244868893
 21
68.1960290729
  0
LINE
  5
28B
100
AcDbEntity
  8
0
100
AcDbLine
 62
7
  6
BYLAYER
 10
24.2501849718
 20
72.2653015446
 11
25.1568380372
 21
71.5938199177
  0
LINE
  5
28C
100
AcDbEntity
  8
0
100
AcDbLine
 62
7
  6
BYLAYER
 10
15.6441175186
 20
56.6897694673
 11
15.4292796602
 21
56.6368653469
  0
LINE
  5
28D
100
AcDbEntity
  8
0
100
AcDbLine
 62
7
  6
BYLAYER
 10
25.1568380372
 20
71.5938199177
 11
28.1276220256
 21
69.8786757841
  0
LINE
  5
28E
100
AcDbEntity
  8
0
100
AcDbLine
 62
7
  6
BYLAYER
 10
32.891290201
 20
70.7357520236
 11
30.0982067867
 21
72.3483030039
  0
LINE
  5
28F
100
AcDbEntity
  8
0
100
AcDbLine
 62
7
  6
BYLAYER
 10
32.6649240586
 20
77.5364145019
 11
32.9122069777
 21
77.2662924295
  0
LINE
  5
290
100
AcDbEntity
  8
0
100
AcDbLine
 62
7
  6
BYLAYER
 10
56.1550794557
 20
17.70390504
 11
56.1550794557
 21
20.0718057886
  0
LINE
  5
291
100
AcDbEntity
  8
0
100
AcDbLine
 62
7
  6
BYLAYER
 10
32.9122069777
 20
77.2662924295
 11
33.8188600431
 21
76.5948108026
  0
LINE
  5
292
100
AcDbEntity
  8
0
100
AcDbLine
 62
7
  6
BYLAYER
 10
58.3471196036
 20
21.3373732037
 11
58.3471196036
 21
67.3064592881
  0
LINE
  5
293
100
AcDbEntity
  8
0
100
AcDbLine
 62
7
  6
BYLAYER
 10
49.1356919675
 20
13.5696774723
 11
49.843316017
 21
16.4277292204
  0
LINE
  5
294
100
AcDbEntity
  8
0
100
AcDbLine
 62
7
  6
BYLAYER
 10
49.4809980421
 20
14.9071751393
 11
49.1286209291
 21
13.483944789
  0
LINE
  5
295
100
AcDbEntity
  8
0
100
AcDbLine
 62
7
  6
BYLAYER
 10
19.0739512725
 20
70.0445389356
 11
18.8734382073
 21
70.0304057129
  0
LINE
  5
296
100
AcDbEntity
  8
0
100
AcDbLine
 62
7
  6
BYLAYER
 10
33.8188600431
 20
76.5948108026
 11
35.0481208987
 21
75.8851127723
  0
LINE
  5
297
100
AcDbEntity
  8
0
100
AcDbLine
 62
7
  6
BYLAYER
 10
44.2049515964
 20
77.2676584855
 11
42.0446190437
 21
78.51489885
  0
LWPOLYLINE
  5
298
100
AcDbEntity
  8
0
100
AcDbPolyline
 62
7
  6
BYLAYER
 90
4
 70
0
 10
43.5017128197
 20
77.6736643975
 10
45.2329523479
 20
77.0127373778
 10
49.5408853799
 20
74.5256073486
 10
58.0222905248
 20
67.9702512192
  0
LINE
  5
299
100
AcDbEntity
  8
0
100
AcDbLine
 62
7
  6
BYLAYER
 10
58.3471196036
 20
21.3373732037
 11
49.843316017
 21
16.4277292204
  0
LINE
  5
29A
100
AcDbEntity
  8
0
100
AcDbLine
 62
7
  6
BYLAYER
 10
49.8878544872
 20
15.380028988
 11
50.4109997973
 21
15.6820652706
  0
LINE
  5
29B
100
AcDbEntity
  8
0
100
AcDbLine
 62
7
  6
BYLAYER
 10
45.6771771261
 20
12.3894173338
 11
47.2522410443
 21
13.2987754828
  0
LINE
  5
29C
100
AcDbEntity
  8
0
100
AcDbLine
 62
7
  6
BYLAYER
 10
39.1845873626
 20
7.906045347
 11
39.868567097
 21
8.3009388736
  0
LINE
  5
29D
100
AcDbEntity
  8
0
100
AcDbLine
 62
7
  6
BYLAYER
 10
51.3020644734
 20
14.9020322584
 11
56.1550794557
 21
17.70390504
  0
LINE
  5
29E
100
AcDbEntity
  8
0
100
AcDbLine
 62
7
  6
BYLAYER
 10
49.1356919675
 20
13.5696774723
 11
47.3758030484
 21
12.5536111962
  0
LINE
  5
29F
100
AcDbEntity
  8
0
100
AcDbLine
 62
7
  6
BYLAYER
 10
47.3024378782
 20
12.4296038066
 11
49.1286209291
 21
13.483944789
  0
LINE
  5
2A0
100
AcDbEntity
  8
0
100
AcDbLine
 62
7
  6
BYLAYER
 10
51.4318183278
 20
13.2623338971
 11
46.1940566212
 21
10.2383288167
  0
ARC
  5
2A1
100
AcDbEntity
  8
0
100
AcDbCircle
 62
7
  6
BYLAYER
 10
-118.1785239159
 20
7.6155615131
 40
165.627955102
100
AcDbArc
 50
1.7084757073
 51
1.9768720955
  0
ARC
  5
2A2
100
AcDbEntity
  8
0
100
AcDbCircle
 62
7
  6
BYLAYER
 10
39.238602915
 20
45.0107976431
 40
1.5621141191
100
AcDbArc
 50
24.2709489094
 51
24.7580773732
  0
ARC
  5
2A3
100
AcDbEntity
  8
0
100
AcDbCircle
 62
7
  6
BYLAYER
 10
1.9171551835
 20
46.6282646514
 40
32.551354602
100
AcDbArc
 50
23.1288987632
 51
26.9849884311
  0
ARC
  5
2A4
100
AcDbEntity
  8
0
100
AcDbCircle
 62
7
  6
BYLAYER
 10
30.6898156389
 20
57.2233392534
 40
6.0184633856
100
AcDbArc
 50
200.4867605807
 51
204.8073046974
  0
ARC
  5
2A5
100
AcDbEntity
  8
0
100
AcDbCircle
 62
7
  6
BYLAYER
 10
30.1266283477
 20
56.900285115
 40
6.0041869877
100
AcDbArc
 50
200.4816215705
 51
204.8124437076
  0
ARC
  5
2A6
100
AcDbEntity
  8
0
100
AcDbCircle
 62
7
  6
BYLAYER
 10
30.115342076
 20
56.8747015579
 40
5.9815059746
100
AcDbArc
 50
215.1854908399
 51
223.4434259255
  0
ARC
  5
2A7
100
AcDbEntity
  8
0
100
AcDbCircle
 62
7
  6
BYLAYER
 10
30.6390542007
 20
57.1707252752
 40
5.9476140193
100
AcDbArc
 50
215.1619211165
 51
223.4669956489
  0
ARC
  5
2A8
100
AcDbEntity
  8
0
100
AcDbCircle
 62
7
  6
BYLAYER
 10
23.2715298915
 20
52.9344867812
 40
4.5656716469
100
AcDbArc
 50
29.9978679415
 51
37.0073255372
  0
ARC
  5
2A9
100
AcDbEntity
  8
0
100
AcDbCircle
 62
7
  6
BYLAYER
 10
28.4396469536
 20
55.9178750821
 40
4.5464066929
100
AcDbArc
 50
209.9979714121
 51
214.6429345113
  0
ARC
  5
2AA
100
AcDbEntity
  8
0
100
AcDbCircle
 62
7
  6
BYLAYER
 10
23.298195509
 20
52.947376215
 40
4.5361342658
100
AcDbArc
 50
22.9701088891
 51
30.0252661907
  0
ARC
  5
2AB
100
AcDbEntity
  8
0
100
AcDbCircle
 62
7
  6
BYLAYER
 10
23.2219413085
 20
52.9063709546
 40
4.5217981384
100
AcDbArc
 50
29.9922061417
 51
36.9785012595
  0
ARC
  5
2AC
100
AcDbEntity
  8
0
100
AcDbCircle
 62
7
  6
BYLAYER
 10
23.2523056561
 20
52.9201226969
 40
4.4886267159
100
AcDbArc
 50
22.9959270333
 51
30.0339249141
  0
ARC
  5
2AD
100
AcDbEntity
  8
0
100
AcDbCircle
 62
7
  6
BYLAYER
 10
28.3881976124
 20
55.8914255647
 40
4.4886262818
100
AcDbArc
 50
202.9959266925
 51
210.0339252549
  0
ARC
  5
2AE
100
AcDbEntity
  8
0
100
AcDbCircle
 62
7
  6
BYLAYER
 10
28.3487728991
 20
55.8561295046
 40
4.4365438103
100
AcDbArc
 50
214.6540352906
 51
217.0146215654
  0
ARC
  5
2AF
100
AcDbEntity
  8
0
100
AcDbCircle
 62
7
  6
BYLAYER
 10
23.4273903001
 20
53.0478271216
 40
4.3729877413
100
AcDbArc
 50
37.0506434014
 51
37.5026412751
  0
ARC
  5
2B0
100
AcDbEntity
  8
0
100
AcDbCircle
 62
7
  6
BYLAYER
 10
27.5686633034
 20
57.6776245973
 40
4.0837202349
100
AcDbArc
 50
86.4864422109
 51
86.7819951475
  0
ARC
  5
2B1
100
AcDbEntity
  8
0
100
AcDbCircle
 62
7
  6
BYLAYER
 10
27.7806772362
 20
55.503477094
 40
3.8645553526
100
AcDbArc
 50
217.7395722041
 51
220.4099579604
  0
ARC
  5
2B2
100
AcDbEntity
  8
0
100
AcDbCircle
 62
7
  6
BYLAYER
 10
27.7364726647
 20
55.5491102688
 40
3.8488957434
100
AcDbArc
 50
199.7194688785
 51
202.266388827
  0
ARC
  5
2B3
100
AcDbEntity
  8
0
100
AcDbCircle
 62
7
  6
BYLAYER
 10
25.0441602623
 20
55.8720924015
 40
1.0033330682
100
AcDbArc
 50
98.4374600804
 51
100.6640129594
  0
ARC
  5
2B4
100
AcDbEntity
  8
0
100
AcDbCircle
 62
7
  6
BYLAYER
 10
38.5465166782
 20
77.993248673
 40
6.0122109043
100
AcDbArc
 50
265.6440251081
 51
267.7963686067
  0
ARC
  5
2B5
100
AcDbEntity
  8
0
100
AcDbCircle
 62
7
  6
BYLAYER
 10
38.545077988
 20
77.9689636839
 40
5.9878825608
100
AcDbArc
 50
265.6400934802
 51
267.8012214012
  0
ARC
  5
2B6
100
AcDbEntity
  8
0
100
AcDbCircle
 62
7
  6
BYLAYER
 10
38.6262885441
 20
77.4288354934
 40
5.4422266405
100
AcDbArc
 50
280.1020219745
 51
281.8962997348
  0
ARC
  5
2B7
100
AcDbEntity
  8
0
100
AcDbCircle
 62
7
  6
BYLAYER
 10
38.6295180165
 20
77.4136797141
 40
5.4267309882
100
AcDbArc
 50
280.0964551246
 51
281.8959208764
  0
ARC
  5
2B8
100
AcDbEntity
  8
0
100
AcDbCircle
 62
7
  6
BYLAYER
 10
29.0072571099
 20
80.3316724189
 40
5.1668017762
100
AcDbArc
 50
202.8692812118
 51
213.4769572427
  0
ARC
  5
2B9
100
AcDbEntity
  8
0
100
AcDbCircle
 62
7
  6
BYLAYER
 10
23.0823441447
 20
76.9114238863
 40
5.1386688958
100
AcDbArc
 50
22.8406605927
 51
33.5067525871
  0
ARC
  5
2BA
100
AcDbEntity
  8
0
100
AcDbCircle
 62
7
  6
BYLAYER
 10
23.1518646437
 20
76.9615029961
 40
5.0530569555
100
AcDbArc
 50
33.4684359946
 51
38.0628425844
  0
ARC
  5
2BB
100
AcDbEntity
  8
0
100
AcDbCircle
 62
7
  6
BYLAYER
 10
28.874903439
 20
80.2409395287
 40
5.0063568656
100
AcDbArc
 50
213.4463485118
 51
218.0836832916
  0
ARC
  5
2BC
100
AcDbEntity
  8
0
100
AcDbCircle
 62
7
  6
BYLAYER
 10
28.6934122362
 20
80.1951853877
 40
4.824585556
100
AcDbArc
 50
198.3047030992
 51
202.8242864081
  0
ARC
  5
2BD
100
AcDbEntity
  8
0
100
AcDbCircle
 62
7
  6
BYLAYER
 10
23.4189298491
 20
77.0529068777
 40
4.7735561753
100
AcDbArc
 50
18.2760613129
 51
22.8438215949
  0
ARC
  5
2BE
100
AcDbEntity
  8
0
100
AcDbCircle
 62
7
  6
BYLAYER
 10
38.2068538512
 20
76.480276447
 40
4.4570301221
100
AcDbArc
 50
248.3877271339
 51
251.6682908709
  0
ARC
  5
2BF
100
AcDbEntity
  8
0
100
AcDbCircle
 62
7
  6
BYLAYER
 10
38.2030647986
 20
76.4696603887
 40
4.4457532862
100
AcDbArc
 50
248.3827865228
 51
251.6716884505
  0
ARC
  5
2C0
100
AcDbEntity
  8
0
100
AcDbCircle
 62
7
  6
BYLAYER
 10
33.3750366536
 20
82.8542593648
 40
3.4539339372
100
AcDbArc
 50
27.3104547997
 51
34.7488350462
  0
ARC
  5
2C1
100
AcDbEntity
  8
0
100
AcDbCircle
 62
7
  6
BYLAYER
 10
37.3499355719
 20
85.1492342186
 40
3.4453547073
100
AcDbArc
 50
207.3015712708
 51
214.758508893
  0
ARC
  5
2C2
100
AcDbEntity
  8
0
100
AcDbCircle
 62
7
  6
BYLAYER
 10
24.2831671826
 20
78.1050460175
 40
3.4387610784
100
AcDbArc
 50
52.2436264523
 51
55.1635279372
  0
ARC
  5
2C3
100
AcDbEntity
  8
0
100
AcDbCircle
 62
7
  6
BYLAYER
 10
27.7453985804
 20
79.0755811155
 40
3.3777827414
100
AcDbArc
 50
232.2167572778
 51
235.1894378774
  0
ARC
  5
2C4
100
AcDbEntity
  8
0
100
AcDbCircle
 62
7
  6
BYLAYER
 10
37.2831965589
 20
85.1164254058
 40
3.371001878
100
AcDbArc
 50
201.2352409739
 51
207.3263418859
  0
ARC
  5
2C5
100
AcDbEntity
  8
0
100
AcDbCircle
 62
7
  6
BYLAYER
 10
33.4802917933
 20
82.9054961117
 40
3.3369043449
100
AcDbArc
 50
21.2045293593
 51
27.3579603519
  0
ARC
  5
2C6
100
AcDbEntity
  8
0
100
AcDbCircle
 62
7
  6
BYLAYER
 10
33.5066742168
 20
82.9458763488
 40
3.2935529664
100
AcDbArc
 50
34.7445365773
 51
40.9674928514
  0
ARC
  5
2C7
100
AcDbEntity
  8
0
100
AcDbCircle
 62
7
  6
BYLAYER
 10
37.18814753
 20
85.0328306066
 40
3.2460736447
100
AcDbArc
 50
214.6985947391
 51
221.0126473623
  0
ARC
  5
2C8
100
AcDbEntity
  8
0
100
AcDbCircle
 62
7
  6
BYLAYER
 10
24.8661563002
 20
79.1097337527
 40
2.2746032258
100
AcDbArc
 50
65.4485917094
 51
69.9057992401
  0
ARC
  5
2C9
100
AcDbEntity
  8
0
100
AcDbCircle
 62
7
  6
BYLAYER
 10
27.1779788774
 20
78.0701917061
 40
2.2207086389
100
AcDbArc
 50
245.3953010101
 51
249.9607744258
  0
ARC
  5
2CA
100
AcDbEntity
  8
0
100
AcDbCircle
 62
7
  6
BYLAYER
 10
34.4195091463
 20
83.9966201933
 40
1.8939000845
100
AcDbArc
 50
58.6430057292
 51
61.3682856737
  0
ARC
  5
2CB
100
AcDbEntity
  8
0
100
AcDbCircle
 62
7
  6
BYLAYER
 10
36.303600338
 20
83.9952899008
 40
1.8754276178
100
AcDbArc
 50
238.6296740878
 51
241.3817382758
  0
ARC
  5
2CC
100
AcDbEntity
  8
0
100
AcDbCircle
 62
7
  6
BYLAYER
 10
36.2359569398
 20
74.0029255523
 40
1.1878110084
100
AcDbArc
 50
180.0588629158
 51
192.6276126022
  0
ARC
  5
2CD
100
AcDbEntity
  8
0
100
AcDbCircle
 62
7
  6
BYLAYER
 10
36.2314026167
 20
74.0024943826
 40
1.1832791896
100
AcDbArc
 50
180.0382106133
 51
192.6553835871
  0
ARC
  5
2CE
100
AcDbEntity
  8
0
100
AcDbCircle
 62
7
  6
BYLAYER
 10
25.0396334936
 20
80.3357131209
 40
1.0133679113
100
AcDbArc
 50
120.0397204108
 51
131.6368608389
  0
ARC
  5
2CF
100
AcDbEntity
  8
0
100
AcDbCircle
 62
7
  6
BYLAYER
 10
27.0282718028
 20
76.8896592875
 40
1.0079173227
100
AcDbArc
 50
300.0055492298
 51
311.6654964443
  0
ARC
  5
2D0
100
AcDbEntity
  8
0
100
AcDbCircle
 62
7
  6
BYLAYER
 10
40.8281438208
 20
55.5842606921
 40
7.3536255165
100
AcDbArc
 50
207.4648423575
 51
215.2633624371
  0
ARC
  5
2D1
100
AcDbEntity
  8
0
100
AcDbCircle
 62
7
  6
BYLAYER
 10
76.1992876459
 20
66.2192841519
 40
48.1398717315
100
AcDbArc
 50
195.4421164734
 51
198.2809075967
  0
SPLINE
  5
2D2
100
AcDbEntity
  8
0
100
AcDbSpline
 62
7
  6
BYLAYER
 70
0
 71
3
 72
9
 73
5
 74
0
 42
0.0000001
 43
0.0000001
 44
0.0000000001
 40
0.0
 40
0.0
 40
0.0
 40
0.0
 40
0.4964455949
 40
1.0
 40
1.0
 40
1.0
 40
1.0
 10
39.5808630926
 20
72.0709797434
 30
0.0
 10
39.3739282791
 20
72.0340838949
 30
0.0
 10
38.9526267779
 20
71.983317279
 30
0.0
 10
38.5283907055
 20
71.9772824068
 30
0.0
 10
38.3153403026
 20
71.9854839106
 30
0.0
  0
SPLINE
  5
2D3
100
AcDbEntity
  8
0
100
AcDbSpline
 62
7
  6
BYLAYER
 70
0
 71
3
 72
11
 73
7
 74
0
 42
0.0000001
 43
0.0000001
 44
0.0000000001
 40
0.0
 40
0.0
 40
0.0
 40
0.0
 40
0.2571824214
 40
0.5105694349
 40
0.7586444992
 40
1.0
 40
1.0
 40
1.0
 40
1.0
 10
38.0898719023
 20
71.9984045962
 30
0.0
 10
37.9777109328
 20
72.0069553148
 30
0.0
 10
37.7554701891
 20
72.0302379534
 30
0.0
 10
37.4278402139
 20
72.0839499073
 30
0.0
 10
37.1107824203
 20
72.1557652614
 30
0.0
 10
36.9052380541
 20
72.2162103796
 30
0.0
 10
36.8050383324
 20
72.2494336515
 30
0.0
  0
SPLINE
  5
2D4
100
AcDbEntity
  8
0
100
AcDbSpline
 62
7
  6
BYLAYER
 70
0
 71
3
 72
11
 73
7
 74
0
 42
0.0000001
 43
0.0000001
 44
0.0000000001
 40
0.0
 40
0.0
 40
0.0
 40
0.0
 40
0.2664927841
 40
0.5223773766
 40
0.7670000421
 40
1.0
 40
1.0
 40
1.0
 40
1.0
 10
36.5652240071
 20
72.3365861878
 30
0.0
 10
36.4800192196
 20
72.3704085105
 30
0.0
 10
36.3150883914
 20
72.4421534632
 30
0.0
 10
36.0810587381
 20
72.5645064117
 30
0.0
 10
35.8669779272
 20
72.6985531453
 30
0.0
 10
35.7354659894
 20
72.7974787411
 30
0.0
 10
35.6738186724
 20
72.8487015327
 30
0.0
  0
SPLINE
  5
2D5
100
AcDbEntity
  8
0
100
AcDbSpline
 62
7
  6
BYLAYER
 70
0
 71
3
 72
9
 73
5
 74
0
 42
0.0000001
 43
0.0000001
 44
0.0000000001
 40
0.0
 40
0.0
 40
0.0
 40
0.0
 40
0.2544296535
 40
1.0
 40
1.0
 40
1.0
 40
1.0
 10
35.6738186724
 20
72.8487015327
 30
0.0
 10
35.660345697
 20
72.8598962358
 30
0.0
 10
35.6078611153
 20
72.9044555139
 30
0.0
 10
35.5572987086
 20
72.9512897857
 30
0.0
 10
35.5209100886
 20
72.987493742
 30
0.0
  0
SPLINE
  5
2D6
100
AcDbEntity
  8
0
100
AcDbSpline
 62
7
  6
BYLAYER
 70
0
 71
3
 72
11
 73
7
 74
0
 42
0.0000001
 43
0.0000001
 44
0.0000000001
 40
0.0
 40
0.0
 40
0.0
 40
0.0
 40
0.269485423
 40
0.5243939133
 40
0.7668879023
 40
1.0
 40
1.0
 40
1.0
 40
1.0
 10
35.5209100886
 20
72.987493742
 30
0.0
 10
35.4643781376
 20
73.0437388067
 30
0.0
 10
35.3603044028
 20
73.1594326142
 30
0.0
 10
35.2309612737
 20
73.3467302996
 30
0.0
 10
35.1343392626
 20
73.5409673502
 30
0.0
 10
35.0919068011
 20
73.6759304473
 30
0.0
 10
35.0768706706
 20
73.7432539032
 30
0.0
  0
SPLINE
  5
2D7
100
AcDbEntity
  8
0
100
AcDbSpline
 62
7
  6
BYLAYER
 70
0
 71
3
 72
11
 73
7
 74
0
 42
0.0000001
 43
0.0000001
 44
0.0000000001
 40
0.0
 40
0.0
 40
0.0
 40
0.0
 40
0.2565925519
 40
0.5076095748
 40
0.7547846117
 40
1.0
 40
1.0
 40
1.0
 40
1.0
 10
35.1603890198
 20
79.0001578952
 30
0.0
 10
35.1420225663
 20
78.9593097785
 30
0.0
 10
35.1095677105
 20
78.876679748
 30
0.0
 10
35.0741782111
 20
78.7495332179
 30
0.0
 10
35.0528700262
 20
78.6212881711
 30
0.0
 10
35.0481245719
 20
78.5352699314
 30
0.0
 10
35.0481233225
 20
78.4924685487
 30
0.0
  0
SPLINE
  5
2D8
100
AcDbEntity
  8
0
100
AcDbSpline
 62
7
  6
BYLAYER
 70
0
 71
3
 72
11
 73
7
 74
0
 42
0.0000001
 43
0.0000001
 44
0.0000000001
 40
0.0
 40
0.0
 40
0.0
 40
0.0
 40
0.2447669545
 40
0.4916813239
 40
0.742799283
 40
1.0
 40
1.0
 40
1.0
 40
1.0
 10
42.0481181072
 20
74.0017052565
 30
0.0
 10
42.0481166269
 20
73.9568217208
 30
0.0
 10
42.0428927387
 20
73.8665763949
 30
0.0
 10
42.0194515638
 20
73.7321144033
 30
0.0
 10
41.9805336616
 20
73.5989253706
 30
0.0
 10
41.9448999123
 20
73.512579906
 30
0.0
 10
41.924751092
 20
73.4699369097
 30
0.0
  0
SPLINE
  5
2D9
100
AcDbEntity
  8
0
100
AcDbSpline
 62
7
  6
BYLAYER
 70
0
 71
3
 72
9
 73
5
 74
0
 42
0.0000001
 43
0.0000001
 44
0.0000000001
 40
0.0
 40
0.0
 40
0.0
 40
0.0
 40
0.2463937738
 40
1.0
 40
1.0
 40
1.0
 40
1.0
 10
41.924751092
 20
73.4699369097
 30
0.0
 10
41.9184609607
 20
73.4566244656
 30
0.0
 10
41.8920917077
 20
73.4029951306
 30
0.0
 10
41.8624263501
 20
73.3509973381
 30
0.0
 10
41.8384755561
 20
73.3128616022
 30
0.0
  0
SPLINE
  5
2DA
100
AcDbEntity
  8
0
100
AcDbSpline
 62
7
  6
BYLAYER
 70
0
 71
3
 72
16
 73
12
 74
0
 42
0.0000001
 43
0.0000001
 44
0.0000000001
 40
0.0
 40
0.0
 40
0.0
 40
0.0
 40
0.1107872844
 40
0.2232031785
 40
0.3387619326
 40
0.4587682649
 40
0.5208044798
 40
0.5843190029
 40
0.716068469
 40
0.8545514997
 40
1.0
 40
1.0
 40
1.0
 40
1.0
 10
42.0481184749
 20
78.4924685488
 30
0.0
 10
42.0481201785
 20
78.5508243958
 30
0.0
 10
42.0392286839
 20
78.6685783638
 30
0.0
 10
41.9994802729
 20
78.8431517061
 30
0.0
 10
41.9336883757
 20
79.0148510747
 30
0.0
 10
41.8585109914
 20
79.1529194606
 30
0.0
 10
41.7866192249
 20
79.2605155697
 30
0.0
 10
41.7048710912
 20
79.3687014473
 30
0.0
 10
41.5872284155
 20
79.4998230634
 30
0.0
 10
41.4252189164
 20
79.6475668514
 30
0.0
 10
41.3058613118
 20
79.7380499252
 30
0.0
 10
41.2429998801
 20
79.781845195
 30
0.0
  0
SPLINE
  5
2DB
100
AcDbEntity
  8
0
100
AcDbSpline
 62
7
  6
BYLAYER
 70
0
 71
3
 72
10
 73
6
 74
0
 42
0.0000001
 43
0.0000001
 44
0.0000000001
 40
0.0
 40
0.0
 40
0.0
 40
0.0
 40
0.5015527098
 40
0.7520659614
 40
1.0
 40
1.0
 40
1.0
 40
1.0
 10
39.0929761032
 20
80.4885299603
 30
0.0
 10
38.8552765699
 20
80.5101544344
 30
0.0
 10
38.4964289005
 20
80.5211628211
 30
0.0
 10
38.0211694068
 20
80.4937000649
 30
0.0
 10
37.7854177766
 20
80.4658321642
 30
0.0
 10
37.6687331049
 20
80.4483437401
 30
0.0
  0
SPLINE
  5
2DC
100
AcDbEntity
  8
0
100
AcDbSpline
 62
7
  6
BYLAYER
 70
0
 71
3
 72
29
 73
25
 74
0
 42
0.0000001
 43
0.0000001
 44
0.0000000001
 40
0.0
 40
0.0
 40
0.0
 40
0.0
 40
0.0213282082
 40
0.0428847
 40
0.0648858361
 40
0.087526093
 40
0.1109710162
 40
0.1353529111
 40
0.1607711223
 40
0.187291238
 40
0.2149498353
 40
0.2437547402
 40
0.2736906811
 40
0.3047199033
 40
0.3697946856
 40
0.4383785193
 40
0.5096513527
 40
0.5826624991
 40
0.656381907
 40
0.7297479713
 40
0.8017137793
 40
0.871297017
 40
0.9376251493
 40
1.0
 40
1.0
 40
1.0
 40
1.0
 10
35.0481233225
 20
78.4924685487
 30
0.0
 10
35.048121873
 20
78.442816819
 30
0.0
 10
35.0545309788
 20
78.3428669881
 30
0.0
 10
35.0832467553
 20
78.1941874325
 30
0.0
 10
35.1308814266
 20
78.0472332329
 30
0.0
 10
35.1971083058
 20
77.9028580652
 30
0.0
 10
35.2815201915
 20
77.7618425021
 30
0.0
 10
35.3835954664
 20
77.6249226022
 30
0.0
 10
35.5027680238
 20
77.4928260901
 30
0.0
 10
35.6383554061
 20
77.3662190208
 30
0.0
 10
35.7896342087
 20
77.245778423
 30
0.0
 10
35.9557705999
 20
77.1321148835
 30
0.0
 10
36.1358840192
 20
77.0258364934
 30
0.0
 10
36.3974973457
 20
76.8926254814
 30
0.0
 10
36.7539036119
 20
76.7490499364
 30
0.0
 10
37.2130145423
 20
76.6167306608
 30
0.0
 10
37.7005953687
 20
76.524443755
 30
0.0
 10
38.2062356431
 20
76.4741557162
 30
0.0
 10
38.7191781026
 20
76.4669319012
 30
0.0
 10
39.2284765984
 20
76.5029315214
 30
0.0
 10
39.7232663052
 20
76.5813818229
 30
0.0
 10
40.1930424439
 20
76.7006413396
 30
0.0
 10
40.6277647282
 20
76.858149326
 30
0.0
 10
40.8972512256
 20
76.9910224024
 30
0.0
 10
41.0230049367
 20
77.0636259079
 30
0.0
  0
SPLINE
  5
2DD
100
AcDbEntity
  8
0
100
AcDbSpline
 62
7
  6
BYLAYER
 70
0
 71
3
 72
15
 73
11
 74
0
 42
0.0000001
 43
0.0000001
 44
0.0000000001
 40
0.0
 40
0.0
 40
0.0
 40
0.0
 40
0.1485887619
 40
0.2895077631
 40
0.4227234441
 40
0.5486445434
 40
0.6680030241
 40
0.7819398595
 40
0.8919886083
 40
1.0
 40
1.0
 40
1.0
 40
1.0
 10
41.0230049367
 20
77.0636259079
 30
0.0
 10
41.1019436994
 20
77.1092009518
 30
0.0
 10
41.2521783527
 20
77.2044239124
 30
0.0
 10
41.457566173
 20
77.3633974322
 30
0.0
 10
41.6352151561
 20
77.5334437178
 30
0.0
 10
41.7833582413
 20
77.7130008683
 30
0.0
 10
41.9004769275
 20
77.9004869103
 30
0.0
 10
41.985252087
 20
78.0941984983
 30
0.0
 10
42.0366159201
 20
78.2921734513
 30
0.0
 10
42.0481165407
 20
78.4262098913
 30
0.0
 10
42.0481184749
 20
78.4924685488
 30
0.0
  0
SPLINE
  5
2DE
100
AcDbEntity
  8
0
100
AcDbSpline
 62
7
  6
BYLAYER
 70
0
 71
3
 72
15
 73
11
 74
0
 42
0.0000001
 43
0.0000001
 44
0.0000000001
 40
0.0
 40
0.0
 40
0.0
 40
0.0
 40
0.1485846803
 40
0.2895070916
 40
0.4227219621
 40
0.5486414222
 40
0.6680005008
 40
0.7819378075
 40
0.8919871279
 40
1.0
 40
1.0
 40
1.0
 40
1.0
 10
47.9173085651
 20
85.5348922636
 30
0.0
 10
47.9173085651
 20
85.3525898152
 30
0.0
 10
47.902607416
 20
84.9971412446
 30
0.0
 10
47.8326447614
 20
84.4824090714
 30
0.0
 10
47.7157599966
 20
84.004647333
 30
0.0
 10
47.552885973
 20
83.5684892341
 30
0.0
 10
47.3452636376
 20
83.1781345809
 30
0.0
 10
47.0945135123
 20
82.8375709011
 30
0.0
 10
46.8029523321
 20
82.5506296142
 30
0.0
 10
46.5822892495
 20
82.3966605125
 30
0.0
 10
46.4675199957
 20
82.3303990296
 30
0.0
  0
SPLINE
  5
2DF
100
AcDbEntity
  8
0
100
AcDbSpline
 62
7
  6
BYLAYER
 70
0
 71
3
 72
15
 73
11
 74
0
 42
0.0000001
 43
0.0000001
 44
0.0000000001
 40
0.0
 40
0.0
 40
0.0
 40
0.0
 40
0.108009986
 40
0.2180569053
 40
0.3320009541
 40
0.4513521756
 40
0.5772569846
 40
0.7104993588
 40
0.8514751159
 40
1.0
 40
1.0
 40
1.0
 40
1.0
 10
34.3661798995
 20
85.7360042329
 30
0.0
 10
34.3333895454
 20
85.7170731711
 30
0.0
 10
34.2703532529
 20
85.6730722737
 30
0.0
 10
34.1870354331
 20
85.591103414
 30
0.0
 10
34.1154133269
 20
85.4937859762
 30
0.0
 10
34.056072826
 20
85.3822745683
 30
0.0
 10
34.0095447795
 20
85.2576528594
 30
0.0
 10
33.9761356338
 20
85.1211292095
 30
0.0
 10
33.9561722365
 20
84.9740524076
 30
0.0
 10
33.9519547887
 20
84.8724996745
 30
0.0
 10
33.9519547887
 20
84.8204344001
 30
0.0
  0
SPLINE
  5
2E0
100
AcDbEntity
  8
0
100
AcDbSpline
 62
7
  6
BYLAYER
 70
0
 71
3
 72
9
 73
5
 74
0
 42
0.0000001
 43
0.0000001
 44
0.0000000001
 40
0.0
 40
0.0
 40
0.0
 40
0.0
 40
0.2444013295
 40
1.0
 40
1.0
 40
1.0
 40
1.0
 10
34.1287013083
 20
89.0049199806
 30
0.0
 10
34.1287013083
 20
88.9449005668
 30
0.0
 10
34.1320638512
 20
88.6993297521
 30
0.0
 10
34.148483923
 20
88.4539791038
 30
0.0
 10
34.1673919945
 20
88.2693871034
 30
0.0
  0
SPLINE
  5
2E1
100
AcDbEntity
  8
0
100
AcDbSpline
 62
7
  6
BYLAYER
 70
0
 71
3
 72
17
 73
13
 74
0
 42
0.0000001
 43
0.0000001
 44
0.0000000001
 40
0.0
 40
0.0
 40
0.0
 40
0.0
 40
0.1522575681
 40
0.2961843066
 40
0.431436153
 40
0.5580990022
 40
0.6767740096
 40
0.7886507919
 40
0.8426373948
 40
0.8956495498
 40
0.9479943483
 40
1.0
 40
1.0
 40
1.0
 40
1.0
 10
38.4285374905
 20
80.8564365824
 30
0.0
 10
38.6112290503
 20
80.7230237711
 30
0.0
 10
38.9779442075
 20
80.4784570568
 30
0.0
 10
39.5441754719
 20
80.175672467
 30
0.0
 10
40.105026357
 20
79.9505368291
 30
0.0
 10
40.6535150757
 20
79.8062495452
 30
0.0
 10
41.1826946948
 20
79.7451064971
 30
0.0
 10
41.6072886882
 20
79.7651248958
 30
0.0
 10
41.9273920621
 20
79.8247264756
 30
0.0
 10
42.1554130373
 20
79.8897898677
 30
0.0
 10
42.3733097756
 20
79.9755297641
 30
0.0
 10
42.5115323441
 20
80.0464224412
 30
0.0
 10
42.5784488503
 20
80.0850562542
 30
0.0
  0
SPLINE
  5
2E2
100
AcDbEntity
  8
0
100
AcDbSpline
 62
7
  6
BYLAYER
 70
0
 71
3
 72
23
 73
19
 74
0
 42
0.0000001
 43
0.0000001
 44
0.0000000001
 40
0.0
 40
0.0
 40
0.0
 40
0.0
 40
0.0623834866
 40
0.1287491512
 40
0.1983465062
 40
0.2703360128
 40
0.3437241456
 40
0.4174669451
 40
0.4905038564
 40
0.5618027032
 40
0.6304109584
 40
0.6955083344
 40
0.7564655538
 40
0.8129122595
 40
0.8648208194
 40
0.9126030956
 40
0.9571852613
 40
1.0
 40
1.0
 40
1.0
 40
1.0
 10
33.9519547887
 20
84.8204344001
 30
0.0
 10
33.9519547887
 20
84.7374751975
 30
0.0
 10
33.9632092877
 20
84.5661482857
 30
0.0
 10
34.0094426586
 20
84.3060187947
 30
0.0
 10
34.0846625982
 20
84.0394630656
 30
0.0
 10
34.1871877601
 20
83.7722024252
 30
0.0
 10
34.3148861141
 20
83.5098859447
 30
0.0
 10
34.4650146391
 20
83.2581143558
 30
0.0
 10
34.6343670272
 20
83.0222496513
 30
0.0
 10
34.8193419681
 20
82.8073238077
 30
0.0
 10
35.0160187758
 20
82.6179144747
 30
0.0
 10
35.220250894
 20
82.4580295888
 30
0.0
 10
35.4277970153
 20
82.3310521446
 30
0.0
 10
35.6344440294
 20
82.2397175699
 30
0.0
 10
35.8360824446
 20
82.1861498347
 30
0.0
 10
36.0287477674
 20
82.1719713866
 30
0.0
 10
36.2081659413
 20
82.1982637028
 30
0.0
 10
36.3168601136
 20
82.2434339826
 30
0.0
 10
36.3661685785
 20
82.2719015493
 30
0.0
  0
SPLINE
  5
2E3
100
AcDbEntity
  8
0
100
AcDbSpline
 62
7
  6
BYLAYER
 70
0
 71
3
 72
27
 73
23
 74
0
 42
0.0000001
 43
0.0000001
 44
0.0000000001
 40
0.0
 40
0.0
 40
0.0
 40
0.0
 40
0.0213298531
 40
0.0428881756
 40
0.0648911412
 40
0.087533639
 40
0.1109804982
 40
0.1353649715
 40
0.1607851915
 40
0.1873081254
 40
0.2437396142
 40
0.3046807533
 40
0.3697612559
 40
0.4383508377
 40
0.5096292314
 40
0.5826452019
 40
0.6563683542
 40
0.7297373198
 40
0.8017057025
 40
0.8712913032
 40
0.9376225256
 40
1.0
 40
1.0
 40
1.0
 40
1.0
 10
39.4675609824
 20
94.4547560608
 30
0.0
 10
39.5535613849
 20
94.5044079842
 30
0.0
 10
39.7330844518
 20
94.5932726829
 30
0.0
 10
40.0193319384
 20
94.6921963281
 30
0.0
 10
40.3215000673
 20
94.7566719903
 30
0.0
 10
40.6378010168
 20
94.7863158058
 30
0.0
 10
40.9664694783
 20
94.7811569279
 30
0.0
 10
41.3056995606
 20
94.7412506608
 30
0.0
 10
41.6536959435
 20
94.6669631927
 30
0.0
 10
42.1367861303
 20
94.5195728781
 30
0.0
 10
42.7519598079
 20
94.2477069936
 30
0.0
 10
43.4782714542
 20
93.80333174
 30
0.0
 10
44.193113724
 20
93.2437075972
 30
0.0
 10
44.8814597112
 20
92.5807674557
 30
0.0
 10
45.5288773292
 20
91.8285425364
 30
0.0
 10
46.1216157054
 20
91.0030299943
 30
0.0
 10
46.6470542756
 20
90.1218208117
 30
0.0
 10
47.0939811269
 20
89.2037088492
 30
0.0
 10
47.4528707562
 20
88.2682824903
 30
0.0
 10
47.7160702053
 20
87.3353713683
 30
0.0
 10
47.8779677561
 20
86.4249244142
 30
0.0
 10
47.9173085651
 20
85.8253004325
 30
0.0
 10
47.9173085651
 20
85.5348922636
 30
0.0
  0
SPLINE
  5
2E4
100
AcDbEntity
  8
0
100
AcDbSpline
 62
7
  6
BYLAYER
 70
0
 71
3
 72
15
 73
11
 74
0
 42
0.0000001
 43
0.0000001
 44
0.0000000001
 40
0.0
 40
0.0
 40
0.0
 40
0.0
 40
0.1080123765
 40
0.2180612971
 40
0.3319984579
 40
0.4513576363
 40
0.5772771814
 40
0.7104923579
 40
0.8514153285
 40
1.0
 40
1.0
 40
1.0
 40
1.0
 10
35.5784899184
 20
92.2094131436
 30
0.0
 10
35.4637211113
 20
92.1431521135
 30
0.0
 10
35.2430593437
 20
91.9891831017
 30
0.0
 10
34.9514982082
 20
91.7022437179
 30
0.0
 10
34.7007482017
 20
91.3616805554
 30
0.0
 10
34.4931257872
 20
90.9713259632
 30
0.0
 10
34.3302504909
 20
90.5351677128
 30
0.0
 10
34.2133654093
 20
90.0574048271
 30
0.0
 10
34.1434026938
 20
89.5426716357
 30
0.0
 10
34.1287013083
 20
89.1872224111
 30
0.0
 10
34.1287013083
 20
89.0049199806
 30
0.0
  0
SPLINE
  5
2E5
100
AcDbEntity
  8
0
100
AcDbSpline
 62
7
  6
BYLAYER
 70
0
 71
3
 72
9
 73
5
 74
0
 42
0.0000001
 43
0.0000001
 44
0.0000000001
 40
0.0
 40
0.0
 40
0.0
 40
0.0
 40
0.4844847495
 40
1.0
 40
1.0
 40
1.0
 40
1.0
 10
36.7803936893
 20
83.1874713821
 30
0.0
 10
36.7803936893
 20
83.2708008559
 30
0.0
 10
36.7690416712
 20
83.4428957376
 30
0.0
 10
36.7387638367
 20
83.612548872
 30
0.0
 10
36.7189689444
 20
83.6989776164
 30
0.0
  0
SPLINE
  5
2E6
100
AcDbEntity
  8
0
100
AcDbSpline
 62
7
  6
BYLAYER
 70
0
 71
3
 72
9
 73
5
 74
0
 42
0.0000001
 43
0.0000001
 44
0.0000000001
 40
0.0
 40
0.0
 40
0.0
 40
0.0
 40
0.2444987759
 40
1.0
 40
1.0
 40
1.0
 40
1.0
 10
36.7189689444
 20
83.6989776164
 30
0.0
 10
36.711091381
 20
83.7333727474
 30
0.0
 10
36.6761470223
 20
83.8734167007
 30
0.0
 10
36.6306769103
 20
84.0107855215
 30
0.0
 10
36.5912717339
 20
84.1124486445
 30
0.0
  0
SPLINE
  5
2E7
100
AcDbEntity
  8
0
100
AcDbSpline
 62
7
  6
BYLAYER
 70
0
 71
3
 72
9
 73
5
 74
0
 42
0.0000001
 43
0.0000001
 44
0.0000000001
 40
0.0
 40
0.0
 40
0.0
 40
0.0
 40
0.260718047
 40
1.0
 40
1.0
 40
1.0
 40
1.0
 10
35.3270239563
 20
85.6589301522
 30
0.0
 10
35.3033266153
 20
85.6718522076
 30
0.0
 10
35.2113509515
 20
85.7193645229
 30
0.0
 10
35.1148458631
 20
85.7584097588
 30
0.0
 10
35.0416393637
 20
85.7807389866
 30
0.0
  0
SPLINE
  5
2E8
100
AcDbEntity
  8
0
100
AcDbSpline
 62
7
  6
BYLAYER
 70
0
 71
3
 72
9
 73
5
 74
0
 42
0.0000001
 43
0.0000001
 44
0.0000000001
 40
0.0
 40
0.0
 40
0.0
 40
0.0
 40
0.2626745185
 40
1.0
 40
1.0
 40
1.0
 40
1.0
 10
35.0416393637
 20
85.7807389866
 30
0.0
 10
35.0157526153
 20
85.7886348853
 30
0.0
 10
34.9163248475
 20
85.8155940368
 30
0.0
 10
34.8130129979
 20
85.82940109
 30
0.0
 10
34.7370446096
 20
85.829683346
 30
0.0
  0
SPLINE
  5
2E9
100
AcDbEntity
  8
0
100
AcDbSpline
 62
7
  6
BYLAYER
 70
0
 71
3
 72
9
 73
5
 74
0
 42
0.0000001
 43
0.0000001
 44
0.0000000001
 40
0.0
 40
0.0
 40
0.0
 40
0.0
 40
0.4917712249
 40
1.0
 40
1.0
 40
1.0
 40
1.0
 10
36.3661685785
 20
82.2719015493
 30
0.0
 10
36.4102839351
 20
82.2973709461
 30
0.0
 10
36.4942345999
 20
82.3597827277
 30
0.0
 10
36.5621401962
 20
82.4391528577
 30
0.0
 10
36.5922827176
 20
82.482313807
 30
0.0
  0
SPLINE
  5
2EA
100
AcDbEntity
  8
0
100
AcDbSpline
 62
7
  6
BYLAYER
 70
0
 71
3
 72
9
 73
5
 74
0
 42
0.0000001
 43
0.0000001
 44
0.0000000001
 40
0.0
 40
0.0
 40
0.0
 40
0.0
 40
0.4794100939
 40
1.0
 40
1.0
 40
1.0
 40
1.0
 10
36.7184809668
 20
82.745327836
 30
0.0
 10
36.7398491557
 20
82.8136108131
 30
0.0
 10
36.7712233171
 20
82.9603184425
 30
0.0
 10
36.7803936893
 20
83.1097772695
 30
0.0
 10
36.7803936893
 20
83.1874713821
 30
0.0
  0
SPLINE
  5
2EB
100
AcDbEntity
  8
0
100
AcDbSpline
 62
7
  6
BYLAYER
 70
0
 71
3
 72
27
 73
23
 74
0
 42
0.0000001
 43
0.0000001
 44
0.0000000001
 40
0.0
 40
0.0
 40
0.0
 40
0.0
 40
0.0623773045
 40
0.1287082174
 40
0.1982935964
 40
0.2702618974
 40
0.343631024
 40
0.4173544235
 40
0.4903705493
 40
0.5616490234
 40
0.6302386998
 40
0.6953193042
 40
0.7562604904
 40
0.8126919669
 40
0.8392148932
 40
0.8646351067
 40
0.8890195848
 40
0.9124664479
 40
0.9351089462
 40
0.9571118977
 40
0.9786701891
 40
1.0
 40
1.0
 40
1.0
 40
1.0
 10
44.0282374604
 20
83.2895494173
 30
0.0
 10
44.0282374604
 20
83.5799567937
 30
0.0
 10
43.9888970074
 20
84.1795785493
 30
0.0
 10
43.8270003312
 20
85.0900223202
 30
0.0
 10
43.5638026016
 20
86.0229309432
 30
0.0
 10
43.2049139515
 20
86.9583569663
 30
0.0
 10
42.757987211
 20
87.8764706718
 30
0.0
 10
42.232547785
 20
88.7576824081
 30
0.0
 10
41.639808395
 20
89.5831969929
 30
0.0
 10
40.9923899351
 20
90.3354232164
 30
0.0
 10
40.3040431008
 20
90.9983643394
 30
0.0
 10
39.5891999312
 20
91.5579891661
 30
0.0
 10
38.8628876931
 20
92.0023647058
 30
0.0
 10
38.2477137898
 20
92.2742303325
 30
0.0
 10
37.7646237524
 20
92.4216207447
 30
0.0
 10
37.416627338
 20
92.4959078227
 30
0.0
 10
37.0773972627
 20
92.5358142481
 30
0.0
 10
36.7487287522
 20
92.540972736
 30
0.0
 10
36.4324278469
 20
92.5113289796
 30
0.0
 10
36.1302599775
 20
92.4468530995
 30
0.0
 10
35.8440128844
 20
92.3479295549
 30
0.0
 10
35.6644902136
 20
92.2590648591
 30
0.0
 10
35.5784899184
 20
92.2094131436
 30
0.0
  0
SPLINE
  5
2EC
100
AcDbEntity
  8
0
100
AcDbSpline
 62
7
  6
BYLAYER
 70
0
 71
3
 72
15
 73
11
 74
0
 42
0.0000001
 43
0.0000001
 44
0.0000000001
 40
0.0
 40
0.0
 40
0.0
 40
0.0
 40
0.1080123765
 40
0.2180612971
 40
0.3319984579
 40
0.4513576363
 40
0.5772771814
 40
0.7104923579
 40
0.8514153285
 40
1.0
 40
1.0
 40
1.0
 40
1.0
 10
42.5784488503
 20
80.0850562542
 30
0.0
 10
42.6932176574
 20
80.1513172844
 30
0.0
 10
42.913879425
 20
80.3052862962
 30
0.0
 10
43.2054405605
 20
80.5922256799
 30
0.0
 10
43.456190567
 20
80.9327888424
 30
0.0
 10
43.6638129815
 20
81.3231434346
 30
0.0
 10
43.8266882778
 20
81.759301685
 30
0.0
 10
43.9435733595
 20
82.2370645707
 30
0.0
 10
44.0135360749
 20
82.7517977622
 30
0.0
 10
44.0282374604
 20
83.1072469867
 30
0.0
 10
44.0282374604
 20
83.2895494173
 30
0.0
  0
SPLINE
  5
2ED
100
AcDbEntity
  8
0
100
AcDbSpline
 62
7
  6
BYLAYER
 70
0
 71
3
 72
23
 73
19
 74
0
 42
0.0000001
 43
0.0000001
 44
0.0000000001
 40
0.0
 40
0.0
 40
0.0
 40
0.0
 40
0.0428138808
 40
0.0873957166
 40
0.1351791178
 40
0.1870890863
 40
0.2435346668
 40
0.3044909895
 40
0.3695889148
 40
0.4381959358
 40
0.5094928212
 40
0.5825289072
 40
0.6562702706
 40
0.7296595407
 40
0.8016497065
 40
0.8712469787
 40
0.9376205563
 40
1.0
 40
1.0
 40
1.0
 40
1.0
 10
34.366182178
 20
85.7360002876
 30
0.0
 10
34.4154864957
 20
85.7644726482
 30
0.0
 10
34.5241850825
 20
85.8096286615
 30
0.0
 10
34.7035977308
 20
85.8359432375
 30
0.0
 10
34.8962681752
 20
85.8217578535
 30
0.0
 10
35.0979030354
 20
85.7681748206
 30
0.0
 10
35.3045528348
 20
85.6768512805
 30
0.0
 10
35.5121025858
 20
85.5498823456
 30
0.0
 10
35.7163256997
 20
85.389989175
 30
0.0
 10
35.9129962123
 20
85.200579769
 30
0.0
 10
36.0979773107
 20
84.9856666949
 30
0.0
 10
36.2673265212
 20
84.7498064739
 30
0.0
 10
36.4174502774
 20
84.4980340883
 30
0.0
 10
36.5451473725
 20
84.2357171683
 30
0.0
 10
36.6476851186
 20
83.9684592588
 30
0.0
 10
36.7229067686
 20
83.7018918753
 30
0.0
 10
36.7691314536
 20
83.4417563936
 30
0.0
 10
36.7803936893
 20
83.2704251306
 30
0.0
 10
36.7803936893
 20
83.1874713821
 30
0.0
  0
SPLINE
  5
2EE
100
AcDbEntity
  8
0
100
AcDbSpline
 62
7
  6
BYLAYER
 70
0
 71
3
 72
15
 73
11
 74
0
 42
0.0000001
 43
0.0000001
 44
0.0000000001
 40
0.0
 40
0.0
 40
0.0
 40
0.0
 40
0.148572383
 40
0.2895079357
 40
0.4227240088
 40
0.5486397436
 40
0.667998596
 40
0.7819317155
 40
0.8920091651
 40
1.0
 40
1.0
 40
1.0
 40
1.0
 10
42.0838841087
 20
84.4120969529
 30
0.0
 10
42.0838841087
 20
84.3014163395
 30
0.0
 10
42.074950102
 20
84.0855961496
 30
0.0
 10
42.0324819008
 20
83.7730603264
 30
0.0
 10
41.9615138812
 20
83.4829647094
 30
0.0
 10
41.8626022289
 20
83.2181496227
 30
0.0
 10
41.7365650977
 20
82.9811299118
 30
0.0
 10
41.584308634
 20
82.7743269572
 30
0.0
 10
41.407255311
 20
82.6001279634
 30
0.0
 10
41.2732888505
 20
82.5066141985
 30
0.0
 10
41.2036185162
 20
82.4663888622
 30
0.0
  0
SPLINE
  5
2EF
100
AcDbEntity
  8
0
100
AcDbSpline
 62
7
  6
BYLAYER
 70
0
 71
3
 72
25
 73
21
 74
0
 42
0.0000001
 43
0.0000001
 44
0.0000000001
 40
0.0
 40
0.0
 40
0.0
 40
0.0
 40
0.0213227599
 40
0.0428906352
 40
0.0649008919
 40
0.0875446793
 40
0.1353184868
 40
0.1872197475
 40
0.2436569833
 40
0.304604732
 40
0.3696923848
 40
0.4382896579
 40
0.5095761294
 40
0.5826002708
 40
0.6563315979
 40
0.7297078676
 40
0.8016848336
 40
0.8712749097
 40
0.9376189319
 40
1.0
 40
1.0
 40
1.0
 40
1.0
 10
36.9533202526
 20
89.8280805357
 30
0.0
 10
37.0055147743
 20
89.8582159185
 30
0.0
 10
37.1145279147
 20
89.9121378606
 30
0.0
 10
37.2883195046
 20
89.9722537182
 30
0.0
 10
37.4718333874
 20
90.0114011569
 30
0.0
 10
37.7324461937
 20
90.0358560551
 30
0.0
 10
38.0799083645
 20
90.0103356558
 30
0.0
 10
38.5083221401
 20
89.896480482
 30
0.0
 10
38.9475127779
 20
89.7023927738
 30
0.0
 10
39.3885774946
 20
89.432552875
 30
0.0
 10
39.8226032736
 20
89.0927678049
 30
0.0
 10
40.2405635737
 20
88.6902391761
 30
0.0
 10
40.6336641503
 20
88.2334985218
 30
0.0
 10
40.9935660662
 20
87.7322581788
 30
0.0
 10
41.3125999643
 20
87.1972012583
 30
0.0
 10
41.5839714601
 20
86.6397397551
 30
0.0
 10
41.801871061
 20
86.0717689366
 30
0.0
 10
41.9617024664
 20
85.5053165436
 30
0.0
 10
42.0599876567
 20
84.9525067547
 30
0.0
 10
42.0838841087
 20
84.5884190678
 30
0.0
 10
42.0838841087
 20
84.4120969529
 30
0.0
  0
SPLINE
  5
2F0
100
AcDbEntity
  8
0
100
AcDbSpline
 62
7
  6
BYLAYER
 70
0
 71
3
 72
15
 73
11
 74
0
 42
0.0000001
 43
0.0000001
 44
0.0000000001
 40
0.0
 40
0.0
 40
0.0
 40
0.0
 40
0.1281261592
 40
0.2574102523
 40
0.3867894777
 40
0.5152296831
 40
0.6417034152
 40
0.7652336802
 40
0.8849346031
 40
1.0
 40
1.0
 40
1.0
 40
1.0
 10
28.043807643
 20
84.684098034
 30
0.0
 10
28.1839146644
 20
84.3415463451
 30
0.0
 10
28.4883258421
 20
83.6624979272
 30
0.0
 10
29.0100659753
 20
82.6737385293
 30
0.0
 10
29.5940138011
 20
81.7192749661
 30
0.0
 10
30.2330456906
 20
80.8106806327
 30
0.0
 10
30.9195001401
 20
79.9589117537
 30
0.0
 10
31.6451072811
 20
79.1741821339
 30
0.0
 10
32.401089259
 20
78.4660469839
 30
0.0
 10
32.9308976927
 20
78.0413653652
 30
0.0
 10
33.198927806
 20
77.8448204638
 30
0.0
  0
SPLINE
  5
2F1
100
AcDbEntity
  8
0
100
AcDbSpline
 62
7
  6
BYLAYER
 70
0
 71
3
 72
14
 73
10
 74
0
 42
0.0000001
 43
0.0000001
 44
0.0000000001
 40
0.0
 40
0.0
 40
0.0
 40
0.0
 40
0.2892619439
 40
0.4225611368
 40
0.5485063454
 40
0.6678892939
 40
0.7818694002
 40
0.8919545753
 40
1.0
 40
1.0
 40
1.0
 40
1.0
 10
36.7803936893
 20
83.1874713821
 30
0.0
 10
36.7803936893
 20
83.0861034544
 30
0.0
 10
36.7685534774
 20
82.9372951258
 30
0.0
 10
36.7228109179
 20
82.7502633714
 30
0.0
 10
36.6762748429
 20
82.6256285055
 30
0.0
 10
36.616937023
 20
82.5141213553
 30
0.0
 10
36.5453071317
 20
82.4168121857
 30
0.0
 10
36.4620021585
 20
82.3348276096
 30
0.0
 10
36.3989547955
 20
82.2908402636
 30
0.0
 10
36.3661663001
 20
82.2719054946
 30
0.0
  0
SPLINE
  5
2F2
100
AcDbEntity
  8
0
100
AcDbSpline
 62
7
  6
BYLAYER
 70
0
 71
3
 72
15
 73
11
 74
0
 42
0.0000001
 43
0.0000001
 44
0.0000000001
 40
0.0
 40
0.0
 40
0.0
 40
0.0
 40
0.148572383
 40
0.2895079357
 40
0.4227240088
 40
0.5486397436
 40
0.667998596
 40
0.7819317155
 40
0.8920091651
 40
1.0
 40
1.0
 40
1.0
 40
1.0
 10
49.6852503587
 20
88.800721607
 30
0.0
 10
49.6852503587
 20
88.6900409936
 30
0.0
 10
49.6763163521
 20
88.4742208037
 30
0.0
 10
49.6338481508
 20
88.1616849805
 30
0.0
 10
49.5628801312
 20
87.8715893635
 30
0.0
 10
49.4639684789
 20
87.6067742768
 30
0.0
 10
49.3379313478
 20
87.3697545659
 30
0.0
 10
49.1856748841
 20
87.1629516114
 30
0.0
 10
49.008621561
 20
86.9887526175
 30
0.0
 10
48.8746551005
 20
86.8952388526
 30
0.0
 10
48.8049847662
 20
86.8550135163
 30
0.0
  0
SPLINE
  5
2F3
100
AcDbEntity
  8
0
100
AcDbSpline
 62
7
  6
BYLAYER
 70
0
 71
3
 72
25
 73
21
 74
0
 42
0.0000001
 43
0.0000001
 44
0.0000000001
 40
0.0
 40
0.0
 40
0.0
 40
0.0
 40
0.0213227599
 40
0.0428906352
 40
0.0649008919
 40
0.0875446793
 40
0.1353184868
 40
0.1872197475
 40
0.2436569833
 40
0.304604732
 40
0.3696923848
 40
0.4382896579
 40
0.5095761294
 40
0.5826002708
 40
0.6563315979
 40
0.7297078676
 40
0.8016848336
 40
0.8712749097
 40
0.9376189319
 40
1.0
 40
1.0
 40
1.0
 40
1.0
 10
44.5546865026
 20
94.2167051898
 30
0.0
 10
44.6068810244
 20
94.2468405726
 30
0.0
 10
44.7158941647
 20
94.3007625147
 30
0.0
 10
44.8896857547
 20
94.3608783723
 30
0.0
 10
45.0731996374
 20
94.400025811
 30
0.0
 10
45.3338124438
 20
94.4244807092
 30
0.0
 10
45.6812746146
 20
94.3989603099
 30
0.0
 10
46.1096883901
 20
94.2851051361
 30
0.0
 10
46.5488790279
 20
94.0910174279
 30
0.0
 10
46.9899437447
 20
93.8211775292
 30
0.0
 10
47.4239695237
 20
93.481392459
 30
0.0
 10
47.8419298238
 20
93.0788638302
 30
0.0
 10
48.2350304004
 20
92.6221231759
 30
0.0
 10
48.5949323163
 20
92.1208828329
 30
0.0
 10
48.9139662143
 20
91.5858259124
 30
0.0
 10
49.1853377101
 20
91.0283644092
 30
0.0
 10
49.4032373111
 20
90.4603935907
 30
0.0
 10
49.5630687164
 20
89.8939411977
 30
0.0
 10
49.6613539068
 20
89.3411314088
 30
0.0
 10
49.6852503587
 20
88.977043722
 30
0.0
 10
49.6852503587
 20
88.800721607
 30
0.0
  0
SPLINE
  5
2F4
100
AcDbEntity
  8
0
100
AcDbSpline
 62
7
  6
BYLAYER
 70
0
 71
3
 72
15
 73
11
 74
0
 42
0.0000001
 43
0.0000001
 44
0.0000000001
 40
0.0
 40
0.0
 40
0.0
 40
0.0
 40
0.1080101375
 40
0.2180568556
 40
0.3319979972
 40
0.4513551382
 40
0.5772607529
 40
0.7104922559
 40
0.8514582545
 40
1.0
 40
1.0
 40
1.0
 40
1.0
 10
24.5323367317
 20
81.2129717946
 30
0.0
 10
24.4831486768
 20
81.1845793186
 30
0.0
 10
24.388587128
 20
81.1185857732
 30
0.0
 10
24.2636241463
 20
80.9956212845
 30
0.0
 10
24.1561736839
 20
80.8496559677
 30
0.0
 10
24.0671806827
 20
80.6823760341
 30
0.0
 10
23.9973797507
 20
80.4954500328
 30
0.0
 10
23.9472702955
 20
80.2906736788
 30
0.0
 10
23.9173167056
 20
80.0700615207
 30
0.0
 10
23.9109966916
 20
79.9177280516
 30
0.0
 10
23.9109966916
 20
79.8396212082
 30
0.0
  0
SPLINE
  5
2F5
100
AcDbEntity
  8
0
100
AcDbSpline
 62
7
  6
BYLAYER
 70
0
 71
3
 72
24
 73
20
 74
0
 42
0.0000001
 43
0.0000001
 44
0.0000000001
 40
0.0
 40
0.0
 40
0.0
 40
0.0
 40
0.0623814759
 40
0.128736126
 40
0.1983289627
 40
0.2703116885
 40
0.3436927673
 40
0.4174299856
 40
0.4904603566
 40
0.5617526724
 40
0.6303557171
 40
0.695448711
 40
0.7564007717
 40
0.8128420529
 40
0.8647466519
 40
0.9125256694
 40
0.9571040836
 40
0.9786661449
 40
1.0
 40
1.0
 40
1.0
 40
1.0
 10
23.9109966916
 20
79.8396212082
 30
0.0
 10
23.9109966916
 20
79.7151757326
 30
0.0
 10
23.9278710088
 20
79.4581886119
 30
0.0
 10
23.99723112
 20
79.0679970193
 30
0.0
 10
24.110055914
 20
78.6681715277
 30
0.0
 10
24.2638452806
 20
78.2672809254
 30
0.0
 10
24.4553862468
 20
77.8738046125
 30
0.0
 10
24.6805749787
 20
77.4961450908
 30
0.0
 10
24.9346100661
 20
77.1423522396
 30
0.0
 10
25.2120760757
 20
76.8199671634
 30
0.0
 10
25.5070854203
 20
76.5358431929
 30
0.0
 10
25.8134311028
 20
76.2960061945
 30
0.0
 10
26.1247589393
 20
76.1055471848
 30
0.0
 10
26.4347242562
 20
75.9685510032
 30
0.0
 10
26.7372121924
 20
75.888210517
 30
0.0
 10
27.0261066469
 20
75.8668660384
 30
0.0
 10
27.2532306869
 20
75.900289464
 30
0.0
 10
27.418506174
 20
75.9574755082
 30
0.0
 10
27.4954556778
 20
75.9955500452
 30
0.0
 10
27.5323150024
 20
76.0168260947
 30
0.0
  0
SPLINE
  5
2F6
100
AcDbEntity
  8
0
100
AcDbSpline
 62
7
  6
BYLAYER
 70
0
 71
3
 72
9
 73
5
 74
0
 42
0.0000001
 43
0.0000001
 44
0.0000000001
 40
0.0
 40
0.0
 40
0.0
 40
0.0
 40
0.4884562338
 40
1.0
 40
1.0
 40
1.0
 40
1.0
 10
27.6983156935
 20
76.1367060923
 30
0.0
 10
27.7492367346
 20
76.1819055499
 30
0.0
 10
27.844541325
 20
76.2849177116
 30
0.0
 10
27.9196360571
 20
76.4032369985
 30
0.0
 10
27.9530469681
 20
76.4662311224
 30
0.0
  0
SPLINE
  5
2F7
100
AcDbEntity
  8
0
100
AcDbSpline
 62
7
  6
BYLAYER
 70
0
 71
3
 72
25
 73
21
 74
0
 42
0.0000001
 43
0.0000001
 44
0.0000000001
 40
0.0
 40
0.0
 40
0.0
 40
0.0
 40
0.0623809898
 40
0.12872502
 40
0.1983152668
 40
0.2702925159
 40
0.3436691582
 40
0.4174008921
 40
0.4904253493
 40
0.5617119078
 40
0.6303089777
 40
0.6953962637
 40
0.7563436225
 40
0.8127805415
 40
0.8646815863
 40
0.9124552747
 40
0.9350990411
 40
0.9571093139
 40
0.9786772233
 40
1.0
 40
1.0
 40
1.0
 40
1.0
 10
38.3715889633
 20
82.2688151451
 30
0.0
 10
38.3715889633
 20
82.445137039
 30
0.0
 10
38.3476926325
 20
82.8092245335
 30
0.0
 10
38.2494073626
 20
83.3620346043
 30
0.0
 10
38.089575561
 20
83.9284882471
 30
0.0
 10
37.8716749193
 20
84.4964611802
 30
0.0
 10
37.6003017267
 20
85.0539252089
 30
0.0
 10
37.2812657193
 20
85.5889844891
 30
0.0
 10
36.9213617476
 20
86.0902261923
 30
0.0
 10
36.5282598472
 20
86.5469664679
 30
0.0
 10
36.1102996198
 20
86.9494931977
 30
0.0
 10
35.6762753635
 20
87.2892757877
 30
0.0
 10
35.2352128545
 20
87.5591134594
 30
0.0
 10
34.7960243883
 20
87.7531995786
 30
0.0
 10
34.3676123291
 20
87.8670539998
 30
0.0
 10
34.0201511838
 20
87.8925741701
 30
0.0
 10
33.7595387068
 20
87.8681194829
 30
0.0
 10
33.5760247591
 20
87.8289719334
 30
0.0
 10
33.4022329784
 20
87.7688560713
 30
0.0
 10
33.2932196704
 20
87.7149341346
 30
0.0
 10
33.2410251072
 20
87.6847987279
 30
0.0
  0
SPLINE
  5
2F8
100
AcDbEntity
  8
0
100
AcDbSpline
 62
7
  6
BYLAYER
 70
0
 71
3
 72
15
 73
11
 74
0
 42
0.0000001
 43
0.0000001
 44
0.0000000001
 40
0.0
 40
0.0
 40
0.0
 40
0.0
 40
0.1079908349
 40
0.2180682845
 40
0.332001404
 40
0.4513602564
 40
0.5772759912
 40
0.7104920643
 40
0.851427617
 40
1.0
 40
1.0
 40
1.0
 40
1.0
 10
37.4913233708
 20
80.3231070543
 30
0.0
 10
37.5609937051
 20
80.3633323906
 30
0.0
 10
37.6949601656
 20
80.4568461555
 30
0.0
 10
37.8720134886
 20
80.6310451494
 30
0.0
 10
38.0242699524
 20
80.8378481039
 30
0.0
 10
38.1503070835
 20
81.0748678149
 30
0.0
 10
38.2492187358
 20
81.3396829016
 30
0.0
 10
38.3201867554
 20
81.6297785186
 30
0.0
 10
38.3626549567
 20
81.9423143417
 30
0.0
 10
38.3715889633
 20
82.1581345316
 30
0.0
 10
38.3715889633
 20
82.2688151451
 30
0.0
  0
SPLINE
  5
2F9
100
AcDbEntity
  8
0
100
AcDbSpline
 62
7
  6
BYLAYER
 70
0
 71
3
 72
9
 73
5
 74
0
 42
0.0000001
 43
0.0000001
 44
0.0000000001
 40
0.0
 40
0.0
 40
0.0
 40
0.0
 40
0.5205418166
 40
1.0
 40
1.0
 40
1.0
 40
1.0
 10
33.9519547887
 20
84.8204344001
 30
0.0
 10
33.9519547887
 20
84.8981213199
 30
0.0
 10
33.9611340506
 20
85.047578795
 30
0.0
 10
33.9924956571
 20
85.1942891828
 30
0.0
 10
34.013867162
 20
85.2625786272
 30
0.0
  0
SPLINE
  5
2FA
100
AcDbEntity
  8
0
100
AcDbSpline
 62
7
  6
BYLAYER
 70
0
 71
3
 72
9
 73
5
 74
0
 42
0.0000001
 43
0.0000001
 44
0.0000000001
 40
0.0
 40
0.0
 40
0.0
 40
0.0
 40
0.5082343432
 40
1.0
 40
1.0
 40
1.0
 40
1.0
 10
34.1400696183
 20
85.525588998
 30
0.0
 10
34.170216251
 20
85.568747763
 30
0.0
 10
34.2381034275
 20
85.6481352898
 30
0.0
 10
34.322070117
 20
85.7105263623
 30
0.0
 10
34.366182178
 20
85.7360002876
 30
0.0
  0
SPLINE
  5
2FB
100
AcDbEntity
  8
0
100
AcDbSpline
 62
7
  6
BYLAYER
 70
0
 71
3
 72
10
 73
6
 74
0
 42
0.0000001
 43
0.0000001
 44
0.0000000001
 40
0.0
 40
0.0
 40
0.0
 40
0.0
 40
0.2426756373
 40
0.4885053439
 40
1.0
 40
1.0
 40
1.0
 40
1.0
 10
36.3661663001
 20
82.2719054946
 30
0.0
 10
36.3391005414
 20
82.2562755036
 30
0.0
 10
36.2822960355
 20
82.2286324553
 30
0.0
 10
36.1595073051
 20
82.1887912856
 30
0.0
 10
36.0611777102
 20
82.1779688077
 30
0.0
 10
35.99530189
 20
82.1782237172
 30
0.0
  0
SPLINE
  5
2FC
100
AcDbEntity
  8
0
100
AcDbSpline
 62
7
  6
BYLAYER
 70
0
 71
3
 72
9
 73
5
 74
0
 42
0.0000001
 43
0.0000001
 44
0.0000000001
 40
0.0
 40
0.0
 40
0.0
 40
0.0
 40
0.2385042015
 40
1.0
 40
1.0
 40
1.0
 40
1.0
 10
35.99530189
 20
82.1782237172
 30
0.0
 10
35.9707248426
 20
82.1783188192
 30
0.0
 10
35.867701134
 20
82.1830231016
 30
0.0
 10
35.7657591114
 20
82.2042723836
 30
0.0
 10
35.6907053454
 20
82.2271742466
 30
0.0
  0
SPLINE
  5
2FD
100
AcDbEntity
  8
0
100
AcDbSpline
 62
7
  6
BYLAYER
 70
0
 71
3
 72
9
 73
5
 74
0
 42
0.0000001
 43
0.0000001
 44
0.0000000001
 40
0.0
 40
0.0
 40
0.0
 40
0.0
 40
0.2395923385
 40
1.0
 40
1.0
 40
1.0
 40
1.0
 10
35.6907053454
 20
82.2271742466
 30
0.0
 10
35.666979711
 20
82.2344138731
 30
0.0
 10
35.5688289936
 20
82.2674766349
 30
0.0
 10
35.4744388913
 20
82.3112862895
 30
0.0
 10
35.4053236387
 20
82.3489826023
 30
0.0
  0
SPLINE
  5
2FE
100
AcDbEntity
  8
0
100
AcDbSpline
 62
7
  6
BYLAYER
 70
0
 71
3
 72
9
 73
5
 74
0
 42
0.0000001
 43
0.0000001
 44
0.0000000001
 40
0.0
 40
0.0
 40
0.0
 40
0.0
 40
0.2551883139
 40
1.0
 40
1.0
 40
1.0
 40
1.0
 10
34.141081663
 20
83.8954554462
 30
0.0
 10
34.1277703606
 20
83.9297937642
 30
0.0
 10
34.077904787
 20
84.0652268647
 30
0.0
 10
34.0373777009
 20
84.2041516553
 30
0.0
 10
34.0133793737
 20
84.3089277707
 30
0.0
  0
SPLINE
  5
2FF
100
AcDbEntity
  8
0
100
AcDbSpline
 62
7
  6
BYLAYER
 70
0
 71
3
 72
9
 73
5
 74
0
 42
0.0000001
 43
0.0000001
 44
0.0000000001
 40
0.0
 40
0.0
 40
0.0
 40
0.0
 40
0.5155607018
 40
1.0
 40
1.0
 40
1.0
 40
1.0
 10
34.0133793737
 20
84.3089277707
 30
0.0
 10
33.9935817133
 20
84.3953638766
 30
0.0
 10
33.9633153199
 20
84.5650188823
 30
0.0
 10
33.9519547887
 20
84.7371127661
 30
0.0
 10
33.9519547887
 20
84.8204344001
 30
0.0
  0
SPLINE
  5
300
100
AcDbEntity
  8
0
100
AcDbSpline
 62
7
  6
BYLAYER
 70
0
 71
3
 72
10
 73
6
 74
0
 42
0.0000001
 43
0.0000001
 44
0.0000000001
 40
0.0
 40
0.0
 40
0.0
 40
0.0
 40
0.2340150862
 40
0.4797871168
 40
1.0
 40
1.0
 40
1.0
 40
1.0
 10
28.1536550425
 20
77.3901766811
 30
0.0
 10
28.1536550425
 20
77.4823266346
 30
0.0
 10
28.1444246051
 20
77.6713518949
 30
0.0
 10
28.0917471598
 20
78.0619050138
 30
0.0
 10
28.0158816532
 20
78.3553424309
 30
0.0
 10
27.9516915427
 20
78.5498738074
 30
0.0
  0
SPLINE
  5
301
100
AcDbEntity
  8
0
100
AcDbSpline
 62
7
  6
BYLAYER
 70
0
 71
3
 72
9
 73
5
 74
0
 42
0.0000001
 43
0.0000001
 44
0.0000000001
 40
0.0
 40
0.0
 40
0.0
 40
0.0
 40
0.2596918354
 40
1.0
 40
1.0
 40
1.0
 40
1.0
 10
26.2475118588
 20
80.9275321108
 30
0.0
 10
26.2117066915
 20
80.9524204192
 30
0.0
 10
26.0719359577
 20
81.0454656334
 30
0.0
 10
25.9243646629
 20
81.1270823828
 30
0.0
 10
25.811275624
 20
81.1786874252
 30
0.0
  0
SPLINE
  5
302
100
AcDbEntity
  8
0
100
AcDbSpline
 62
7
  6
BYLAYER
 70
0
 71
3
 72
10
 73
6
 74
0
 42
0.0000001
 43
0.0000001
 44
0.0000000001
 40
0.0
 40
0.0
 40
0.0
 40
0.0
 40
0.5251567162
 40
0.7681151372
 40
1.0
 40
1.0
 40
1.0
 40
1.0
 10
25.6476295423
 20
81.2458796763
 30
0.0
 10
25.5246765446
 20
81.2906837556
 30
0.0
 10
25.3375305656
 20
81.3399018124
 30
0.0
 10
25.088433652
 20
81.3575130292
 30
0.0
 10
24.9698713192
 20
81.349848921
 30
0.0
 10
24.9126486499
 20
81.341824539
 30
0.0
  0
SPLINE
  5
303
100
AcDbEntity
  8
0
100
AcDbSpline
 62
7
  6
BYLAYER
 70
0
 71
3
 72
9
 73
5
 74
0
 42
0.0000001
 43
0.0000001
 44
0.0000000001
 40
0.0
 40
0.0
 40
0.0
 40
0.0
 40
0.5063003063
 40
1.0
 40
1.0
 40
1.0
 40
1.0
 10
24.9126486499
 20
81.341824539
 30
0.0
 10
24.8452230147
 20
81.3323693867
 30
0.0
 10
24.7133489017
 20
81.3018361923
 30
0.0
 10
24.5898360862
 20
81.2461617438
 30
0.0
 10
24.5323367317
 20
81.2129717946
 30
0.0
  0
SPLINE
  5
304
100
AcDbEntity
  8
0
100
AcDbSpline
 62
7
  6
BYLAYER
 70
0
 71
3
 72
16
 73
12
 74
0
 42
0.0000001
 43
0.0000001
 44
0.0000000001
 40
0.0
 40
0.0
 40
0.0
 40
0.0
 40
0.0444434351
 40
0.0898330368
 40
0.1863858445
 40
0.2947854533
 40
0.4166550488
 40
0.5511679485
 40
0.6957407757
 40
0.8468219637
 40
1.0
 40
1.0
 40
1.0
 40
1.0
 10
28.5253391496
 20
62.933489044
 30
0.0
 10
28.5653856103
 20
62.9565949685
 30
0.0
 10
28.6507972668
 20
62.9960001518
 30
0.0
 10
28.8393914401
 20
63.0447367736
 30
0.0
 10
29.104407393
 20
63.0432437537
 30
0.0
 10
29.4342172175
 20
62.948944026
 30
0.0
 10
29.7712704113
 20
62.7697362427
 30
0.0
 10
30.1025251081
 20
62.5135685329
 30
0.0
 10
30.4149823929
 20
62.1913252228
 30
0.0
 10
30.6953392292
 20
61.8165404903
 30
0.0
 10
30.8535956248
 20
61.5413793339
 30
0.0
 10
30.9244953663
 20
61.3986709405
 30
0.0
  0
SPLINE
  5
305
100
AcDbEntity
  8
0
100
AcDbSpline
 62
7
  6
BYLAYER
 70
0
 71
3
 72
19
 73
15
 74
0
 42
0.0000001
 43
0.0000001
 44
0.0000000001
 40
0.0
 40
0.0
 40
0.0
 40
0.0
 40
0.0428394104
 40
0.0874448899
 40
0.1352571039
 40
0.1871950253
 40
0.2436735499
 40
0.3046656819
 40
0.4382689093
 40
0.5825434307
 40
0.7296392143
 40
0.871166535
 40
0.9376088396
 40
1.0
 40
1.0
 40
1.0
 40
1.0
 10
20.8561244372
 20
65.4532236776
 30
0.0
 10
20.9091266557
 20
65.4838296803
 30
0.0
 10
21.0259789786
 20
65.5323503415
 30
0.0
 10
21.2188368807
 20
65.5606614746
 30
0.0
 10
21.4259468508
 20
65.5453861632
 30
0.0
 10
21.6426977599
 20
65.4878134536
 30
0.0
 10
21.8648578798
 20
65.3896546035
 30
0.0
 10
22.1715191997
 20
65.2019337825
 30
0.0
 10
22.5368502411
 20
64.8784071515
 30
0.0
 10
22.9123398313
 20
64.3976760962
 30
0.0
 10
23.2080093993
 20
63.8513093559
 30
0.0
 10
23.3716149738
 20
63.3677660063
 30
0.0
 10
23.4392565171
 20
62.9868827653
 30
0.0
 10
23.451401866
 20
62.8026926764
 30
0.0
 10
23.451401866
 20
62.7135550031
 30
0.0
  0
SPLINE
  5
306
100
AcDbEntity
  8
0
100
AcDbSpline
 62
7
  6
BYLAYER
 70
0
 71
3
 72
19
 73
15
 74
0
 42
0.0000001
 43
0.0000001
 44
0.0000000001
 40
0.0
 40
0.0
 40
0.0
 40
0.0
 40
0.0428394104
 40
0.0874448899
 40
0.1352571039
 40
0.1871950253
 40
0.2436735499
 40
0.3046656819
 40
0.4382689093
 40
0.5825434307
 40
0.7296392143
 40
0.871166535
 40
0.9376088396
 40
1.0
 40
1.0
 40
1.0
 40
1.0
 10
36.4125383905
 20
56.4719270782
 30
0.0
 10
36.465540609
 20
56.5025330809
 30
0.0
 10
36.5823929318
 20
56.551053742
 30
0.0
 10
36.7752508339
 20
56.5793648752
 30
0.0
 10
36.9823608041
 20
56.5640895637
 30
0.0
 10
37.1991117132
 20
56.5065168542
 30
0.0
 10
37.421271833
 20
56.408358004
 30
0.0
 10
37.7279331529
 20
56.220637183
 30
0.0
 10
38.0932641944
 20
55.897110552
 30
0.0
 10
38.4687537846
 20
55.4163794968
 30
0.0
 10
38.7644233525
 20
54.8700127565
 30
0.0
 10
38.9280289271
 20
54.3864694069
 30
0.0
 10
38.9956704703
 20
54.0055861658
 30
0.0
 10
39.0078158192
 20
53.8213960769
 30
0.0
 10
39.0078158192
 20
53.7322584037
 30
0.0
  0
SPLINE
  5
307
100
AcDbEntity
  8
0
100
AcDbSpline
 62
7
  6
BYLAYER
 70
0
 71
3
 72
20
 73
16
 74
0
 42
0.0000001
 43
0.0000001
 44
0.0000000001
 40
0.0
 40
0.0
 40
0.0
 40
0.0
 40
0.042830863
 40
0.0874312737
 40
0.1352324033
 40
0.1871644935
 40
0.2436332201
 40
0.3046139963
 40
0.3697390893
 40
0.4383737011
 40
0.5826246102
 40
0.7296905433
 40
0.871188879
 40
0.9376084208
 40
1.0
 40
1.0
 40
1.0
 40
1.0
 10
24.5323412602
 20
81.212964005
 30
0.0
 10
24.6063069789
 20
81.2556511214
 30
0.0
 10
24.7693232059
 20
81.323449763
 30
0.0
 10
25.0384522281
 20
81.362830521
 30
0.0
 10
25.3274480668
 20
81.3416216348
 30
0.0
 10
25.6298940581
 20
81.2612290646
 30
0.0
 10
25.9398617229
 20
81.1242474382
 30
0.0
 10
26.2511865606
 20
80.9338145321
 30
0.0
 10
26.5575248205
 20
80.6939603504
 30
0.0
 10
26.9573344962
 20
80.3088914095
 30
0.0
 10
27.4016008619
 20
79.7399088986
 30
0.0
 10
27.8140163382
 20
78.977775299
 30
0.0
 10
28.0423000938
 20
78.3030383921
 30
0.0
 10
28.136734755
 20
77.7715932989
 30
0.0
 10
28.1536550425
 20
77.5145782213
 30
0.0
 10
28.1536550425
 20
77.3901766811
 30
0.0
  0
SPLINE
  5
308
100
AcDbEntity
  8
0
100
AcDbSpline
 62
7
  6
BYLAYER
 70
0
 71
3
 72
9
 73
5
 74
0
 42
0.0000001
 43
0.0000001
 44
0.0000000001
 40
0.0
 40
0.0
 40
0.0
 40
0.0
 40
0.2558042588
 40
1.0
 40
1.0
 40
1.0
 40
1.0
 10
22.6382499522
 20
57.5349840645
 30
0.0
 10
22.5680617755
 20
57.4148888066
 30
0.0
 10
22.2958194255
 20
56.9441623538
 30
0.0
 10
22.0320658076
 20
56.46851043
 30
0.0
 10
21.8413242413
 20
56.1116023634
 30
0.0
  0
SPLINE
  5
309
100
AcDbEntity
  8
0
100
AcDbSpline
 62
7
  6
BYLAYER
 70
0
 71
3
 72
11
 73
7
 74
0
 42
0.0000001
 43
0.0000001
 44
0.0000000001
 40
0.0
 40
0.0
 40
0.0
 40
0.0
 40
0.2514251033
 40
0.5014327466
 40
0.7506538262
 40
1.0
 40
1.0
 40
1.0
 40
1.0
 10
25.3216702686
 20
61.0152181767
 30
0.0
 10
25.0330439395
 20
60.7816265872
 30
0.0
 10
24.4829087796
 20
60.2831361391
 30
0.0
 10
23.7509225922
 20
59.4472865741
 30
0.0
 10
23.1258257602
 20
58.5322745629
 30
0.0
 10
22.7877920025
 20
57.8756086278
 30
0.0
 10
22.6401644167
 20
57.5382575818
 30
0.0
  0
SPLINE
  5
30A
100
AcDbEntity
  8
0
100
AcDbSpline
 62
7
  6
BYLAYER
 70
0
 71
3
 72
9
 73
5
 74
0
 42
0.0000001
 43
0.0000001
 44
0.0000000001
 40
0.0
 40
0.0
 40
0.0
 40
0.0
 40
0.2646929835
 40
1.0
 40
1.0
 40
1.0
 40
1.0
 10
25.6047590094
 20
61.2320413743
 30
0.0
 10
25.5792748398
 20
61.2135773492
 30
0.0
 10
25.483410732
 20
61.1432557656
 30
0.0
 10
25.3892556221
 20
61.0705699864
 30
0.0
 10
25.3215149342
 20
61.0153078571
 30
0.0
  0
SPLINE
  5
30B
100
AcDbEntity
  8
0
100
AcDbSpline
 62
7
  6
BYLAYER
 70
0
 71
3
 72
9
 73
5
 74
0
 42
0.0000001
 43
0.0000001
 44
0.0000000001
 40
0.0
 40
0.0
 40
0.0
 40
0.0
 40
0.2464064687
 40
1.0
 40
1.0
 40
1.0
 40
1.0
 10
41.9247231669
 20
73.4699436326
 30
0.0
 10
41.9184355019
 20
73.4566298648
 30
0.0
 10
41.8920791053
 20
73.4029970626
 30
0.0
 10
41.8624244153
 20
73.3509955291
 30
0.0
 10
41.8384755984
 20
73.312861669
 30
0.0
  0
SPLINE
  5
30C
100
AcDbEntity
  8
0
100
AcDbSpline
 62
7
  6
BYLAYER
 70
0
 71
3
 72
10
 73
6
 74
0
 42
0.0000001
 43
0.0000001
 44
0.0000000001
 40
0.0
 40
0.0
 40
0.0
 40
0.0
 40
0.2273574362
 40
0.5960240733
 40
1.0
 40
1.0
 40
1.0
 40
1.0
 10
41.8384755984
 20
73.312861669
 30
0.0
 10
41.7937097945
 20
73.2415807825
 30
0.0
 10
41.6614281368
 20
73.0638536176
 30
0.0
 10
41.3910979527
 20
72.8077250746
 30
0.0
 10
41.1525275956
 20
72.6476421093
 30
0.0
 10
41.0230049367
 20
72.5728626137
 30
0.0
  0
SPLINE
  5
30D
100
AcDbEntity
  8
0
100
AcDbSpline
 62
7
  6
BYLAYER
 70
0
 71
3
 72
11
 73
7
 74
0
 42
0.0000001
 43
0.0000001
 44
0.0000000001
 40
0.0
 40
0.0
 40
0.0
 40
0.0
 40
0.2644477991
 40
0.5268899656
 40
0.7752865935
 40
1.0
 40
1.0
 40
1.0
 40
1.0
 10
40.0401641408
 20
46.474763117
 30
0.0
 10
40.1069084366
 20
46.4140111958
 30
0.0
 10
40.2341833053
 20
46.2865707626
 30
0.0
 10
40.4042361992
 20
46.0834042743
 30
0.0
 10
40.5471202179
 20
45.8765780914
 30
0.0
 10
40.6250178156
 20
45.7346354838
 30
0.0
 10
40.6571339769
 20
45.6649919166
 30
0.0
  0
SPLINE
  5
30E
100
AcDbEntity
  8
0
100
AcDbSpline
 62
7
  6
BYLAYER
 70
0
 71
3
 72
9
 73
5
 74
0
 42
0.0000001
 43
0.0000001
 44
0.0000000001
 40
0.0
 40
0.0
 40
0.0
 40
0.0
 40
0.2448351944
 40
1.0
 40
1.0
 40
1.0
 40
1.0
 10
34.9443062289
 20
50.2805753127
 30
0.0
 10
35.3701536835
 20
49.9836993065
 30
0.0
 10
37.0993065148
 20
48.7566047988
 30
0.0
 10
38.7880836175
 20
47.4727506285
 30
0.0
 10
40.0401641408
 20
46.474763117
 30
0.0
  0
SPLINE
  5
30F
100
AcDbEntity
  8
0
100
AcDbSpline
 62
7
  6
BYLAYER
 70
0
 71
3
 72
9
 73
5
 74
0
 42
0.0000001
 43
0.0000001
 44
0.0000000001
 40
0.0
 40
0.0
 40
0.0
 40
0.0
 40
0.2524299562
 40
1.0
 40
1.0
 40
1.0
 40
1.0
 10
34.2007334157
 20
50.9788999777
 30
0.0
 10
34.2606572815
 20
50.9174251439
 30
0.0
 10
34.5006277758
 20
50.6764309732
 30
0.0
 10
34.7511166898
 20
50.4458516102
 30
0.0
 10
34.9443062289
 20
50.2805753127
 30
0.0
  0
SPLINE
  5
310
100
AcDbEntity
  8
0
100
AcDbSpline
 62
7
  6
BYLAYER
 70
0
 71
3
 72
14
 73
10
 74
0
 42
0.0000001
 43
0.0000001
 44
0.0000000001
 40
0.0
 40
0.0
 40
0.0
 40
0.0
 40
0.108043939
 40
0.2181287779
 40
0.3321084792
 40
0.4514909116
 40
0.5774364007
 40
0.7107377679
 40
1.0
 40
1.0
 40
1.0
 40
1.0
 10
23.6573459018
 20
82.728509468
 30
0.0
 10
23.5794742175
 20
82.6835402215
 30
0.0
 10
23.4297353315
 20
82.5790746465
 30
0.0
 10
23.2318919991
 20
82.3843579708
 30
0.0
 10
23.0617667085
 20
82.1532537227
 30
0.0
 10
22.9208403175
 20
81.8884241819
 30
0.0
 10
22.8103143758
 20
81.5924159112
 30
0.0
 10
22.7016776404
 20
81.1482127725
 30
0.0
 10
22.6735546726
 20
80.7947914954
 30
0.0
 10
22.6735546726
 20
80.5540425286
 30
0.0
  0
SPLINE
  5
311
100
AcDbEntity
  8
0
100
AcDbSpline
 62
7
  6
BYLAYER
 70
0
 71
3
 72
9
 73
5
 74
0
 42
0.0000001
 43
0.0000001
 44
0.0000000001
 40
0.0
 40
0.0
 40
0.0
 40
0.0
 40
0.4871024373
 40
1.0
 40
1.0
 40
1.0
 40
1.0
 10
18.9956447814
 20
58.6246000455
 30
0.0
 10
19.5767121432
 20
58.4443937448
 30
0.0
 10
20.7593994871
 20
58.0409860777
 30
0.0
 10
21.9211442904
 20
57.5812171135
 30
0.0
 10
22.5117398069
 20
57.3331281665
 30
0.0
  0
SPLINE
  5
312
100
AcDbEntity
  8
0
100
AcDbSpline
 62
7
  6
BYLAYER
 70
0
 71
3
 72
11
 73
7
 74
0
 42
0.0000001
 43
0.0000001
 44
0.0000000001
 40
0.0
 40
0.0
 40
0.0
 40
0.0
 40
0.2380246247
 40
0.4811404542
 40
0.7339048058
 40
1.0
 40
1.0
 40
1.0
 40
1.0
 10
26.3089838794
 20
84.2594274972
 30
0.0
 10
26.392008151
 20
84.3073724369
 30
0.0
 10
26.569131293
 20
84.3890558893
 30
0.0
 10
26.8566890493
 20
84.4634858749
 30
0.0
 10
27.163764588
 20
84.4898613936
 30
0.0
 10
27.3731244703
 20
84.4758244499
 30
0.0
 10
27.4793606809
 20
84.4616314199
 30
0.0
  0
SPLINE
  5
313
100
AcDbEntity
  8
0
100
AcDbSpline
 62
7
  6
BYLAYER
 70
0
 71
3
 72
9
 73
5
 74
0
 42
0.0000001
 43
0.0000001
 44
0.0000000001
 40
0.0
 40
0.0
 40
0.0
 40
0.0
 40
0.2376224047
 40
1.0
 40
1.0
 40
1.0
 40
1.0
 10
27.4793606809
 20
84.4616314199
 30
0.0
 10
27.5424530378
 20
84.4532023568
 30
0.0
 10
27.806559122
 20
84.4072852424
 30
0.0
 10
28.0630603723
 20
84.3220703474
 30
0.0
 10
28.2508679032
 20
84.2418538839
 30
0.0
  0
SPLINE
  5
314
100
AcDbEntity
  8
0
100
AcDbSpline
 62
7
  6
BYLAYER
 70
0
 71
3
 72
9
 73
5
 74
0
 42
0.0000001
 43
0.0000001
 44
0.0000000001
 40
0.0
 40
0.0
 40
0.0
 40
0.0
 40
0.2575112099
 40
1.0
 40
1.0
 40
1.0
 40
1.0
 10
31.9926324321
 20
78.9028653178
 30
0.0
 10
32.0008836468
 20
78.8434960082
 30
0.0
 10
32.029259812
 20
78.6124646048
 30
0.0
 10
32.0427364511
 20
78.379497356
 30
0.0
 10
32.0427364511
 20
78.2066709377
 30
0.0
  0
SPLINE
  5
315
100
AcDbEntity
  8
0
100
AcDbSpline
 62
7
  6
BYLAYER
 70
0
 71
3
 72
11
 73
7
 74
0
 42
0.0000001
 43
0.0000001
 44
0.0000000001
 40
0.0
 40
0.0
 40
0.0
 40
0.0
 40
0.2380332253
 40
0.4811602571
 40
0.7339386848
 40
1.0
 40
1.0
 40
1.0
 40
1.0
 10
32.3193679077
 20
87.7295003529
 30
0.0
 10
32.2363477028
 20
87.6815579449
 30
0.0
 10
32.0770259994
 20
87.5690541566
 30
0.0
 10
31.8688169999
 20
87.3572178438
 30
0.0
 10
31.6924544247
 20
87.1045030009
 30
0.0
 10
31.5998938613
 20
86.9162184936
 30
0.0
 10
31.5590825722
 20
86.8171371563
 30
0.0
  0
SPLINE
  5
316
100
AcDbEntity
  8
0
100
AcDbSpline
 62
7
  6
BYLAYER
 70
0
 71
3
 72
15
 73
11
 74
0
 42
0.0000001
 43
0.0000001
 44
0.0000000001
 40
0.0
 40
0.0
 40
0.0
 40
0.0
 40
0.1080111582
 40
0.2180592886
 40
0.3320028048
 40
0.451353132
 40
0.5772565046
 40
0.7104974287
 40
0.851473143
 40
1.0
 40
1.0
 40
1.0
 40
1.0
 10
46.548107241
 20
74.0017052546
 30
0.0
 10
46.5481072512
 20
74.1531545209
 30
0.0
 10
46.5217491149
 20
74.4595156437
 30
0.0
 10
46.4044404598
 20
74.9120666535
 30
0.0
 10
46.2105662805
 20
75.3547951301
 30
0.0
 10
45.9429589056
 20
75.7833593465
 30
0.0
 10
45.6043207307
 20
76.1937636172
 30
0.0
 10
45.1982154044
 20
76.5825268372
 30
0.0
 10
44.7286607775
 20
76.9458233193
 30
0.0
 10
44.3853101027
 20
77.1635308091
 30
0.0
 10
44.2049515964
 20
77.2676584855
 30
0.0
  0
SPLINE
  5
317
100
AcDbEntity
  8
0
100
AcDbSpline
 62
7
  6
BYLAYER
 70
0
 71
3
 72
11
 73
7
 74
0
 42
0.0000001
 43
0.0000001
 44
0.0000000001
 40
0.0
 40
0.0
 40
0.0
 40
0.0
 40
0.2176664589
 40
0.4508331335
 40
0.7105115758
 40
1.0
 40
1.0
 40
1.0
 40
1.0
 10
18.8733966588
 20
70.030477682
 30
0.0
 10
18.8536149106
 20
70.0190589129
 30
0.0
 10
18.8165873607
 20
69.987944084
 30
0.0
 10
18.7771301104
 20
69.9234759752
 30
0.0
 10
18.7537752964
 20
69.8440116354
 30
0.0
 10
18.7491221937
 20
69.7861963674
 30
0.0
 10
18.7491221937
 20
69.7558188315
 30
0.0
  0
SPLINE
  5
318
100
AcDbEntity
  8
0
100
AcDbSpline
 62
7
  6
BYLAYER
 70
0
 71
3
 72
11
 73
7
 74
0
 42
0.0000001
 43
0.0000001
 44
0.0000000001
 40
0.0
 40
0.0
 40
0.0
 40
0.0
 40
0.2897033281
 40
0.5490895198
 40
0.7822165953
 40
1.0
 40
1.0
 40
1.0
 40
1.0
 10
39.0078158192
 20
52.0992535694
 30
0.0
 10
39.0078158192
 20
51.990317059
 30
0.0
 10
38.9912994415
 20
51.7831429041
 30
0.0
 10
38.9073963944
 20
51.4984964721
 30
0.0
 10
38.7661315283
 20
51.2675219897
 30
0.0
 10
38.6334409409
 20
51.1559691883
 30
0.0
 10
38.5625197334
 20
51.1150230858
 30
0.0
  0
SPLINE
  5
319
100
AcDbEntity
  8
0
100
AcDbSpline
 62
7
  6
BYLAYER
 70
0
 71
3
 72
11
 73
7
 74
0
 42
0.0000001
 43
0.0000001
 44
0.0000000001
 40
0.0
 40
0.0
 40
0.0
 40
0.0
 40
0.2897033281
 40
0.5490895198
 40
0.7822165953
 40
1.0
 40
1.0
 40
1.0
 40
1.0
 10
24.1585115911
 20
60.6723094143
 30
0.0
 10
24.1585115911
 20
60.5633729039
 30
0.0
 10
24.1419952134
 20
60.356198749
 30
0.0
 10
24.0580921663
 20
60.071552317
 30
0.0
 10
23.9168273002
 20
59.8405778346
 30
0.0
 10
23.7841367128
 20
59.7290250332
 30
0.0
 10
23.7132155053
 20
59.6880789308
 30
0.0
  0
SPLINE
  5
31A
100
AcDbEntity
  8
0
100
AcDbSpline
 62
7
  6
BYLAYER
 70
0
 71
3
 72
11
 73
7
 74
0
 42
0.0000001
 43
0.0000001
 44
0.0000000001
 40
0.0
 40
0.0
 40
0.0
 40
0.0
 40
0.2623101792
 40
0.5232787045
 40
0.7721956439
 40
1.0
 40
1.0
 40
1.0
 40
1.0
 10
23.451401866
 20
62.5638004683
 30
0.0
 10
23.5602840483
 20
62.4213469285
 30
0.0
 10
23.7563910369
 20
62.1204452631
 30
0.0
 10
23.9794118362
 20
61.6400430844
 30
0.0
 10
24.1215297641
 20
61.1542406981
 30
0.0
 10
24.1585115911
 20
60.8280228764
 30
0.0
 10
24.1585115911
 20
60.6723094143
 30
0.0
  0
SPLINE
  5
31B
100
AcDbEntity
  8
0
100
AcDbSpline
 62
7
  6
BYLAYER
 70
0
 71
3
 72
11
 73
7
 74
0
 42
0.0000001
 43
0.0000001
 44
0.0000000001
 40
0.0
 40
0.0
 40
0.0
 40
0.0
 40
0.2272590486
 40
0.4648166926
 40
0.721104274
 40
1.0
 40
1.0
 40
1.0
 40
1.0
 10
15.4292707706
 20
56.6368807517
 30
0.0
 10
15.4000707909
 20
56.6200467018
 30
0.0
 10
15.3448331941
 20
56.5772061548
 30
0.0
 10
15.2793546363
 20
56.4913602396
 30
0.0
 10
15.2318230051
 20
56.3861888436
 30
0.0
 10
15.2131074946
 20
56.3085870764
 30
0.0
 10
15.2065319693
 20
56.2677498483
 30
0.0
  0
SPLINE
  5
31C
100
AcDbEntity
  8
0
100
AcDbSpline
 62
7
  6
BYLAYER
 70
0
 71
3
 72
14
 73
10
 74
0
 42
0.0000001
 43
0.0000001
 44
0.0000000001
 40
0.0
 40
0.0
 40
0.0
 40
0.0
 40
0.1122646435
 40
0.2253618136
 40
0.3415440594
 40
0.4619765615
 40
0.5880565282
 40
0.7202175489
 40
1.0
 40
1.0
 40
1.0
 40
1.0
 10
27.140836698
 20
52.1052905144
 30
0.0
 10
27.0442638383
 20
52.0625513846
 30
0.0
 10
26.8383436187
 20
52.0017456678
 30
0.0
 10
26.514688117
 20
51.9880077446
 30
0.0
 10
26.1883152547
 20
52.0440827106
 30
0.0
 10
25.8667873757
 20
52.1629371287
 30
0.0
 10
25.5547562522
 20
52.3373680886
 30
0.0
 10
25.148666625
 20
52.6411714542
 30
0.0
 10
24.8814834467
 20
52.9274002033
 30
0.0
 10
24.7210565055
 20
53.1360461248
 30
0.0
  0
SPLINE
  5
31D
100
AcDbEntity
  8
0
100
AcDbSpline
 62
7
  6
BYLAYER
 70
0
 71
3
 72
14
 73
10
 74
0
 42
0.0000001
 43
0.0000001
 44
0.0000000001
 40
0.0
 40
0.0
 40
0.0
 40
0.0
 40
0.2797938119
 40
0.4119545329
 40
0.5380352458
 40
0.6584625789
 40
0.7746340264
 40
0.8877419687
 40
1.0
 40
1.0
 40
1.0
 40
1.0
 10
24.1710529635
 20
54.0886776088
 30
0.0
 10
24.0705661988
 20
54.3319469869
 30
0.0
 10
23.956272011
 20
54.70646431
 30
0.0
 10
23.8962108254
 20
55.2100687791
 30
0.0
 10
23.9011817631
 20
55.567511783
 30
0.0
 10
23.9590068385
 20
55.9053803585
 30
0.0
 10
24.0736190357
 20
56.2160715023
 30
0.0
 10
24.2473664808
 20
56.4894804433
 30
0.0
 10
24.4029826349
 20
56.6374212256
 30
0.0
 10
24.4882787848
 20
56.6996830148
 30
0.0
  0
SPLINE
  5
31E
100
AcDbEntity
  8
0
100
AcDbSpline
 62
7
  6
BYLAYER
 70
0
 71
3
 72
11
 73
7
 74
0
 42
0.0000001
 43
0.0000001
 44
0.0000000001
 40
0.0
 40
0.0
 40
0.0
 40
0.0
 40
0.2502967885
 40
0.512831404
 40
0.7685531842
 40
1.0
 40
1.0
 40
1.0
 40
1.0
 10
58.0222905248
 20
67.9702512192
 30
0.0
 10
58.0703502062
 20
67.9291254218
 30
0.0
 10
58.1587933304
 20
67.8328235786
 30
0.0
 10
58.260942002
 20
67.6663584118
 30
0.0
 10
58.3285155183
 20
67.4881898604
 30
0.0
 10
58.3471196036
 20
67.364949567
 30
0.0
 10
58.3471196036
 20
67.3064592881
 30
0.0
  0
SPLINE
  5
31F
100
AcDbEntity
  8
0
100
AcDbSpline
 62
7
  6
BYLAYER
 70
0
 71
3
 72
13
 73
9
 74
0
 42
0.0000001
 43
0.0000001
 44
0.0000000001
 40
0.0
 40
0.0
 40
0.0
 40
0.0
 40
0.289347344
 40
0.5483228744
 40
0.6677488255
 40
0.7817632573
 40
0.8919048001
 40
1.0
 40
1.0
 40
1.0
 40
1.0
 10
28.1536550425
 20
77.3901766811
 30
0.0
 10
28.1536550425
 20
77.2381491988
 30
0.0
 10
28.1307190909
 20
76.9491896713
 30
0.0
 10
28.0303478184
 20
76.6092598733
 30
0.0
 10
27.9084999514
 20
76.3801264816
 30
0.0
 10
27.8009835885
 20
76.2342240375
 30
0.0
 10
27.6760727911
 20
76.1112183531
 30
0.0
 10
27.5815011612
 20
76.0452228275
 30
0.0
 10
27.5323104739
 20
76.0168338843
 30
0.0
  0
SPLINE
  5
320
100
AcDbEntity
  8
0
100
AcDbSpline
 62
7
  6
BYLAYER
 70
0
 71
3
 72
13
 73
9
 74
0
 42
0.0000001
 43
0.0000001
 44
0.0000000001
 40
0.0
 40
0.0
 40
0.0
 40
0.0
 40
0.113583717
 40
0.2361200135
 40
0.4969523353
 40
0.7594411275
 40
0.8839252585
 40
1.0
 40
1.0
 40
1.0
 40
1.0
 10
32.0427364511
 20
75.1039617526
 30
0.0
 10
32.0427364511
 20
75.0499524787
 30
0.0
 10
32.0523548426
 20
74.9375737154
 30
0.0
 10
32.1044421909
 20
74.7065312996
 30
0.0
 10
32.2264477452
 20
74.4216798172
 30
0.0
 10
32.4055626682
 20
74.1677938479
 30
0.0
 10
32.5762499806
 20
73.9994866844
 30
0.0
 10
32.6679001345
 20
73.9302436303
 30
0.0
 10
32.71449069
 20
73.9006518854
 30
0.0
  0
SPLINE
  5
321
100
AcDbEntity
  8
0
100
AcDbSpline
 62
7
  6
BYLAYER
 70
0
 71
3
 72
9
 73
5
 74
0
 42
0.0000001
 43
0.0000001
 44
0.0000000001
 40
0.0
 40
0.0
 40
0.0
 40
0.0
 40
0.5061354691
 40
1.0
 40
1.0
 40
1.0
 40
1.0
 10
31.8652579003
 20
59.3837003275
 30
0.0
 10
32.1444228659
 20
58.727656802
 30
0.0
 10
32.6525996549
 20
57.4125322817
 30
0.0
 10
33.0669866031
 20
56.0647300381
 30
0.0
 10
33.2460738797
 20
55.3924915237
 30
0.0
  0
SPLINE
  5
322
100
AcDbEntity
  8
0
100
AcDbSpline
 62
7
  6
BYLAYER
 70
0
 71
3
 72
9
 73
5
 74
0
 42
0.0000001
 43
0.0000001
 44
0.0000000001
 40
0.0
 40
0.0
 40
0.0
 40
0.0
 40
0.4830160048
 40
1.0
 40
1.0
 40
1.0
 40
1.0
 10
42.2399089873
 20
8.8332450029
 30
0.0
 10
42.9027079412
 20
8.9712083408
 30
0.0
 10
44.254473832
 20
9.3603393234
 30
0.0
 10
45.5448776135
 20
9.9164057134
 30
0.0
 10
46.1940566212
 20
10.2383288167
 30
0.0
  0
SPLINE
  5
323
100
AcDbEntity
  8
0
100
AcDbSpline
 62
7
  6
BYLAYER
 70
0
 71
3
 72
10
 73
6
 74
0
 42
0.0000001
 43
0.0000001
 44
0.0000000001
 40
0.0
 40
0.0
 40
0.0
 40
0.0
 40
0.5249285206
 40
0.7715403218
 40
1.0
 40
1.0
 40
1.0
 40
1.0
 10
51.4318183278
 20
13.2623338971
 30
0.0
 10
51.5032912183
 20
13.3861804546
 30
0.0
 10
51.5891821145
 20
13.5808447453
 30
0.0
 10
51.6509522876
 20
13.8466925043
 30
0.0
 10
51.6623818873
 20
13.976246324
 30
0.0
 10
51.6623818873
 20
14.0384788202
 30
0.0
  0
SPLINE
  5
324
100
AcDbEntity
  8
0
100
AcDbSpline
 62
7
  6
BYLAYER
 70
0
 71
3
 72
9
 73
5
 74
0
 42
0.0000001
 43
0.0000001
 44
0.0000000001
 40
0.0
 40
0.0
 40
0.0
 40
0.0
 40
0.4796586533
 40
1.0
 40
1.0
 40
1.0
 40
1.0
 10
41.0230049367
 20
72.5728626137
 30
0.0
 10
40.834323226
 20
72.4639278275
 30
0.0
 10
40.4183914015
 20
72.2751169037
 30
0.0
 10
39.9794259383
 20
72.1522252015
 30
0.0
 10
39.7481546081
 20
72.1034950286
 30
0.0
  0
SPLINE
  5
325
100
AcDbEntity
  8
0
100
AcDbSpline
 62
7
  6
BYLAYER
 70
0
 71
3
 72
9
 73
5
 74
0
 42
0.0000001
 43
0.0000001
 44
0.0000000001
 40
0.0
 40
0.0
 40
0.0
 40
0.0
 40
0.2468311545
 40
1.0
 40
1.0
 40
1.0
 40
1.0
 10
39.580855514
 20
72.0709869301
 30
0.0
 10
39.4780034668
 20
72.0526575979
 30
0.0
 10
39.0592866908
 20
71.9901690117
 30
0.0
 10
38.633891053
 20
71.9732442819
 30
0.0
 10
38.3153438479
 20
71.9854897943
 30
0.0
  0
SPLINE
  5
326
100
AcDbEntity
  8
0
100
AcDbSpline
 62
7
  6
BYLAYER
 70
0
 71
3
 72
9
 73
5
 74
0
 42
0.0000001
 43
0.0000001
 44
0.0000000001
 40
0.0
 40
0.0
 40
0.0
 40
0.0
 40
0.5105853158
 40
1.0
 40
1.0
 40
1.0
 40
1.0
 10
38.0898713203
 20
71.998408898
 30
0.0
 10
37.8673032193
 20
72.0153891728
 30
0.0
 10
37.4328640623
 20
72.0729922452
 30
0.0
 10
37.0081370366
 20
72.182112595
 30
0.0
 10
36.8050462982
 20
72.2494392387
 30
0.0
  0
SPLINE
  5
327
100
AcDbEntity
  8
0
100
AcDbSpline
 62
7
  6
BYLAYER
 70
0
 71
3
 72
9
 73
5
 74
0
 42
0.0000001
 43
0.0000001
 44
0.0000000001
 40
0.0
 40
0.0
 40
0.0
 40
0.0
 40
0.5224515074
 40
1.0
 40
1.0
 40
1.0
 40
1.0
 10
36.5652320805
 20
72.3365953917
 30
0.0
 10
36.398324714
 20
72.4028604438
 30
0.0
 10
36.0863504526
 20
72.5499948243
 30
0.0
 10
35.8000939336
 20
72.7438135416
 30
0.0
 10
35.6738345096
 20
72.8487062842
 30
0.0
  0
SPLINE
  5
328
100
AcDbEntity
  8
0
100
AcDbSpline
 62
7
  6
BYLAYER
 70
0
 71
3
 72
9
 73
5
 74
0
 42
0.0000001
 43
0.0000001
 44
0.0000000001
 40
0.0
 40
0.0
 40
0.0
 40
0.0
 40
0.2544388187
 40
1.0
 40
1.0
 40
1.0
 40
1.0
 10
35.6738345096
 20
72.8487062842
 30
0.0
 10
35.6603599266
 20
72.8599005849
 30
0.0
 10
35.6078707153
 20
72.9044564945
 30
0.0
 10
35.5573064735
 20
72.951291281
 30
0.0
 10
35.5209207572
 20
72.9874987082
 30
0.0
  0
SPLINE
  5
329
100
AcDbEntity
  8
0
100
AcDbSpline
 62
7
  6
BYLAYER
 70
0
 71
3
 72
10
 73
6
 74
0
 42
0.0000001
 43
0.0000001
 44
0.0000000001
 40
0.0
 40
0.0
 40
0.0
 40
0.0
 40
0.5238844942
 40
0.7666335819
 40
1.0
 40
1.0
 40
1.0
 40
1.0
 10
35.5209207572
 20
72.9874987082
 30
0.0
 10
35.4111503319
 20
73.0967312613
 30
0.0
 10
35.2663508057
 20
73.2754711425
 30
0.0
 10
35.1343973518
 20
73.5409595586
 30
0.0
 10
35.0919217658
 20
73.6759319694
 30
0.0
 10
35.0768772758
 20
73.7432539824
 30
0.0
  0
SPLINE
  5
32A
100
AcDbEntity
  8
0
100
AcDbSpline
 62
7
  6
BYLAYER
 70
0
 71
3
 72
9
 73
5
 74
0
 42
0.0000001
 43
0.0000001
 44
0.0000000001
 40
0.0
 40
0.0
 40
0.0
 40
0.0
 40
0.2719636547
 40
1.0
 40
1.0
 40
1.0
 40
1.0
 10
51.6623818873
 20
14.0384788202
 30
0.0
 10
51.6623818873
 20
14.0678532307
 30
0.0
 10
51.6578956345
 20
14.1756472975
 30
0.0
 10
51.6337952392
 20
14.2838570132
 30
0.0
 10
51.6009040829
 20
14.3552818394
 30
0.0
  0
SPLINE
  5
32B
100
AcDbEntity
  8
0
100
AcDbSpline
 62
7
  6
BYLAYER
 70
0
 71
3
 72
11
 73
7
 74
0
 42
0.0000001
 43
0.0000001
 44
0.0000000001
 40
0.0
 40
0.0
 40
0.0
 40
0.0
 40
0.2650926457
 40
0.5201088199
 40
0.7650165048
 40
1.0
 40
1.0
 40
1.0
 40
1.0
 10
45.6771771261
 20
12.3894173338
 30
0.0
 10
45.6382373922
 20
15.3719078261
 30
0.0
 10
45.3805200484
 20
21.2232179166
 30
0.0
 10
44.4171532385
 20
29.7839661289
 30
0.0
 10
42.8890345098
 20
37.9182934754
 30
0.0
 10
41.4691532846
 20
43.1356138907
 30
0.0
 10
40.6624526349
 20
45.6535072275
 30
0.0
  0
SPLINE
  5
32C
100
AcDbEntity
  8
0
100
AcDbSpline
 62
7
  6
BYLAYER
 70
0
 71
3
 72
15
 73
11
 74
0
 42
0.0000001
 43
0.0000001
 44
0.0000000001
 40
0.0
 40
0.0
 40
0.0
 40
0.0
 40
0.1512500232
 40
0.2971951382
 40
0.4361640205
 40
0.5668337309
 40
0.6883560308
 40
0.8005102498
 40
0.9038774283
 40
1.0
 40
1.0
 40
1.0
 40
1.0
 10
36.0421760727
 20
8.7104966597
 30
0.0
 10
35.5465610271
 20
8.7784086573
 30
0.0
 10
34.5777357362
 20
8.9529239885
 30
0.0
 10
33.1847805094
 20
9.3356960789
 30
0.0
 10
31.8990282733
 20
9.82849191
 30
0.0
 10
30.7460687688
 20
10.4217772963
 30
0.0
 10
29.748637422
 20
11.1043818143
 30
0.0
 10
28.9265415913
 20
11.8642675821
 30
0.0
 10
28.2972263698
 20
12.6876411586
 30
0.0
 10
28.0080180582
 20
13.2876030322
 30
0.0
 10
27.9048738962
 20
13.5883230211
 30
0.0
  0
SPLINE
  5
32D
100
AcDbEntity
  8
0
100
AcDbSpline
 62
7
  6
BYLAYER
 70
0
 71
3
 72
11
 73
7
 74
0
 42
0.0000001
 43
0.0000001
 44
0.0000000001
 40
0.0
 40
0.0
 40
0.0
 40
0.0
 40
0.237100044
 40
0.4889192556
 40
0.7464607696
 40
1.0
 40
1.0
 40
1.0
 40
1.0
 10
37.1269334489
 20
43.6122864581
 30
0.0
 10
37.1157848455
 20
43.6936073351
 30
0.0
 10
37.0775448923
 20
43.8593796943
 30
0.0
 10
36.9829899988
 20
44.1007293076
 30
0.0
 10
36.8535645599
 20
44.3318375442
 30
0.0
 10
36.7467941903
 20
44.4737753805
 30
0.0
 10
36.6889592997
 20
44.539799269
 30
0.0
  0
SPLINE
  5
32E
100
AcDbEntity
  8
0
100
AcDbSpline
 62
7
  6
BYLAYER
 70
0
 71
3
 72
11
 73
7
 74
0
 42
0.0000001
 43
0.0000001
 44
0.0000000001
 40
0.0
 40
0.0
 40
0.0
 40
0.0
 40
0.2595646355
 40
0.5152041931
 40
0.7635463417
 40
1.0
 40
1.0
 40
1.0
 40
1.0
 10
27.7979039851
 20
61.7549055132
 30
0.0
 10
27.6193180147
 20
61.7647444307
 30
0.0
 10
27.2633881389
 20
61.7641024328
 30
0.0
 10
26.7397398988
 20
61.7005990893
 30
0.0
 10
26.2442394362
 20
61.572874928
 30
0.0
 10
25.9358789607
 20
61.4383202168
 30
0.0
 10
25.7947306977
 20
61.356932551
 30
0.0
  0
SPLINE
  5
32F
100
AcDbEntity
  8
0
100
AcDbSpline
 62
7
  6
BYLAYER
 70
0
 71
3
 72
11
 73
7
 74
0
 42
0.0000001
 43
0.0000001
 44
0.0000000001
 40
0.0
 40
0.0
 40
0.0
 40
0.0
 40
0.2373215703
 40
0.4830377395
 40
0.7372654432
 40
1.0
 40
1.0
 40
1.0
 40
1.0
 10
42.291304504
 20
46.593919679
 30
0.0
 10
43.0397394331
 20
44.0328269601
 30
0.0
 10
44.3741437041
 20
38.7632232771
 30
0.0
 10
45.8709885014
 20
30.6049089356
 30
0.0
 10
46.8927166992
 20
22.0861149583
 30
0.0
 10
47.2489513831
 20
16.2812486125
 30
0.0
 10
47.3508549032
 20
13.3290769817
 30
0.0
  0
LINE
  5
330
100
AcDbEntity
  8
0
100
AcDbLine
 62
7
  6
BYLAYER
 10
27.8211586313
 20
61.7414797407
 11
27.8189329731
 21
61.7536687641
  0
SPLINE
  5
331
100
AcDbEntity
  8
0
100
AcDbSpline
 62
7
  6
BYLAYER
 70
0
 71
3
 72
10
 73
6
 74
0
 42
0.0000001
 43
0.0000001
 44
0.0000000001
 40
0.0
 40
0.0
 40
0.0
 40
0.0
 40
0.5646690403
 40
0.8005293074
 40
1.0
 40
1.0
 40
1.0
 40
1.0
 10
28.1201383993
 20
59.7795843554
 30
0.0
 10
28.0569443649
 20
60.1477435438
 30
0.0
 10
27.9838893354
 20
60.6723892656
 30
0.0
 10
27.8898369931
 20
61.3271698605
 30
0.0
 10
27.8442396369
 20
61.6115589327
 30
0.0
 10
27.8211586313
 20
61.7414797407
 30
0.0
  0
SPLINE
  5
332
100
AcDbEntity
  8
0
100
AcDbSpline
 62
7
  6
BYLAYER
 70
0
 71
3
 72
9
 73
5
 74
0
 42
0.0000001
 43
0.0000001
 44
0.0000000001
 40
0.0
 40
0.0
 40
0.0
 40
0.0
 40
0.2507375383
 40
1.0
 40
1.0
 40
1.0
 40
1.0
 10
28.2377289147
 20
59.3316690194
 30
0.0
 10
28.2252335344
 20
59.3683216768
 30
0.0
 10
28.1779422634
 20
59.5153523422
 30
0.0
 10
28.1411817213
 20
59.6657973127
 30
0.0
 10
28.1201383993
 20
59.7795843554
 30
0.0
  0
SPLINE
  5
333
100
AcDbEntity
  8
0
100
AcDbSpline
 62
7
  6
BYLAYER
 70
0
 71
3
 72
11
 73
7
 74
0
 42
0.0000001
 43
0.0000001
 44
0.0000000001
 40
0.0
 40
0.0
 40
0.0
 40
0.0
 40
0.2177843137
 40
0.4509117637
 40
0.7102976701
 40
1.0
 40
1.0
 40
1.0
 40
1.0
 10
38.5625197334
 20
51.1150230858
 30
0.0
 10
38.491600126
 20
51.0740779072
 30
0.0
 10
38.3286513023
 20
51.0149424445
 30
0.0
 10
38.057996083
 20
51.0080895065
 30
0.0
 10
37.7695410502
 20
51.0777462546
 30
0.0
 10
37.5818693819
 20
51.1670253076
 30
0.0
 10
37.4875299101
 20
51.2214909948
 30
0.0
  0
SPLINE
  5
334
100
AcDbEntity
  8
0
100
AcDbSpline
 62
7
  6
BYLAYER
 70
0
 71
3
 72
16
 73
12
 74
0
 42
0.0000001
 43
0.0000001
 44
0.0000000001
 40
0.0
 40
0.0
 40
0.0
 40
0.0
 40
0.1135257329
 40
0.2354027416
 40
0.363885406
 40
0.496396058
 40
0.6297944857
 40
0.7605685134
 40
0.8850696418
 40
0.9439441273
 40
1.0
 40
1.0
 40
1.0
 40
1.0
 10
44.2049986999
 20
66.9877007325
 30
0.0
 10
43.8194956319
 20
66.7651317609
 30
0.0
 10
42.9721856987
 20
66.3841771077
 30
0.0
 10
41.5879688394
 20
66.0181960296
 30
0.0
 10
40.0928128748
 20
65.8405402823
 30
0.0
 10
38.542951347
 20
65.8478385853
 30
0.0
 10
36.9949409661
 20
66.0282604815
 30
0.0
 10
35.5057633005
 20
66.3648066668
 30
0.0
 10
34.3376365611
 20
66.7649420518
 30
0.0
 10
33.4804201971
 20
67.1490086088
 30
0.0
 10
33.0816417656
 20
67.3598453142
 30
0.0
 10
32.891290201
 20
67.4697423551
 30
0.0
  0
SPLINE
  5
335
100
AcDbEntity
  8
0
100
AcDbSpline
 62
7
  6
BYLAYER
 70
0
 71
3
 72
9
 73
5
 74
0
 42
0.0000001
 43
0.0000001
 44
0.0000000001
 40
0.0
 40
0.0
 40
0.0
 40
0.0
 40
0.2438918131
 40
1.0
 40
1.0
 40
1.0
 40
1.0
 10
28.1276220256
 20
69.8786757841
 30
0.0
 10
28.525919653
 20
69.7060191548
 30
0.0
 10
30.1480413565
 20
68.9729264039
 30
0.0
 10
31.7257711186
 20
68.1426398881
 30
0.0
 10
32.891290201
 20
67.4697423551
 30
0.0
  0
SPLINE
  5
336
100
AcDbEntity
  8
0
100
AcDbSpline
 62
7
  6
BYLAYER
 70
0
 71
3
 72
9
 73
5
 74
0
 42
0.0000001
 43
0.0000001
 44
0.0000000001
 40
0.0
 40
0.0
 40
0.0
 40
0.0
 40
0.2574269668
 40
1.0
 40
1.0
 40
1.0
 40
1.0
 10
20.3820925662
 20
55.2324688748
 30
0.0
 10
19.985457413
 20
55.386738034
 30
0.0
 10
18.4345552848
 20
55.9593236087
 30
0.0
 10
16.8421629247
 20
56.4218976108
 30
0.0
 10
15.6441175186
 20
56.6897694673
 30
0.0
  0
SPLINE
  5
337
100
AcDbEntity
  8
0
100
AcDbSpline
 62
7
  6
BYLAYER
 70
0
 71
3
 72
23
 73
19
 74
0
 42
0.0000001
 43
0.0000001
 44
0.0000000001
 40
0.0
 40
0.0
 40
0.0
 40
0.0
 40
0.0623794588
 40
0.1287517657
 40
0.1983476245
 40
0.270336598
 40
0.3437246572
 40
0.417465355
 40
0.4905017331
 40
0.5617999262
 40
0.630408538
 40
0.6955079625
 40
0.756465425
 40
0.812911505
 40
0.864821471
 40
0.9126046662
 40
0.9571862019
 40
1.0
 40
1.0
 40
1.0
 40
1.0
 10
29.3910970615
 20
76.6757553607
 30
0.0
 10
29.3910970615
 20
76.87277056
 30
0.0
 10
29.3643499346
 20
77.2796783416
 30
0.0
 10
29.2545688121
 20
77.8974920193
 30
0.0
 10
29.0759207653
 20
78.5305776534
 30
0.0
 10
28.8324036478
 20
79.1653060304
 30
0.0
 10
28.5291296032
 20
79.7883012694
 30
0.0
 10
28.1725899876
 20
80.3862572477
 30
0.0
 10
27.7703902706
 20
80.946432217
 30
0.0
 10
27.3310556762
 20
81.4568604304
 30
0.0
 10
26.8639540828
 20
81.9067182868
 30
0.0
 10
26.378915423
 20
82.2864750434
 30
0.0
 10
25.8859769869
 20
82.5880327732
 30
0.0
 10
25.3951783194
 20
82.804927162
 30
0.0
 10
24.9162941808
 20
82.9321849016
 30
0.0
 10
24.4587037413
 20
82.9658764034
 30
0.0
 10
24.032600186
 20
82.9033789118
 30
0.0
 10
23.7744435969
 20
82.7961309041
 30
0.0
 10
23.6573459018
 20
82.728509468
 30
0.0
  0
SPLINE
  5
338
100
AcDbEntity
  8
0
100
AcDbSpline
 62
7
  6
BYLAYER
 70
0
 71
3
 72
13
 73
9
 74
0
 42
0.0000001
 43
0.0000001
 44
0.0000000001
 40
0.0
 40
0.0
 40
0.0
 40
0.0
 40
0.1141759018
 40
0.2375697245
 40
0.4999990825
 40
0.762428944
 40
0.8858232992
 40
1.0
 40
1.0
 40
1.0
 40
1.0
 10
30.0982067867
 20
72.3483030039
 30
0.0
 10
30.0498341986
 20
72.3762302989
 30
0.0
 10
29.9542359294
 20
72.44331023
 30
0.0
 10
29.775142096
 20
72.6107710262
 30
0.0
 10
29.5861424706
 20
72.8691572477
 30
0.0
 10
29.4568719422
 20
73.1620284825
 30
0.0
 10
29.4013918085
 20
73.4008591969
 30
0.0
 10
29.3910970615
 20
73.5171902471
 30
0.0
 10
29.3910970615
 20
73.5730461756
 30
0.0
  0
SPLINE
  5
339
100
AcDbEntity
  8
0
100
AcDbSpline
 62
7
  6
BYLAYER
 70
0
 71
3
 72
9
 73
5
 74
0
 42
0.0000001
 43
0.0000001
 44
0.0000000001
 40
0.0
 40
0.0
 40
0.0
 40
0.0
 40
0.5114744495
 40
1.0
 40
1.0
 40
1.0
 40
1.0
 10
24.111595978
 20
80.7635749806
 30
0.0
 10
24.1449960029
 20
80.8265611924
 30
0.0
 10
24.2201457144
 20
80.944841152
 30
0.0
 10
24.3154279546
 20
81.0478592326
 30
0.0
 10
24.3663445916
 20
81.0930747111
 30
0.0
  0
SPLINE
  5
33A
100
AcDbEntity
  8
0
100
AcDbSpline
 62
7
  6
BYLAYER
 70
0
 71
3
 72
11
 73
7
 74
0
 42
0.0000001
 43
0.0000001
 44
0.0000000001
 40
0.0
 40
0.0
 40
0.0
 40
0.0
 40
0.2190562343
 40
0.4527372034
 40
0.7117090763
 40
1.0
 40
1.0
 40
1.0
 40
1.0
 10
50.7646608074
 20
15.7114268263
 30
0.0
 10
50.7412607177
 20
15.7249300793
 30
0.0
 10
50.6877825104
 20
15.7446967955
 30
0.0
 10
50.5989202019
 20
15.7481947749
 30
0.0
 10
50.504080474
 20
15.7271295434
 30
0.0
 10
50.4421526596
 20
15.6992028811
 30
0.0
 10
50.4109997973
 20
15.6820652706
 30
0.0
  0
SPLINE
  5
33B
100
AcDbEntity
  8
0
100
AcDbSpline
 62
7
  6
BYLAYER
 70
0
 71
3
 72
13
 73
9
 74
0
 42
0.0000001
 43
0.0000001
 44
0.0000000001
 40
0.0
 40
0.0
 40
0.0
 40
0.0
 40
0.1133985757
 40
0.2281041026
 40
0.3453338242
 40
0.466177936
 40
0.7216619925
 40
1.0
 40
1.0
 40
1.0
 40
1.0
 10
46.5480276895
 20
70.4953198056
 30
0.0
 10
46.5480311026
 20
70.3284761855
 30
0.0
 10
46.5220672755
 20
69.992301782
 30
0.0
 10
46.4057518279
 20
69.4958220115
 30
0.0
 10
46.2132266819
 20
69.0117774683
 30
0.0
 10
45.8511661357
 20
68.3798488317
 30
0.0
 10
45.205881875
 20
67.6501728916
 30
0.0
 10
44.5596534642
 20
67.1924595339
 30
0.0
 10
44.2049986999
 20
66.9877007325
 30
0.0
  0
SPLINE
  5
33C
100
AcDbEntity
  8
0
100
AcDbSpline
 62
7
  6
BYLAYER
 70
0
 71
3
 72
9
 73
5
 74
0
 42
0.0000001
 43
0.0000001
 44
0.0000000001
 40
0.0
 40
0.0
 40
0.0
 40
0.0
 40
0.2540032457
 40
1.0
 40
1.0
 40
1.0
 40
1.0
 10
24.838105652
 20
52.9982704068
 30
0.0
 10
24.8595275137
 20
52.9731181038
 30
0.0
 10
24.9451551239
 20
52.8752049138
 30
0.0
 10
25.0359574132
 20
52.7817867569
 30
0.0
 10
25.106589201
 20
52.715255401
 30
0.0
  0
SPLINE
  5
33D
100
AcDbEntity
  8
0
100
AcDbSpline
 62
7
  6
BYLAYER
 70
0
 71
3
 72
9
 73
5
 74
0
 42
0.0000001
 43
0.0000001
 44
0.0000000001
 40
0.0
 40
0.0
 40
0.0
 40
0.0
 40
0.2613458641
 40
1.0
 40
1.0
 40
1.0
 40
1.0
 10
25.106589201
 20
52.715255401
 30
0.0
 10
25.1460524221
 20
52.6780831633
 30
0.0
 10
25.300510023
 20
52.5396367139
 30
0.0
 10
25.4692199287
 20
52.4165371615
 30
0.0
 10
25.6012944758
 20
52.3388537452
 30
0.0
  0
SPLINE
  5
33E
100
AcDbEntity
  8
0
100
AcDbSpline
 62
7
  6
BYLAYER
 70
0
 71
3
 72
9
 73
5
 74
0
 42
0.0000001
 43
0.0000001
 44
0.0000000001
 40
0.0
 40
0.0
 40
0.0
 40
0.0
 40
0.2611251515
 40
1.0
 40
1.0
 40
1.0
 40
1.0
 10
25.6012944758
 20
52.3388537452
 30
0.0
 10
25.6314851612
 20
52.3210962314
 30
0.0
 10
25.7486179531
 20
52.2557544682
 30
0.0
 10
25.8721149397
 20
52.2014101396
 30
0.0
 10
25.9660978388
 20
52.169950952
 30
0.0
  0
SPLINE
  5
33F
100
AcDbEntity
  8
0
100
AcDbSpline
 62
7
  6
BYLAYER
 70
0
 71
3
 72
11
 73
7
 74
0
 42
0.0000001
 43
0.0000001
 44
0.0000000001
 40
0.0
 40
0.0
 40
0.0
 40
0.0
 40
0.2785611962
 40
0.5315934581
 40
0.7678086545
 40
1.0
 40
1.0
 40
1.0
 40
1.0
 10
25.9660978388
 20
52.169950952
 30
0.0
 10
26.0586118082
 20
52.1389834637
 30
0.0
 10
26.2412500831
 20
52.0954753978
 30
0.0
 10
26.5130759683
 20
52.0953483186
 30
0.0
 10
26.7594324718
 20
52.1660813727
 30
0.0
 10
26.8981803984
 20
52.2592063496
 30
0.0
 10
26.9582700301
 20
52.3139975944
 30
0.0
  0
SPLINE
  5
340
100
AcDbEntity
  8
0
100
AcDbSpline
 62
7
  6
BYLAYER
 70
0
 71
3
 72
14
 73
10
 74
0
 42
0.0000001
 43
0.0000001
 44
0.0000000001
 40
0.0
 40
0.0
 40
0.0
 40
0.0
 40
0.0950586386
 40
0.1968771027
 40
0.3076953091
 40
0.4285293555
 40
0.5593253406
 40
0.6992557724
 40
1.0
 40
1.0
 40
1.0
 40
1.0
 10
26.9582700301
 20
52.3139975944
 30
0.0
 10
27.0120358321
 20
52.3630226113
 30
0.0
 10
27.1102631918
 20
52.4796547186
 30
0.0
 10
27.2176495478
 20
52.6911201465
 30
0.0
 10
27.2874538751
 20
52.9380689726
 30
0.0
 10
27.3187230189
 20
53.2147446856
 30
0.0
 10
27.3113680218
 20
53.5152076147
 30
0.0
 10
27.2488205728
 20
53.9488648519
 30
0.0
 10
27.147417351
 20
54.2735586322
 30
0.0
 10
27.0602233405
 20
54.4866067945
 30
0.0
  0
SPLINE
  5
341
100
AcDbEntity
  8
0
100
AcDbSpline
 62
7
  6
BYLAYER
 70
0
 71
3
 72
9
 73
5
 74
0
 42
0.0000001
 43
0.0000001
 44
0.0000000001
 40
0.0
 40
0.0
 40
0.0
 40
0.0
 40
0.5136906215
 40
1.0
 40
1.0
 40
1.0
 40
1.0
 10
25.6769443957
 20
57.1459233902
 30
0.0
 10
25.54400272
 20
57.1640573093
 30
0.0
 10
25.2778447945
 20
57.1627912505
 30
0.0
 10
25.0265839925
 20
57.0709716674
 30
0.0
 10
24.9171693547
 20
57.006452229
 30
0.0
  0
SPLINE
  5
342
100
AcDbEntity
  8
0
100
AcDbSpline
 62
7
  6
BYLAYER
 70
0
 71
3
 72
11
 73
7
 74
0
 42
0.0000001
 43
0.0000001
 44
0.0000000001
 40
0.0
 40
0.0
 40
0.0
 40
0.0
 40
0.26612937
 40
0.5188993948
 40
0.7620010072
 40
1.0
 40
1.0
 40
1.0
 40
1.0
 10
33.4914744901
 20
87.9314732266
 30
0.0
 10
33.3850818056
 20
87.9457652395
 30
0.0
 10
33.1754122707
 20
87.9599696128
 30
0.0
 10
32.8678680801
 20
87.9337130664
 30
0.0
 10
32.5798774592
 20
87.8592885929
 30
0.0
 10
32.4025029428
 20
87.7775090729
 30
0.0
 10
32.3193679077
 20
87.7295003529
 30
0.0
  0
SPLINE
  5
343
100
AcDbEntity
  8
0
100
AcDbSpline
 62
7
  6
BYLAYER
 70
0
 71
3
 72
11
 73
7
 74
0
 42
0.0000001
 43
0.0000001
 44
0.0000000001
 40
0.0
 40
0.0
 40
0.0
 40
0.0
 40
0.2799442851
 40
0.5414944602
 40
0.7817216338
 40
1.0
 40
1.0
 40
1.0
 40
1.0
 10
26.953542384
 20
56.4089401395
 30
0.0
 10
26.854246006
 20
56.5068756214
 30
0.0
 10
26.6515434861
 20
56.6859748621
 30
0.0
 10
26.3290058073
 20
56.9063052556
 30
0.0
 10
26.0054286959
 20
57.0642924685
 30
0.0
 10
25.7842071618
 20
57.1278443796
 30
0.0
 10
25.676979239
 20
57.1459487291
 30
0.0
  0
SPLINE
  5
344
100
AcDbEntity
  8
0
100
AcDbSpline
 62
7
  6
BYLAYER
 70
0
 71
3
 72
14
 73
10
 74
0
 42
0.0000001
 43
0.0000001
 44
0.0000000001
 40
0.0
 40
0.0
 40
0.0
 40
0.0
 40
0.1393483216
 40
0.2750841403
 40
0.4068498532
 40
0.5344230386
 40
0.6576174727
 40
0.7763124091
 40
1.0
 40
1.0
 40
1.0
 40
1.0
 10
40.3446945945
 20
57.7641473724
 30
0.0
 10
39.492281719
 20
58.5389175753
 30
0.0
 10
37.7730875865
 20
60.0288969948
 30
0.0
 10
35.1232296885
 20
62.1022183655
 30
0.0
 10
32.4465458736
 20
63.9762273245
 30
0.0
 10
29.756444037
 20
65.6415420681
 30
0.0
 10
27.0653073178
 20
67.0905448771
 30
0.0
 10
23.5641893948
 20
68.6918900292
 30
0.0
 10
20.8695982172
 20
69.6032404304
 30
0.0
 10
19.0739512725
 20
70.0445389356
 30
0.0
  0
SPLINE
  5
345
100
AcDbEntity
  8
0
100
AcDbSpline
 62
7
  6
BYLAYER
 70
0
 71
3
 72
11
 73
7
 74
0
 42
0.0000001
 43
0.0000001
 44
0.0000000001
 40
0.0
 40
0.0
 40
0.0
 40
0.0
 40
0.2314468158
 40
0.487168596
 40
0.7497032115
 40
1.0
 40
1.0
 40
1.0
 40
1.0
 10
40.6695236733
 20
57.1003554413
 30
0.0
 10
40.6695236733
 20
57.1588457202
 30
0.0
 10
40.650919588
 20
57.2820860136
 30
0.0
 10
40.5833460716
 20
57.460254565
 30
0.0
 10
40.4811974
 20
57.6267197318
 30
0.0
 10
40.3927542759
 20
57.723021575
 30
0.0
 10
40.3446945945
 20
57.7641473724
 30
0.0
  0
SPLINE
  5
346
100
AcDbEntity
  8
0
100
AcDbSpline
 62
7
  6
BYLAYER
 70
0
 71
3
 72
12
 73
8
 74
0
 42
0.0000001
 43
0.0000001
 44
0.0000000001
 40
0.0
 40
0.0
 40
0.0
 40
0.0
 40
0.2894941049
 40
0.5486496671
 40
0.781581992
 40
0.8917812395
 40
1.0
 40
1.0
 40
1.0
 40
1.0
 10
35.2601342759
 20
54.2629295684
 30
0.0
 10
35.2601342759
 20
54.3718703828
 30
0.0
 10
35.2766802317
 20
54.5790684428
 30
0.0
 10
35.360410233
 20
54.863578034
 30
0.0
 10
35.4808177636
 20
55.0598853027
 30
0.0
 10
35.6023706159
 20
55.179482879
 30
0.0
 10
35.6701567322
 20
55.2268072027
 30
0.0
 10
35.7054339666
 20
55.2471537987
 30
0.0
  0
SPLINE
  5
347
100
AcDbEntity
  8
0
100
AcDbSpline
 62
7
  6
BYLAYER
 70
0
 71
3
 72
15
 73
11
 74
0
 42
0.0000001
 43
0.0000001
 44
0.0000000001
 40
0.0
 40
0.0
 40
0.0
 40
0.0
 40
0.1141549974
 40
0.2373268943
 40
0.3669765742
 40
0.5000005394
 40
0.633024429
 40
0.7626738905
 40
0.8858454396
 40
1.0
 40
1.0
 40
1.0
 40
1.0
 10
32.891290201
 20
70.7357520236
 30
0.0
 10
33.2785491653
 20
70.5121730143
 30
0.0
 10
34.1253593754
 20
70.1178523323
 30
0.0
 10
35.5043385175
 20
69.6987335968
 30
0.0
 10
36.9972966378
 20
69.4407529561
 30
0.0
 10
38.5481541915
 20
69.3537160718
 30
0.0
 10
40.0990104782
 20
69.4407603549
 30
0.0
 10
41.5919648344
 20
69.6987481184
 30
0.0
 10
42.9709379105
 20
70.1178733889
 30
0.0
 10
43.8177428304
 20
70.5121982725
 30
0.0
 10
44.2049986999
 20
70.7357792184
 30
0.0
  0
SPLINE
  5
348
100
AcDbEntity
  8
0
100
AcDbSpline
 62
7
  6
BYLAYER
 70
0
 71
3
 72
15
 73
11
 74
0
 42
0.0000001
 43
0.0000001
 44
0.0000000001
 40
0.0
 40
0.0
 40
0.0
 40
0.0
 40
0.1141232787
 40
0.2373467935
 40
0.3669716251
 40
0.4999988493
 40
0.6330262331
 40
0.7626515288
 40
0.885875802
 40
1.0
 40
1.0
 40
1.0
 40
1.0
 10
36.780420185
 20
51.6297317493
 30
0.0
 10
36.6763735006
 20
51.6898017716
 30
0.0
 10
36.4708165347
 20
51.8339502125
 30
0.0
 10
36.1879222704
 20
52.0985218287
 30
0.0
 10
35.9272782375
 20
52.4113878208
 30
0.0
 10
35.6985982318
 20
52.7606039253
 30
0.0
 10
35.5105061869
 20
53.1332541909
 30
0.0
 10
35.3698757545
 20
53.5154121436
 30
0.0
 10
35.2821942489
 20
53.8926931966
 30
0.0
 10
35.2601342759
 20
54.1427865176
 30
0.0
 10
35.2601342759
 20
54.2629295684
 30
0.0
  0
SPLINE
  5
349
100
AcDbEntity
  8
0
100
AcDbSpline
 62
7
  6
BYLAYER
 70
0
 71
3
 72
15
 73
11
 74
0
 42
0.0000001
 43
0.0000001
 44
0.0000000001
 40
0.0
 40
0.0
 40
0.0
 40
0.0
 40
0.1485265902
 40
0.2895021089
 40
0.4227429133
 40
0.5486462437
 40
0.6679966168
 40
0.7819402693
 40
0.8919886027
 40
1.0
 40
1.0
 40
1.0
 40
1.0
 10
44.2049986999
 20
70.7357792184
 30
0.0
 10
44.3853538025
 20
70.8399066639
 30
0.0
 10
44.7286979353
 20
71.0576134501
 30
0.0
 10
45.1982433519
 20
71.4209079636
 30
0.0
 10
45.6043405256
 20
71.8096684636
 30
0.0
 10
45.9429717494
 20
72.220069334
 30
0.0
 10
46.2105735011
 20
72.6486295777
 30
0.0
 10
46.4044435556
 20
73.0913536027
 30
0.0
 10
46.5217496971
 20
73.5438998327
 30
0.0
 10
46.5481072308
 20
73.8502576084
 30
0.0
 10
46.548107241
 20
74.0017052546
 30
0.0
  0
SPLINE
  5
34A
100
AcDbEntity
  8
0
100
AcDbSpline
 62
7
  6
BYLAYER
 70
0
 71
3
 72
15
 73
11
 74
0
 42
0.0000001
 43
0.0000001
 44
0.0000000001
 40
0.0
 40
0.0
 40
0.0
 40
0.0
 40
0.0940793389
 40
0.2012113141
 40
0.3209718215
 40
0.4510697281
 40
0.5880228739
 40
0.7278058441
 40
0.8664088737
 40
1.0
 40
1.0
 40
1.0
 40
1.0
 10
27.8642612413
 20
52.6343367314
 30
0.0
 10
27.9290804481
 20
52.745158769
 30
0.0
 10
28.0303374054
 20
53.0044473298
 30
0.0
 10
28.0952142765
 20
53.4400762478
 30
0.0
 10
28.0833126737
 20
53.9291408358
 30
0.0
 10
27.995265753
 20
54.4511775391
 30
0.0
 10
27.8337611246
 20
54.9838377037
 30
0.0
 10
27.6038180197
 20
55.5034965949
 30
0.0
 10
27.3129301909
 20
55.9863193482
 30
0.0
 10
27.0787829857
 20
56.2767227487
 30
0.0
 10
26.95338109
 20
56.4090482188
 30
0.0
  0
SPLINE
  5
34B
100
AcDbEntity
  8
0
100
AcDbSpline
 62
7
  6
BYLAYER
 70
0
 71
3
 72
11
 73
7
 74
0
 42
0.0000001
 43
0.0000001
 44
0.0000000001
 40
0.0
 40
0.0
 40
0.0
 40
0.0
 40
0.2897016594
 40
0.5490895814
 40
0.7822189142
 40
1.0
 40
1.0
 40
1.0
 40
1.0
 10
35.9672440011
 20
55.4876936481
 30
0.0
 10
35.9672440011
 20
55.5966297749
 30
0.0
 10
35.9837602041
 20
55.8038042636
 30
0.0
 10
36.0676589974
 20
56.0884532528
 30
0.0
 10
36.2089269935
 20
56.31942961
 30
0.0
 10
36.3416208872
 20
56.4309759377
 30
0.0
 10
36.4125383905
 20
56.4719270782
 30
0.0
  0
SPLINE
  5
34C
100
AcDbEntity
  8
0
100
AcDbSpline
 62
7
  6
BYLAYER
 70
0
 71
3
 72
11
 73
7
 74
0
 42
0.0000001
 43
0.0000001
 44
0.0000000001
 40
0.0
 40
0.0
 40
0.0
 40
0.0
 40
0.2897016594
 40
0.5490895814
 40
0.7822189142
 40
1.0
 40
1.0
 40
1.0
 40
1.0
 10
20.4108300478
 20
64.4689902475
 30
0.0
 10
20.4108300478
 20
64.5779263743
 30
0.0
 10
20.4273462509
 20
64.785100863
 30
0.0
 10
20.5112450442
 20
65.0697498522
 30
0.0
 10
20.6525130403
 20
65.3007262094
 30
0.0
 10
20.785206934
 20
65.4122725371
 30
0.0
 10
20.8561244372
 20
65.4532236776
 30
0.0
  0
SPLINE
  5
34D
100
AcDbEntity
  8
0
100
AcDbSpline
 62
7
  6
BYLAYER
 70
0
 71
3
 72
15
 73
11
 74
0
 42
0.0000001
 43
0.0000001
 44
0.0000000001
 40
0.0
 40
0.0
 40
0.0
 40
0.0
 40
0.1141232787
 40
0.2373467935
 40
0.3669716251
 40
0.4999988493
 40
0.6330262331
 40
0.7626515288
 40
0.885875802
 40
1.0
 40
1.0
 40
1.0
 40
1.0
 10
21.9311159569
 20
60.2027875942
 30
0.0
 10
21.8270692725
 20
60.2628576165
 30
0.0
 10
21.6215123066
 20
60.4070060574
 30
0.0
 10
21.3386180423
 20
60.6715776736
 30
0.0
 10
21.0779740094
 20
60.9844436657
 30
0.0
 10
20.8492940037
 20
61.3336597702
 30
0.0
 10
20.6612019588
 20
61.7063100359
 30
0.0
 10
20.5205715264
 20
62.0884679885
 30
0.0
 10
20.4328900208
 20
62.4657490415
 30
0.0
 10
20.4108300478
 20
62.7158423625
 30
0.0
 10
20.4108300478
 20
62.8359854133
 30
0.0
  0
SPLINE
  5
34E
100
AcDbEntity
  8
0
100
AcDbSpline
 62
7
  6
BYLAYER
 70
0
 71
3
 72
9
 73
5
 74
0
 42
0.0000001
 43
0.0000001
 44
0.0000000001
 40
0.0
 40
0.0
 40
0.0
 40
0.0
 40
0.2440902381
 40
1.0
 40
1.0
 40
1.0
 40
1.0
 10
27.7353192583
 20
52.456164145
 30
0.0
 10
27.7472951237
 20
52.4694839266
 30
0.0
 10
27.7947094575
 20
52.5255218957
 30
0.0
 10
27.8362537182
 20
52.5864560378
 30
0.0
 10
27.8642594727
 20
52.6343377525
 30
0.0
  0
SPLINE
  5
34F
100
AcDbEntity
  8
0
100
AcDbSpline
 62
7
  6
BYLAYER
 70
0
 71
3
 72
11
 73
7
 74
0
 42
0.0000001
 43
0.0000001
 44
0.0000000001
 40
0.0
 40
0.0
 40
0.0
 40
0.0
 40
0.2308081517
 40
0.4771078743
 40
0.7350956649
 40
1.0
 40
1.0
 40
1.0
 40
1.0
 10
27.215494972
 20
62.1272491081
 30
0.0
 10
26.8830952664
 20
62.3334794358
 30
0.0
 10
26.2270136492
 20
62.8110033521
 30
0.0
 10
25.3152543192
 20
63.6638014269
 30
0.0
 10
24.4648396195
 20
64.654996716
 30
0.0
 10
23.958454217
 20
65.3844043844
 30
0.0
 10
23.7208896569
 20
65.7653674985
 30
0.0
  0
SPLINE
  5
350
100
AcDbEntity
  8
0
100
AcDbSpline
 62
7
  6
BYLAYER
 70
0
 71
3
 72
10
 73
6
 74
0
 42
0.0000001
 43
0.0000001
 44
0.0000000001
 40
0.0
 40
0.0
 40
0.0
 40
0.0
 40
0.2277485502
 40
0.4760772107
 40
1.0
 40
1.0
 40
1.0
 40
1.0
 10
49.8878544872
 20
15.380028988
 30
0.0
 10
49.8462641491
 20
15.3561549661
 30
0.0
 10
49.7645496888
 20
15.2968784115
 30
0.0
 10
49.6160484176
 20
15.1468841025
 30
0.0
 10
49.5273413596
 20
15.0072877784
 30
0.0
 10
49.4809980421
 20
14.9071751393
 30
0.0
  0
SPLINE
  5
351
100
AcDbEntity
  8
0
100
AcDbSpline
 62
7
  6
BYLAYER
 70
0
 71
3
 72
14
 73
10
 74
0
 42
0.0000001
 43
0.0000001
 44
0.0000000001
 40
0.0
 40
0.0
 40
0.0
 40
0.0
 40
0.1073081243
 40
0.2175624966
 40
0.332129318
 40
0.4521901136
 40
0.5786386001
 40
0.7120438652
 40
1.0
 40
1.0
 40
1.0
 40
1.0
 10
35.6977562101
 20
58.8506768012
 30
0.0
 10
35.5685127579
 20
58.7926536142
 30
0.0
 10
35.2965240573
 20
58.696062097
 30
0.0
 10
34.8642257324
 20
58.6139603003
 30
0.0
 10
34.4078617366
 20
58.5941402618
 30
0.0
 10
33.9317882357
 20
58.6361730301
 30
0.0
 10
33.4398515821
 20
58.7395152479
 30
0.0
 10
32.7509790852
 20
58.9630969198
 30
0.0
 10
32.2492797986
 20
59.2121495246
 30
0.0
 10
31.9222282925
 20
59.4059629312
 30
0.0
  0
SPLINE
  5
352
100
AcDbEntity
  8
0
100
AcDbSpline
 62
7
  6
BYLAYER
 70
0
 71
3
 72
9
 73
5
 74
0
 42
0.0000001
 43
0.0000001
 44
0.0000000001
 40
0.0
 40
0.0
 40
0.0
 40
0.0
 40
0.5040962457
 40
1.0
 40
1.0
 40
1.0
 40
1.0
 10
27.7352378021
 20
52.4562111727
 30
0.0
 10
27.7027258491
 20
52.4203626497
 30
0.0
 10
27.6329328355
 20
52.3538308297
 30
0.0
 10
27.5535001982
 20
52.2990934108
 30
0.0
 10
27.5122697337
 20
52.2752883105
 30
0.0
  0
SPLINE
  5
353
100
AcDbEntity
  8
0
100
AcDbSpline
 62
7
  6
BYLAYER
 70
0
 71
3
 72
20
 73
16
 74
0
 42
0.0000001
 43
0.0000001
 44
0.0000000001
 40
0.0
 40
0.0
 40
0.0
 40
0.0
 40
0.1644373336
 40
0.3170435811
 40
0.4537914586
 40
0.515802649
 40
0.5736934649
 40
0.6279662615
 40
0.6794752052
 40
0.7293673299
 40
0.7790083229
 40
0.8297941219
 40
0.8829678814
 40
0.9394938343
 40
1.0
 40
1.0
 40
1.0
 40
1.0
 10
26.5102210507
 20
55.4392334166
 30
0.0
 10
26.3978953893
 20
55.5843430979
 30
0.0
 10
26.1614755883
 20
55.8496743872
 30
0.0
 10
25.7679151748
 20
56.1717433674
 30
0.0
 10
25.4202138817
 20
56.3605058513
 30
0.0
 10
25.1465590942
 20
56.4476415322
 30
0.0
 10
24.9541444326
 20
56.4800641277
 30
0.0
 10
24.7705856543
 20
56.4807534314
 30
0.0
 10
24.5985836752
 20
56.4495397446
 30
0.0
 10
24.44104657
 20
56.3862844664
 30
0.0
 10
24.3007345974
 20
56.2921296138
 30
0.0
 10
24.1802094992
 20
56.1686517717
 30
0.0
 10
24.0810997484
 20
56.0183058702
 30
0.0
 10
24.0046969175
 20
55.8435563714
 30
0.0
 10
23.9705587954
 20
55.7169915638
 30
0.0
 10
23.9570702321
 20
55.6508304834
 30
0.0
  0
SPLINE
  5
354
100
AcDbEntity
  8
0
100
AcDbSpline
 62
7
  6
BYLAYER
 70
0
 71
3
 72
9
 73
5
 74
0
 42
0.0000001
 43
0.0000001
 44
0.0000000001
 40
0.0
 40
0.0
 40
0.0
 40
0.0
 40
0.2392807513
 40
1.0
 40
1.0
 40
1.0
 40
1.0
 10
23.9570702321
 20
55.6508304834
 30
0.0
 10
23.9507655947
 20
55.6199063878
 30
0.0
 10
23.9282191831
 20
55.489900206
 30
0.0
 10
23.9202450845
 20
55.3575542991
 30
0.0
 10
23.9207230811
 20
55.2572194324
 30
0.0
  0
SPLINE
  5
355
100
AcDbEntity
  8
0
100
AcDbSpline
 62
7
  6
BYLAYER
 70
0
 71
3
 72
9
 73
5
 74
0
 42
0.0000001
 43
0.0000001
 44
0.0000000001
 40
0.0
 40
0.0
 40
0.0
 40
0.0
 40
0.2383511807
 40
1.0
 40
1.0
 40
1.0
 40
1.0
 10
23.9207230811
 20
55.2572194324
 30
0.0
 10
23.9209603299
 20
55.2074192256
 30
0.0
 10
23.9287906355
 20
54.9985293589
 30
0.0
 10
23.9622428677
 20
54.7909549357
 30
0.0
 10
23.9986708338
 20
54.636042493
 30
0.0
  0
SPLINE
  5
356
100
AcDbEntity
  8
0
100
AcDbSpline
 62
7
  6
BYLAYER
 70
0
 71
3
 72
9
 73
5
 74
0
 42
0.0000001
 43
0.0000001
 44
0.0000000001
 40
0.0
 40
0.0
 40
0.0
 40
0.0
 40
0.2456125877
 40
1.0
 40
1.0
 40
1.0
 40
1.0
 10
23.9986708338
 20
54.636042493
 30
0.0
 10
24.0062122645
 20
54.6039720376
 30
0.0
 10
24.0388846113
 20
54.473866401
 30
0.0
 10
24.079154477
 20
54.3456920631
 30
0.0
 10
24.113291768
 20
54.2504345461
 30
0.0
  0
SPLINE
  5
357
100
AcDbEntity
  8
0
100
AcDbSpline
 62
7
  6
BYLAYER
 70
0
 71
3
 72
14
 73
10
 74
0
 42
0.0000001
 43
0.0000001
 44
0.0000000001
 40
0.0
 40
0.0
 40
0.0
 40
0.0
 40
0.2953958043
 40
0.4340768081
 40
0.564788509
 40
0.6866642733
 40
0.7993962368
 40
0.903394165
 40
1.0
 40
1.0
 40
1.0
 40
1.0
 10
26.8965920077
 20
55.7100933174
 30
0.0
 10
26.7523435375
 20
55.8980616007
 30
0.0
 10
26.5173501477
 20
56.1583020471
 30
0.0
 10
26.1680649307
 20
56.4477230692
 30
0.0
 10
25.9059921833
 20
56.6216410032
 30
0.0
 10
25.6434391026
 20
56.7535499278
 30
0.0
 10
25.3850926769
 20
56.8407323317
 30
0.0
 10
25.1358051397
 20
56.881276759
 30
0.0
 10
24.9735898075
 20
56.8759415803
 30
0.0
 10
24.8969414166
 20
56.8645660069
 30
0.0
  0
SPLINE
  5
358
100
AcDbEntity
  8
0
100
AcDbSpline
 62
7
  6
BYLAYER
 70
0
 71
3
 72
9
 73
5
 74
0
 42
0.0000001
 43
0.0000001
 44
0.0000000001
 40
0.0
 40
0.0
 40
0.0
 40
0.0
 40
0.5051771292
 40
1.0
 40
1.0
 40
1.0
 40
1.0
 10
24.8584940727
 20
56.8580971236
 30
0.0
 10
24.8070965618
 20
56.8484146814
 30
0.0
 10
24.7066805779
 20
56.8211204701
 30
0.0
 10
24.6122967552
 20
56.7771634582
 30
0.0
 10
24.5679309564
 20
56.7515481199
 30
0.0
  0
SPLINE
  5
359
100
AcDbEntity
  8
0
100
AcDbSpline
 62
7
  6
BYLAYER
 70
0
 71
3
 72
10
 73
6
 74
0
 42
0.0000001
 43
0.0000001
 44
0.0000000001
 40
0.0
 40
0.0
 40
0.0
 40
0.0
 40
0.2394029917
 40
0.4833738011
 40
1.0
 40
1.0
 40
1.0
 40
1.0
 10
21.3702345326
 20
55.41949867
 30
0.0
 10
21.2997164985
 20
55.3787889851
 30
0.0
 10
21.1498302486
 20
55.3088356216
 30
0.0
 10
20.8205142372
 20
55.21900455
 30
0.0
 10
20.5568080678
 20
55.2137647072
 30
0.0
 10
20.3820925662
 20
55.2324688748
 30
0.0
  0
SPLINE
  5
35A
100
AcDbEntity
  8
0
100
AcDbSpline
 62
7
  6
BYLAYER
 70
0
 71
3
 72
9
 73
5
 74
0
 42
0.0000001
 43
0.0000001
 44
0.0000000001
 40
0.0
 40
0.0
 40
0.0
 40
0.0
 40
0.2485573473
 40
1.0
 40
1.0
 40
1.0
 40
1.0
 10
27.2256024679
 20
52.1483515855
 30
0.0
 10
27.2403270782
 20
52.1568530862
 30
0.0
 10
27.2985681472
 20
52.1927654272
 30
0.0
 10
27.3525973929
 20
52.2354550058
 30
0.0
 10
27.3901600792
 20
52.2705445647
 30
0.0
  0
SPLINE
  5
35B
100
AcDbEntity
  8
0
100
AcDbSpline
 62
7
  6
BYLAYER
 70
0
 71
3
 72
14
 73
10
 74
0
 42
0.0000001
 43
0.0000001
 44
0.0000000001
 40
0.0
 40
0.0
 40
0.0
 40
0.0
 40
0.0948371263
 40
0.1965828734
 40
0.3074872356
 40
0.4284837314
 40
0.5594695693
 40
0.6995376841
 40
1.0
 40
1.0
 40
1.0
 40
1.0
 10
27.3901600792
 20
52.2705445647
 30
0.0
 10
27.4498625655
 20
52.326316239
 30
0.0
 10
27.5585869716
 20
52.4587956898
 30
0.0
 10
27.6760541611
 20
52.6982921953
 30
0.0
 10
27.7509387911
 20
52.9773780111
 30
0.0
 10
27.782310564
 20
53.2895483437
 30
0.0
 10
27.769909
 20
53.6280052619
 30
0.0
 10
27.6937931349
 20
54.11524219
 30
0.0
 10
27.5755797859
 20
54.4792528564
 30
0.0
 10
27.4746532109
 20
54.7176064658
 30
0.0
  0
SPLINE
  5
35C
100
AcDbEntity
  8
0
100
AcDbSpline
 62
7
  6
BYLAYER
 70
0
 71
3
 72
9
 73
5
 74
0
 42
0.0000001
 43
0.0000001
 44
0.0000000001
 40
0.0
 40
0.0
 40
0.0
 40
0.0
 40
0.4937040822
 40
1.0
 40
1.0
 40
1.0
 40
1.0
 10
27.5323104739
 20
76.0168338843
 30
0.0
 10
27.474808059
 20
75.9836480744
 30
0.0
 10
27.3512932332
 20
75.9279854662
 30
0.0
 10
27.2194238419
 20
75.8974244215
 30
0.0
 10
27.1519970164
 20
75.8879820802
 30
0.0
  0
SPLINE
  5
35D
100
AcDbEntity
  8
0
100
AcDbSpline
 62
7
  6
BYLAYER
 70
0
 71
3
 72
9
 73
5
 74
0
 42
0.0000001
 43
0.0000001
 44
0.0000000001
 40
0.0
 40
0.0
 40
0.0
 40
0.0
 40
0.4742706367
 40
1.0
 40
1.0
 40
1.0
 40
1.0
 10
27.1519970164
 20
75.8879820802
 30
0.0
 10
27.035083953
 20
75.8716097678
 30
0.0
 10
26.7826482109
 20
75.8750108335
 30
0.0
 10
26.5399822174
 20
75.9391381975
 30
0.0
 10
26.4170233244
 20
75.9839286582
 30
0.0
  0
SPLINE
  5
35E
100
AcDbEntity
  8
0
100
AcDbSpline
 62
7
  6
BYLAYER
 70
0
 71
3
 72
9
 73
5
 74
0
 42
0.0000001
 43
0.0000001
 44
0.0000000001
 40
0.0
 40
0.0
 40
0.0
 40
0.0
 40
0.2404032254
 40
1.0
 40
1.0
 40
1.0
 40
1.0
 10
26.2533749328
 20
76.0511190466
 30
0.0
 10
26.216651545
 20
76.0678810803
 30
0.0
 10
26.0656667223
 20
76.1414678073
 30
0.0
 10
25.9218789067
 20
76.229479426
 30
0.0
 10
25.8171408662
 20
76.3022729041
 30
0.0
  0
SPLINE
  5
35F
100
AcDbEntity
  8
0
100
AcDbSpline
 62
7
  6
BYLAYER
 70
0
 71
3
 72
9
 73
5
 74
0
 42
0.0000001
 43
0.0000001
 44
0.0000000001
 40
0.0
 40
0.0
 40
0.0
 40
0.0
 40
0.5205128573
 40
1.0
 40
1.0
 40
1.0
 40
1.0
 10
24.1129521543
 20
78.6799259298
 30
0.0
 10
24.0487604414
 20
78.8744848009
 30
0.0
 10
23.9499246185
 20
79.2569500589
 30
0.0
 10
23.9109966916
 20
79.6508940986
 30
0.0
 10
23.9109966916
 20
79.8396212082
 30
0.0
  0
SPLINE
  5
360
100
AcDbEntity
  8
0
100
AcDbSpline
 62
7
  6
BYLAYER
 70
0
 71
3
 72
11
 73
7
 74
0
 42
0.0000001
 43
0.0000001
 44
0.0000000001
 40
0.0
 40
0.0
 40
0.0
 40
0.0
 40
0.2177843137
 40
0.4509117637
 40
0.7102976701
 40
1.0
 40
1.0
 40
1.0
 40
1.0
 10
23.7132155053
 20
59.6880789308
 30
0.0
 10
23.6422958979
 20
59.6471337521
 30
0.0
 10
23.4793470742
 20
59.5879982894
 30
0.0
 10
23.2086918549
 20
59.5811453514
 30
0.0
 10
22.9202368221
 20
59.6508020996
 30
0.0
 10
22.7325651538
 20
59.7400811525
 30
0.0
 10
22.6382256821
 20
59.7945468397
 30
0.0
  0
SPLINE
  5
361
100
AcDbEntity
  8
0
100
AcDbSpline
 62
7
  6
BYLAYER
 70
0
 71
3
 72
9
 73
5
 74
0
 42
0.0000001
 43
0.0000001
 44
0.0000000001
 40
0.0
 40
0.0
 40
0.0
 40
0.0
 40
0.4936416985
 40
1.0
 40
1.0
 40
1.0
 40
1.0
 10
31.9516320902
 20
48.5528211724
 30
0.0
 10
31.725624863
 20
48.7897530832
 30
0.0
 10
31.3044593699
 20
49.3055773822
 30
0.0
 10
30.9580551958
 20
49.8739085678
 30
0.0
 10
30.803152007
 20
50.1719288499
 30
0.0
  0
SPLINE
  5
362
100
AcDbEntity
  8
0
100
AcDbSpline
 62
7
  6
BYLAYER
 70
0
 71
3
 72
9
 73
5
 74
0
 42
0.0000001
 43
0.0000001
 44
0.0000000001
 40
0.0
 40
0.0
 40
0.0
 40
0.0
 40
0.2546229755
 40
1.0
 40
1.0
 40
1.0
 40
1.0
 10
36.6889592997
 20
44.539799269
 30
0.0
 10
36.3032147015
 20
44.8989597683
 30
0.0
 10
34.7722448747
 20
46.2921773174
 30
0.0
 10
33.1766369389
 20
47.6147720798
 30
0.0
 10
31.9516320902
 20
48.5528211724
 30
0.0
  0
SPLINE
  5
363
100
AcDbEntity
  8
0
100
AcDbSpline
 62
7
  6
BYLAYER
 70
0
 71
3
 72
10
 73
6
 74
0
 42
0.0000001
 43
0.0000001
 44
0.0000000001
 40
0.0
 40
0.0
 40
0.0
 40
0.0
 40
0.2773603333
 40
0.5375804775
 40
1.0
 40
1.0
 40
1.0
 40
1.0
 10
26.953542384
 20
56.4089401395
 30
0.0
 10
26.8581451172
 20
56.5091158827
 30
0.0
 10
26.6608440769
 20
56.6924076656
 30
0.0
 10
26.2515656414
 20
56.9779412066
 30
0.0
 10
25.905357526
 20
57.1138015787
 30
0.0
 10
25.676979239
 20
57.1459487291
 30
0.0
  0
SPLINE
  5
364
100
AcDbEntity
  8
0
100
AcDbSpline
 62
7
  6
BYLAYER
 70
0
 71
3
 72
14
 73
10
 74
0
 42
0.0000001
 43
0.0000001
 44
0.0000000001
 40
0.0
 40
0.0
 40
0.0
 40
0.0
 40
0.2879561348
 40
0.4213613999
 40
0.5478098864
 40
0.667870682
 40
0.7824375034
 40
0.8926918757
 40
1.0
 40
1.0
 40
1.0
 40
1.0
 10
32.2757802111
 20
59.6100850082
 30
0.0
 10
32.6028317172
 20
59.4162716016
 30
0.0
 10
33.1045310038
 20
59.1672189968
 30
0.0
 10
33.7934035007
 20
58.9436373249
 30
0.0
 10
34.2853401543
 20
58.8402951071
 30
0.0
 10
34.7614136552
 20
58.7982623388
 30
0.0
 10
35.217777651
 20
58.8180823772
 30
0.0
 10
35.6500759759
 20
58.9001841739
 30
0.0
 10
35.9220646765
 20
58.9967756911
 30
0.0
 10
36.0513081287
 20
59.0547988781
 30
0.0
  0
SPLINE
  5
365
100
AcDbEntity
  8
0
100
AcDbSpline
 62
7
  6
BYLAYER
 70
0
 71
3
 72
9
 73
5
 74
0
 42
0.0000001
 43
0.0000001
 44
0.0000000001
 40
0.0
 40
0.0
 40
0.0
 40
0.0
 40
0.4939410017
 40
1.0
 40
1.0
 40
1.0
 40
1.0
 10
29.7958267816
 20
53.4065464939
 30
0.0
 10
29.5868911297
 20
54.3937462308
 30
0.0
 10
29.1200539565
 20
56.38334915
 30
0.0
 10
28.5543114146
 20
58.3476510682
 30
0.0
 10
28.2375735636
 20
59.3317587094
 30
0.0
  0
SPLINE
  5
366
100
AcDbEntity
  8
0
100
AcDbSpline
 62
7
  6
BYLAYER
 70
0
 71
3
 72
11
 73
7
 74
0
 42
0.0000001
 43
0.0000001
 44
0.0000000001
 40
0.0
 40
0.0
 40
0.0
 40
0.0
 40
0.2649043351
 40
0.5228921257
 40
0.7691918483
 40
1.0
 40
1.0
 40
1.0
 40
1.0
 10
24.0744415755
 20
65.9694895755
 30
0.0
 10
24.3120061356
 20
65.5885264613
 30
0.0
 10
24.8183915381
 20
64.859118793
 30
0.0
 10
25.6688062378
 20
63.8679235039
 30
0.0
 10
26.5805655678
 20
63.015125429
 30
0.0
 10
27.236647185
 20
62.5376015128
 30
0.0
 10
27.5690468906
 20
62.3313711851
 30
0.0
  0
SPLINE
  5
367
100
AcDbEntity
  8
0
100
AcDbSpline
 62
7
  6
BYLAYER
 70
0
 71
3
 72
11
 73
7
 74
0
 42
0.0000001
 43
0.0000001
 44
0.0000000001
 40
0.0
 40
0.0
 40
0.0
 40
0.0
 40
0.2603289907
 40
0.5119879494
 40
0.7575646312
 40
1.0
 40
1.0
 40
1.0
 40
1.0
 10
34.7370446096
 20
85.829683346
 30
0.0
 10
34.7034826773
 20
85.8298080433
 30
0.0
 10
34.6373814149
 20
85.8262776086
 30
0.0
 10
34.5410194312
 20
85.8087803221
 30
0.0
 10
34.4500420869
 20
85.7792636777
 30
0.0
 10
34.3932479306
 20
85.7516315897
 30
0.0
 10
34.3661799
 20
85.7360042332
 30
0.0
  0
ELLIPSE
  5
368
100
AcDbEntity
  8
0
100
AcDbEllipse
 62
7
  6
BYLAYER
 10
45.6502325922
 20
69.8575999564
 30
0.0
 11
25.4331273566
 21
24.0595574677
 31
0.0
 40
0.2821882068
 41
-3.8431290138
 42
-3.8338977385
  0
ELLIPSE
  5
369
100
AcDbEntity
  8
0
100
AcDbEllipse
 62
7
  6
BYLAYER
 10
54.2979409362
 20
64.8649561648
 30
0.0
 11
-3.0218355144
 21
36.5850515415
 31
0.0
 40
0.7147285717
 41
-4.3868786138
 42
-4.3776473385
  0
ENDSEC
  0
SECTION
  2
OBJECTS
  0
DICTIONARY
  5
C
100
AcDbDictionary
280
0
281
1
  3
ACAD_GROUP
350
D
  3
ACAD_MLINESTYLE
350
17
  3
ACAD_LAYOUT
350
1A
  3
ACAD_PLOTSETTINGS
350
19
  3
ACAD_PLOTSTYLENAME
350
E
  0
DICTIONARY
  5
D
102
{ACAD_REACTORS
330
C
102
}
100
AcDbDictionary
280
0
281
1
  0
ACDBDICTIONARYWDFLT
  5
E
102
{ACAD_REACTORS
330
C
102
}
100
AcDbDictionary
281
1
  3
Normal
350
F
100
AcDbDictionaryWithDefault
340
F
  0
DICTIONARY
  5
17
102
{ACAD_REACTORS
330
C
102
}
100
AcDbDictionary
280
0
281
1
  3
Standard
350
18
  0
DICTIONARY
  5
19
102
{ACAD_REACTORS
330
C
102
}
100
AcDbDictionary
281
1
  0
DICTIONARY
  5
1A
102
{ACAD_REACTORS
330
C
102
}
100
AcDbDictionary
281
1
  3
Model
350
36A
  3
Layout1
350
36B
  0
ACDBPLACEHOLDER
  5
F
102
{ACAD_REACTORS
330
E
102
}
  0
MLINESTYLE
  5
18
102
{ACAD_REACTORS
330
17
102
}
100
AcDbMlineStyle
  2
STANDARD
 70
0
  3

 62
256
 51
90.0
 52
90.0
 71
2
 49
0.5
 62
256
  6
BYLAYER
 49
-0.5
 62
256
  6
BYLAYER
  0
LAYOUT
  5
36A
102
{ACAD_REACTORS
330
1A
102
}
100
AcDbPlotSettings
  1

  2
none_device
  4

  6

 40
0.0
 41
0.0
 42
0.0
 43
0.0
 44
210.0
 45
297.0
 46
0.0
 47
0.0
 48
0.0
 49
0.0
140
0.0
141
0.0
142
1.0
143
1.0
 70
1024
 72
1
 73
0
 74
0
  7

 75
0
147
1.0
148
0.0
149
0.0
100
AcDbLayout
  1
Model
 70
0
 71
0
 10
0.0
 20
0.0
 11
210.0
 21
297.0
 12
0.0
 22
0.0
 32
0.0
 14
0.0
 24
0.0
 34
0.0
 15
0.0
 25
0.0
 35
0.0
146
0.0
 13
0.0
 23
0.0
 33
0.0
 16
1.0
 26
0.0
 36
0.0
 17
0.0
 27
1.0
 37
0.0
 76
0
330
210
345
0
346
0
  0
LAYOUT
  5
36B
102
{ACAD_REACTORS
330
1A
102
}
100
AcDbPlotSettings
  1

  2
none_device
  4

  6

 40
0.0
 41
0.0
 42
0.0
 43
0.0
 44
210.0
 45
297.0
 46
0.0
 47
0.0
 48
0.0
 49
0.0
140
0.0
141
0.0
142
1.0
143
1.0
 70
0
 72
1
 73
0
 74
0
  7

 75
0
147
1.0
148
0.0
149
0.0
100
AcDbLayout
  1
Layout1
 70
0
 71
1
 10
0.0
 20
0.0
 11
210.0
 21
297.0
 12
0.0
 22
0.0
 32
0.0
 14
0.0
 24
0.0
 34
0.0
 15
0.0
 25
0.0
 35
0.0
146
0.0
 13
0.0
 23
0.0
 33
0.0
 16
1.0
 26
0.0
 36
0.0
 17
0.0
 27
1.0
 37
0.0
 76
0
330
211
345
0
346
0
  0
ENDSEC
  0
EOF
