999
DXF file: C:\Users\sesa63760\Dev\_Creo\CAD\MCADID0003632_3D-CAD\drw0001_6.dxf
999
Pro/ENGINEER 2019471 by Parametric Technology Corporation
  0
SECTION
  2
HEADER
  9
$ACADVER
  1
AC1024
  9
$DWGCODEPAGE
  3
ANSI_1252
  9
$EXTMAX
 10
83.2210299476
 20
117.698313783
 30
0.0
  9
$EXTMIN
 10
0.0
 20
0.0
 30
0.0
  9
$LIMMIN
 10
0.0
 20
0.0
  9
$LIMMAX
 10
83.2210299476
 20
117.698313783
  9
$VIEWCTR
 10
41.6105149738
 20
58.8491568915
  9
$VIEWSIZE
 40
117.698313783
  9
$CLAYER
  8
0
  9
$LTSCALE
 40
7.6721863799
  9
$CELTYPE
  6
BYLAYER
  9
$DIMSCALE
 40
1.0
  9
$DIMASZ
 40
0.990726547
  9
$DIMEXO
 40
1.0
  9
$DIMDLI
 40
5.300783317
  9
$DIMEXE
 40
1.0
  9
$DIMCEN
 40
1.2554486804
  9
$DIMLFAC
 40
1.0
  9
$DIMBLK
  1
_FILLED
  9
$DIMALT
 70
0
  9
$DIMALTF
 40
0.0393700787
  9
$DIMTXT
 40
1.3870171658
  9
$DIMTOL
 70
1
  9
$DIMLIM
 70
0
  9
$DIMTFAC
 40
1.0
  9
$DIMTP
 40
0.01
  9
$DIMTM
 40
0.01
  9
$DIMGAP
 40
0.625
  9
$DIMDSEP
 70
46
  9
$AUNITS
 70
0
  9
$PDMODE
 70
3
  9
$PDSIZE
 40
0.3125
  9
$HANDSEED
  5
277
  9
$TILEMODE
 70
1
  9
$MEASUREMENT
 70
1
  9
$INSUNITS
 70
4
  0
ENDSEC
  0
SECTION
  2
CLASSES
  0
CLASS
  1
ACDBDICTIONARYWDFLT
  2
AcDbDictionaryWithDefault
  3
AutoCAD 2000
 90
0
 91
1
280
0
281
0
  0
CLASS
  1
ACDBPLACEHOLDER
  2
AcDbPlaceHolder
  3
AutoCAD 2000
 90
0
 91
1
280
0
281
0
  0
CLASS
  1
LAYOUT
  2
AcDbLayout
  3
AutoCAD 2000
 90
0
 91
0
280
0
281
0
  0
ENDSEC
  0
SECTION
  2
TABLES
  0
TABLE
  2
VPORT
  5
8
100
AcDbSymbolTable
 70
2
  0
VPORT
  5
1F4
100
AcDbSymbolTableRecord
100
AcDbViewportTableRecord
  2
*ACTIVE
 70
0
 10
0.0
 20
0.0
 11
1.0
 21
1.0
 12
41.6105149738
 22
58.8491568915
 13
0.0
 23
0.0
 14
1.0
 24
1.0
 15
0.0
 25
0.0
 16
0.0
 26
0.0
 36
1.0
 17
0.0
 27
0.0
 37
0.0
 40
117.698313783
 41
0.7070707071
 42
50.0
 43
0.0
 44
0.0
 50
0.0
 51
0.0
 71
0
 72
100
 73
1
 74
1
 75
0
 76
0
 77
0
 78
0
  0
ENDTAB
  0
TABLE
  2
LTYPE
  5
5
100
AcDbSymbolTable
 70
6
  0
LTYPE
  5
14
100
AcDbSymbolTableRecord
100
AcDbLinetypeTableRecord
  2
BYBLOCK
 70
0
  3

 72
65
 73
0
 40
0.0
  0
LTYPE
  5
15
100
AcDbSymbolTableRecord
100
AcDbLinetypeTableRecord
  2
BYLAYER
 70
0
  3

 72
65
 73
0
 40
0.0
  0
LTYPE
  5
16
100
AcDbSymbolTableRecord
100
AcDbLinetypeTableRecord
  2
CONTINUOUS
 70
64
  3
Solid line
 72
65
 73
0
 40
0.0
  0
LTYPE
  5
1F5
100
AcDbSymbolTableRecord
100
AcDbLinetypeTableRecord
  2
CENTER
 70
64
  3
____ _ ____ _ ____ _ ____ _ ____ _ ____ _ ____
 72
65
 73
4
 40
0.6
 49
0.375
 74
0
 49
-0.075
 74
0
 49
0.075
 74
0
 49
-0.075
 74
0
  0
LTYPE
  5
1F6
100
AcDbSymbolTableRecord
100
AcDbLinetypeTableRecord
  2
HIDDEN
 70
64
  3
- - - - - - - - - - - - - - - - - - - -
 72
65
 73
2
 40
0.2
 49
0.1
 74
0
 49
-0.1
 74
0
  0
LTYPE
  5
1F7
100
AcDbSymbolTableRecord
100
AcDbLinetypeTableRecord
  2
PHANTOM
 70
64
  3
_____ _ _ _____ _ _ _____ _ _ _____
 72
65
 73
6
 40
0.8
 49
0.45
 74
0
 49
-0.05
 74
0
 49
0.1
 74
0
 49
-0.05
 74
0
 49
0.1
 74
0
 49
-0.05
 74
0
  0
LTYPE
  5
1F8
100
AcDbSymbolTableRecord
100
AcDbLinetypeTableRecord
  2
DOT
 70
64
  3
. . . . . . . . . . . . . . . . . . . .
 72
65
 73
2
 40
0.2
 49
0.1
 74
0
 49
-0.1
 74
0
  0
LTYPE
  5
1F9
100
AcDbSymbolTableRecord
100
AcDbLinetypeTableRecord
  2
DASHED
 70
64
  3
- - - - - - - - - - - - - - - - - - - -
 72
65
 73
2
 40
0.2
 49
0.1
 74
0
 49
-0.1
 74
0
  0
ENDTAB
  0
TABLE
  2
LAYER
  5
2
100
AcDbSymbolTable
 70
36
  0
LAYER
  5
10
100
AcDbSymbolTableRecord
100
AcDbLayerTableRecord
  2
0
 70
0
 62
7
  6
CONTINUOUS
370
-3
390
F
  0
LAYER
  5
1FA
100
AcDbSymbolTableRecord
100
AcDbLayerTableRecord
  2
DEFAULT_1
 70
0
 62
7
  6
CENTER
370
-3
390
F
  0
LAYER
  5
1FB
100
AcDbSymbolTableRecord
100
AcDbLayerTableRecord
  2
DEFAULT_2
 70
0
 62
7
  6
HIDDEN
370
-3
390
F
  0
LAYER
  5
1FC
100
AcDbSymbolTableRecord
100
AcDbLayerTableRecord
  2
DEFAULT_3
 70
0
 62
7
  6
PHANTOM
370
-3
390
F
  0
LAYER
  5
1FD
100
AcDbSymbolTableRecord
100
AcDbLayerTableRecord
  2
00_COMPONENTS
 70
0
 62
7
  6
CONTINUOUS
370
-3
390
F
  0
LAYER
  5
1FE
100
AcDbSymbolTableRecord
100
AcDbLayerTableRecord
  2
01_1_DEFAULT_DATUMS
 70
0
 62
7
  6
CONTINUOUS
370
-3
390
F
  0
LAYER
  5
1FF
100
AcDbSymbolTableRecord
100
AcDbLayerTableRecord
  2
01_PLANES
 70
0
 62
7
  6
CONTINUOUS
370
-3
390
F
  0
LAYER
  5
200
100
AcDbSymbolTableRecord
100
AcDbLayerTableRecord
  2
02_COORD_SYS
 70
0
 62
7
  6
CONTINUOUS
370
-3
390
F
  0
LAYER
  5
201
100
AcDbSymbolTableRecord
100
AcDbLayerTableRecord
  2
03_AXES
 70
0
 62
7
  6
CONTINUOUS
370
-3
390
F
  0
LAYER
  5
202
100
AcDbSymbolTableRecord
100
AcDbLayerTableRecord
  2
04_POINTS
 70
0
 62
7
  6
CONTINUOUS
370
-3
390
F
  0
LAYER
  5
203
100
AcDbSymbolTableRecord
100
AcDbLayerTableRecord
  2
05_CURVES
 70
0
 62
7
  6
CONTINUOUS
370
-3
390
F
  0
LAYER
  5
204
100
AcDbSymbolTableRecord
100
AcDbLayerTableRecord
  2
06_SURFS
 70
0
 62
7
  6
CONTINUOUS
370
-3
390
F
  0
LAYER
  5
205
100
AcDbSymbolTableRecord
100
AcDbLayerTableRecord
  2
07_COSMETICS
 70
0
 62
7
  6
CONTINUOUS
370
-3
390
F
  0
LAYER
  5
206
100
AcDbSymbolTableRecord
100
AcDbLayerTableRecord
  2
10_NOTES
 70
0
 62
7
  6
CONTINUOUS
370
-3
390
F
  0
LAYER
  5
207
100
AcDbSymbolTableRecord
100
AcDbLayerTableRecord
  2
11_NOTES_PUB
 70
0
 62
7
  6
CONTINUOUS
370
-3
390
F
  0
LAYER
  5
208
100
AcDbSymbolTableRecord
100
AcDbLayerTableRecord
  2
13_REF_GTOL
 70
0
 62
7
  6
CONTINUOUS
370
-3
390
F
  0
LAYER
  5
209
100
AcDbSymbolTableRecord
100
AcDbLayerTableRecord
  2
16_MISC
 70
0
 62
7
  6
CONTINUOUS
370
-3
390
F
  0
LAYER
  5
20A
100
AcDbSymbolTableRecord
100
AcDbLayerTableRecord
  2
17_NO_PRINT
 70
0
 62
7
  6
CONTINUOUS
370
-3
390
F
  0
LAYER
  5
20B
100
AcDbSymbolTableRecord
100
AcDbLayerTableRecord
  2
18_DATUM_CAMS_JOINTS
 70
0
 62
7
  6
CONTINUOUS
370
-3
390
F
  0
LAYER
  5
20C
100
AcDbSymbolTableRecord
100
AcDbLayerTableRecord
  2
19_DATUM_FUNCTIONAL
 70
0
 62
7
  6
CONTINUOUS
370
-3
390
F
  0
LAYER
  5
20D
100
AcDbSymbolTableRecord
100
AcDbLayerTableRecord
  2
20_DATUM_KINEMATIC_SCHEME
 70
0
 62
7
  6
CONTINUOUS
370
-3
390
F
  0
ENDTAB
  0
TABLE
  2
STYLE
  5
3
100
AcDbSymbolTable
 70
1
  0
STYLE
  5
11
100
AcDbSymbolTableRecord
100
AcDbTextStyleTableRecord
  2
STANDARD
 70
0
 40
0.0
 41
1.0
 50
0.0
 71
0
 42
0.2
  3
ARIAL.TTF
  4

  0
STYLE
  5
20E
100
AcDbSymbolTableRecord
100
AcDbTextStyleTableRecord
  2
TEXTSTYLE_1
 70
0
 40
0.0
 41
0.8
 50
0.0
 71
0
 42
0.2
  3
gdt
  4

  0
ENDTAB
  0
TABLE
  2
VIEW
  5
6
100
AcDbSymbolTable
 70
0
  0
ENDTAB
  0
TABLE
  2
UCS
  5
7
100
AcDbSymbolTable
 70
0
  0
ENDTAB
  0
TABLE
  2
APPID
  5
9
100
AcDbSymbolTable
 70
1
  0
APPID
  5
20F
100
AcDbSymbolTableRecord
100
AcDbRegAppTableRecord
  2
ACAD
 70
0
  0
ENDTAB
  0
TABLE
  2
BLOCK_RECORD
  5
1
100
AcDbSymbolTable
 70
0
  0
BLOCK_RECORD
  5
210
100
AcDbSymbolTableRecord
100
AcDbBlockTableRecord
  2
*Model_Space
  0
BLOCK_RECORD
  5
211
100
AcDbSymbolTableRecord
100
AcDbBlockTableRecord
  2
*Paper_Space
  0
BLOCK_RECORD
  5
212
100
AcDbSymbolTableRecord
100
AcDbBlockTableRecord
  2
_FILLED
  0
ENDTAB
  0
TABLE
  2
DIMSTYLE
  5
A
100
AcDbSymbolTable
 70
1
100
AcDbDimStyleTable
 71
0
  0
DIMSTYLE
105
213
100
AcDbSymbolTableRecord
100
AcDbDimStyleTableRecord
  2
STANDARD
 70
0
  3

  4

 40
1.0
 41
0.990726547
 42
1.0
 43
0.38
 44
1.0
 45
0.0
 46
0.0
 47
0.01
 48
0.01
140
1.3870171658
141
0.09
142
0.0
143
25.4
144
1.0
145
0.0
146
1.0
147
0.625
 71
1
 72
0
 73
0
 74
0
 75
0
 76
0
 77
1
 78
8
 79
2
170
0
171
1
172
0
173
0
174
0
175
0
176
0
177
0
178
0
270
2
179
2
271
2
272
2
273
2
274
2
275
0
280
0
281
0
282
0
283
1
284
8
285
0
286
0
287
3
288
0
340
11
278
46
341
212
342
212
343
212
344
212
  0
ENDTAB
  0
ENDSEC
  0
SECTION
  2
BLOCKS
  0
BLOCK
  5
20
100
AcDbEntity
  8
0
100
AcDbBlockBegin
  2
*Model_Space
 70
0
 10
0.0
 20
0.0
 30
0.0
  3
*Model_Space
  1

  0
ENDBLK
  5
21
100
AcDbEntity
  8
0
100
AcDbBlockEnd
  0
BLOCK
  5
1C
100
AcDbEntity
  8
0
100
AcDbBlockBegin
  2
*Paper_Space
 70
0
 10
0.0
 20
0.0
 30
0.0
  3
*Paper_Space
  1

  0
ENDBLK
  5
1D
100
AcDbEntity
  8
0
100
AcDbBlockEnd
  0
BLOCK
  5
214
100
AcDbEntity
  8
0
100
AcDbBlockBegin
  2
_FILLED
 70
64
 10
0.0
 20
0.0
  3
_FILLED
  1

  0
SOLID
  5
215
100
AcDbEntity
  8
0
  6
BYBLOCK
 62
0
100
AcDbTrace
 10
0.0
 20
0.0
 11
-1.0
 21
0.25
 12
-1.0
 22
-0.25
 13
-1.0
 23
-0.25
  0
ENDBLK
  5
216
100
AcDbEntity
  8
0
  6
BYBLOCK
 62
0
100
AcDbBlockEnd
  0
ENDSEC
  0
SECTION
  2
ENTITIES
  0
LINE
  5
217
100
AcDbEntity
  8
0
100
AcDbLine
 62
7
  6
BYLAYER
 10
42.5235023922
 20
13.9741568915
 11
47.0235023922
 21
13.9741568915
  0
LINE
  5
218
100
AcDbEntity
  8
0
100
AcDbLine
 62
7
  6
BYLAYER
 10
54.0235023922
 20
13.9741568915
 11
58.5235023922
 21
13.9741568915
  0
LINE
  5
219
100
AcDbEntity
  8
0
100
AcDbLine
 62
7
  6
BYLAYER
 10
41.5235080862
 20
16.2741568915
 11
42.5235023922
 21
16.2741568915
  0
LINE
  5
21A
100
AcDbEntity
  8
0
100
AcDbLine
 62
7
  6
BYLAYER
 10
57.2235023922
 20
16.7947074197
 11
54.0235023922
 21
16.7947074197
  0
LINE
  5
21B
100
AcDbEntity
  8
0
100
AcDbLine
 62
7
  6
BYLAYER
 10
47.0235023922
 20
16.7947074197
 11
43.7235023922
 21
16.7947074197
  0
LINE
  5
21C
100
AcDbEntity
  8
0
100
AcDbLine
 62
7
  6
BYLAYER
 10
41.5235080862
 20
18.2741568915
 11
42.5235023922
 21
18.2741568915
  0
LINE
  5
21D
100
AcDbEntity
  8
0
100
AcDbLine
 62
7
  6
BYLAYER
 10
58.5235023922
 20
18.9741568915
 11
57.2235023922
 21
18.9741568915
  0
LINE
  5
21E
100
AcDbEntity
  8
0
100
AcDbLine
 62
7
  6
BYLAYER
 10
43.7235023922
 20
18.9741568915
 11
42.5235023922
 21
18.9741568915
  0
LINE
  5
21F
100
AcDbEntity
  8
0
100
AcDbLine
 62
7
  6
BYLAYER
 10
45.7235023922
 20
19.9741568915
 11
47.0235023922
 21
19.9741568915
  0
LINE
  5
220
100
AcDbEntity
  8
0
100
AcDbLine
 62
7
  6
BYLAYER
 10
54.0235023922
 20
19.9741568915
 11
55.2235023922
 21
19.9741568915
  0
LINE
  5
221
100
AcDbEntity
  8
0
100
AcDbLine
 62
7
  6
BYLAYER
 10
30.2659456721
 20
87.5467170355
 11
37.2887672394
 21
90.9719759776
  0
LINE
  5
222
100
AcDbEntity
  8
0
100
AcDbLine
 62
7
  6
BYLAYER
 10
43.7235023922
 20
26.4741568915
 11
45.7235023922
 21
26.4741568915
  0
LINE
  5
223
100
AcDbEntity
  8
0
100
AcDbLine
 62
7
  6
BYLAYER
 10
55.2235023922
 20
26.4741568915
 11
57.2235023922
 21
26.4741568915
  0
LINE
  5
224
100
AcDbEntity
  8
0
100
AcDbLine
 62
7
  6
BYLAYER
 10
57.2235023922
 20
27.9741568915
 11
43.7235023922
 21
27.9741568915
  0
LINE
  5
225
100
AcDbEntity
  8
0
100
AcDbLine
 62
7
  6
BYLAYER
 10
38.4463239596
 20
89.4363241026
 11
31.4235023922
 21
86.0110651605
  0
LINE
  5
226
100
AcDbEntity
  8
0
100
AcDbLine
 62
7
  6
BYLAYER
 10
32.8636592614
 20
107.7506469577
 11
32.2850440652
 21
105.0741568916
  0
LINE
  5
227
100
AcDbEntity
  8
0
100
AcDbLine
 62
7
  6
BYLAYER
 10
27.1231902784
 20
69.6900442115
 11
27.1231902784
 21
77.4582695715
  0
LINE
  5
228
100
AcDbEntity
  8
0
100
AcDbLine
 62
7
  6
BYLAYER
 10
28.9238141959
 20
67.075714236
 11
28.9238141959
 21
80.072599547
  0
LINE
  5
229
100
AcDbEntity
  8
0
100
AcDbLine
 62
7
  6
BYLAYER
 10
32.2235023922
 20
104.9741568915
 11
31.8235023922
 21
99.9741568915
  0
LINE
  5
22A
100
AcDbEntity
  8
0
100
AcDbLine
 62
7
  6
BYLAYER
 10
29.4235023922
 20
65.5742907762
 11
29.4235023922
 21
86.1985259661
  0
LINE
  5
22B
100
AcDbEntity
  8
0
100
AcDbLine
 62
7
  6
BYLAYER
 10
31.4235023922
 20
64.7950743975
 11
31.4235023922
 21
86.0110651605
  0
LINE
  5
22C
100
AcDbEntity
  8
0
100
AcDbLine
 62
7
  6
BYLAYER
 10
32.2235023923
 20
94.9741568915
 11
32.2235023923
 21
104.9741568915
  0
LINE
  5
22D
100
AcDbEntity
  8
0
100
AcDbLine
 62
7
  6
BYLAYER
 10
32.2850440652
 20
94.8744257211
 11
32.2850440652
 21
105.0741568915
  0
LINE
  5
22E
100
AcDbEntity
  8
0
100
AcDbLine
 62
7
  6
BYLAYER
 10
42.5235023922
 20
46.8741568915
 11
42.5735023922
 21
46.8741568915
  0
LINE
  5
22F
100
AcDbEntity
  8
0
100
AcDbLine
 62
7
  6
BYLAYER
 10
42.5235023922
 20
46.9741568915
 11
40.5235023922
 21
46.9741568915
  0
LINE
  5
230
100
AcDbEntity
  8
0
100
AcDbLine
 62
7
  6
BYLAYER
 10
32.8636590695
 20
92.1976675981
 11
32.8636592614
 21
107.7506469577
  0
LINE
  5
231
100
AcDbEntity
  8
0
100
AcDbLine
 62
7
  6
BYLAYER
 10
33.1537441968
 20
91.9741568915
 11
33.1537441968
 21
107.9741568915
  0
LINE
  5
232
100
AcDbEntity
  8
0
100
AcDbLine
 62
7
  6
BYLAYER
 10
37.0235023922
 20
107.9741568915
 11
37.0235023922
 21
91.9741568915
  0
LINE
  5
233
100
AcDbEntity
  8
0
100
AcDbLine
 62
7
  6
BYLAYER
 10
37.2887672394
 20
90.9719759776
 11
37.2887672394
 21
106.4719759776
  0
LINE
  5
234
100
AcDbEntity
  8
0
100
AcDbLine
 62
7
  6
BYLAYER
 10
39.2887672394
 20
106.4719759776
 11
39.2887672394
 21
90.784515172
  0
LINE
  5
235
100
AcDbEntity
  8
0
100
AcDbLine
 62
7
  6
BYLAYER
 10
40.0235023922
 20
56.7743543158
 11
40.0235023922
 21
62.1739594672
  0
LINE
  5
236
100
AcDbEntity
  8
0
100
AcDbLine
 62
7
  6
BYLAYER
 10
40.5235023922
 20
46.9741568915
 11
40.5235023922
 21
63.974105663
  0
LINE
  5
237
100
AcDbEntity
  8
0
100
AcDbLine
 62
7
  6
BYLAYER
 10
41.5235023922
 20
16.2741568915
 11
41.5235023922
 21
18.2741568915
  0
LINE
  5
238
100
AcDbEntity
  8
0
100
AcDbLine
 62
7
  6
BYLAYER
 10
42.4735119929
 20
63.9742833585
 11
42.4735023922
 21
46.9741568915
  0
LINE
  5
239
100
AcDbEntity
  8
0
100
AcDbLine
 62
7
  6
BYLAYER
 10
42.5235023922
 20
13.9741568915
 11
42.5235023922
 21
46.9741568915
  0
LINE
  5
23A
100
AcDbEntity
  8
0
100
AcDbLine
 62
7
  6
BYLAYER
 10
42.5235023922
 20
63.9241562532
 11
42.5235023922
 21
64.7948148409
  0
LINE
  5
23B
100
AcDbEntity
  8
0
100
AcDbLine
 62
7
  6
BYLAYER
 10
42.5735023922
 20
46.8741568915
 11
42.5734920756
 21
63.9673182324
  0
LINE
  5
23C
100
AcDbEntity
  8
0
100
AcDbLine
 62
7
  6
BYLAYER
 10
40.5235023922
 20
56.7741568915
 11
40.0235023922
 21
56.7741568915
  0
LINE
  5
23D
100
AcDbEntity
  8
0
100
AcDbLine
 62
7
  6
BYLAYER
 10
43.7235023922
 20
27.9741568915
 11
43.7235023922
 21
16.7947074197
  0
LINE
  5
23E
100
AcDbEntity
  8
0
100
AcDbLine
 62
7
  6
BYLAYER
 10
45.7235023922
 20
26.4741568915
 11
45.7235023922
 21
19.9741568915
  0
LINE
  5
23F
100
AcDbEntity
  8
0
100
AcDbLine
 62
7
  6
BYLAYER
 10
40.5235023922
 20
61.9741568915
 11
42.4735023922
 21
61.9741568915
  0
LINE
  5
240
100
AcDbEntity
  8
0
100
AcDbLine
 62
7
  6
BYLAYER
 10
42.5735023922
 20
61.9741568915
 11
58.5235023922
 21
61.9741568915
  0
LINE
  5
241
100
AcDbEntity
  8
0
100
AcDbLine
 62
7
  6
BYLAYER
 10
40.5235023922
 20
62.1741568915
 11
40.0235023922
 21
62.1741568915
  0
LINE
  5
242
100
AcDbEntity
  8
0
100
AcDbLine
 62
7
  6
BYLAYER
 10
47.0235023922
 20
11.4741568915
 11
47.0235023922
 21
21.4701564914
  0
LINE
  5
243
100
AcDbEntity
  8
0
100
AcDbLine
 62
7
  6
BYLAYER
 10
42.4735025522
 20
63.9742833585
 11
40.5235023922
 21
63.9742833585
  0
LINE
  5
244
100
AcDbEntity
  8
0
100
AcDbLine
 62
7
  6
BYLAYER
 10
42.5235028889
 20
64.7948143742
 11
31.4235023922
 21
64.7948143742
  0
LINE
  5
245
100
AcDbEntity
  8
0
100
AcDbLine
 62
7
  6
BYLAYER
 10
29.4235023922
 20
65.5741568915
 11
31.4235023922
 21
65.5741568915
  0
LINE
  5
246
100
AcDbEntity
  8
0
100
AcDbLine
 62
7
  6
BYLAYER
 10
50.5235023922
 20
79.2434151352
 11
50.5235023922
 21
70.3948143742
  0
LINE
  5
247
100
AcDbEntity
  8
0
100
AcDbLine
 62
7
  6
BYLAYER
 10
28.9238141959
 20
67.075714236
 11
29.4228794161
 21
67.075714236
  0
LINE
  5
248
100
AcDbEntity
  8
0
100
AcDbLine
 62
7
  6
BYLAYER
 10
27.1231902784
 20
69.6900442115
 11
28.9238141959
 21
69.5741563054
  0
LINE
  5
249
100
AcDbEntity
  8
0
100
AcDbLine
 62
7
  6
BYLAYER
 10
54.0235023922
 20
11.4741568915
 11
54.0235023922
 21
21.4701564914
  0
LINE
  5
24A
100
AcDbEntity
  8
0
100
AcDbLine
 62
7
  6
BYLAYER
 10
55.2235023922
 20
19.9741568915
 11
55.2235023922
 21
26.4741568915
  0
LINE
  5
24B
100
AcDbEntity
  8
0
100
AcDbLine
 62
7
  6
BYLAYER
 10
50.5235023922
 20
70.3948143742
 11
31.4235023922
 21
70.3948143742
  0
LINE
  5
24C
100
AcDbEntity
  8
0
100
AcDbLine
 62
7
  6
BYLAYER
 10
57.2235023922
 20
16.7947074197
 11
57.2235023922
 21
27.9741568915
  0
LINE
  5
24D
100
AcDbEntity
  8
0
100
AcDbLine
 62
7
  6
BYLAYER
 10
58.5235023922
 20
13.9741568915
 11
58.5235023922
 21
79.9741568915
  0
LINE
  5
24E
100
AcDbEntity
  8
0
100
AcDbLine
 62
7
  6
BYLAYER
 10
31.4235023922
 20
74.4510174061
 11
29.4235023922
 21
74.4510174061
  0
LINE
  5
24F
100
AcDbEntity
  8
0
100
AcDbLine
 62
7
  6
BYLAYER
 10
28.9238141959
 20
77.5741574776
 11
27.1231902784
 21
77.4582695715
  0
LINE
  5
250
100
AcDbEntity
  8
0
100
AcDbLine
 62
7
  6
BYLAYER
 10
31.4235023922
 20
79.2434151352
 11
50.5235023922
 21
79.2467479501
  0
LINE
  5
251
100
AcDbEntity
  8
0
100
AcDbLine
 62
7
  6
BYLAYER
 10
29.4228794161
 20
80.072599547
 11
28.9238141959
 21
80.072599547
  0
LINE
  5
252
100
AcDbEntity
  8
0
100
AcDbLine
 62
7
  6
BYLAYER
 10
31.4235023922
 20
80.4433613298
 11
53.0009732232
 21
80.4433613298
  0
LINE
  5
253
100
AcDbEntity
  8
0
100
AcDbLine
 62
7
  6
BYLAYER
 10
56.5235023922
 20
81.9741584297
 11
31.4235023922
 21
81.9741584297
  0
LINE
  5
254
100
AcDbEntity
  8
0
100
AcDbLine
 62
7
  6
BYLAYER
 10
33.1537441968
 20
91.9741568915
 11
37.0235023922
 21
91.9741568915
  0
LINE
  5
255
100
AcDbEntity
  8
0
100
AcDbLine
 62
7
  6
BYLAYER
 10
32.2235023923
 20
94.9741568915
 11
32.2850440652
 21
94.9741568915
  0
LINE
  5
256
100
AcDbEntity
  8
0
100
AcDbLine
 62
7
  6
BYLAYER
 10
37.0235023922
 20
95.2241568915
 11
37.2887672394
 21
95.2241568915
  0
LINE
  5
257
100
AcDbEntity
  8
0
100
AcDbLine
 62
7
  6
BYLAYER
 10
37.2887672394
 20
99.9741568915
 11
39.2887672394
 21
99.9741568915
  0
LINE
  5
258
100
AcDbEntity
  8
0
100
AcDbLine
 62
7
  6
BYLAYER
 10
37.2887672394
 20
104.7241568915
 11
37.0235023922
 21
104.7241568915
  0
LINE
  5
259
100
AcDbEntity
  8
0
100
AcDbLine
 62
7
  6
BYLAYER
 10
32.2850440652
 20
104.9741568915
 11
32.2235023923
 21
104.9741568915
  0
LINE
  5
25A
100
AcDbEntity
  8
0
100
AcDbLine
 62
7
  6
BYLAYER
 10
39.2887672394
 20
106.4719759776
 11
37.2887672394
 21
106.4719759776
  0
LINE
  5
25B
100
AcDbEntity
  8
0
100
AcDbLine
 62
7
  6
BYLAYER
 10
37.0235023922
 20
107.9741568915
 11
33.1537441968
 21
107.9741568915
  0
ARC
  5
25C
100
AcDbEntity
  8
0
100
AcDbCircle
 62
7
  6
BYLAYER
 10
63.2735023913
 20
99.9741568915
 40
31.4499999991
100
AcDbArc
 50
180.0
 51
189.1478424676
  0
ARC
  5
25D
100
AcDbEntity
  8
0
100
AcDbCircle
 62
7
  6
BYLAYER
 10
62.3556276977
 20
99.9741568915
 40
30.5
100
AcDbArc
 50
189.6258230031
 51
194.7716230028
  0
ARC
  5
25E
100
AcDbEntity
  8
0
100
AcDbCircle
 62
7
  6
BYLAYER
 10
34.2883385178
 20
73.5741568915
 40
8.1501951267
100
AcDbArc
 50
151.5385845196
 51
208.4614154084
  0
ARC
  5
25F
100
AcDbEntity
  8
0
100
AcDbCircle
 62
7
  6
BYLAYER
 10
50.5234039455
 20
21.4706342663
 40
3.5000383997
100
AcDbArc
 50
359.9921789542
 51
180.0078054936
  0
ARC
  5
260
100
AcDbEntity
  8
0
100
AcDbCircle
 62
7
  6
BYLAYER
 10
56.5235023922
 20
79.9741568915
 40
2.0
100
AcDbArc
 50
0.0
 51
90.0
  0
ARC
  5
261
100
AcDbEntity
  8
0
100
AcDbCircle
 62
7
  6
BYLAYER
 10
37.7887672394
 20
90.784515172
 40
1.5
100
AcDbArc
 50
296.0
 51
360.0
  0
ARC
  5
262
100
AcDbEntity
  8
0
100
AcDbCircle
 62
7
  6
BYLAYER
 10
30.9235023922
 20
86.1985259661
 40
1.5
100
AcDbArc
 50
116.0
 51
180.0
  0
ARC
  5
263
100
AcDbEntity
  8
0
100
AcDbCircle
 62
7
  6
BYLAYER
 10
33.1537441968
 20
92.2741568915
 40
0.3
100
AcDbArc
 50
194.7716230867
 51
270.0
  0
ARC
  5
264
100
AcDbEntity
  8
0
100
AcDbCircle
 62
7
  6
BYLAYER
 10
33.1537441968
 20
107.6741568915
 40
0.3
100
AcDbArc
 50
90.0
 51
165.2283769133
  0
ARC
  5
265
100
AcDbEntity
  8
0
100
AcDbCircle
 62
7
  6
BYLAYER
 10
42.5235023922
 20
63.9741568915
 40
0.05
100
AcDbArc
 50
208.6639403972
 51
270.0
  0
SPLINE
  5
266
100
AcDbEntity
  8
0
100
AcDbSpline
 62
7
  6
BYLAYER
 70
0
 71
3
 72
17
 73
13
 74
0
 42
0.0000001
 43
0.0000001
 44
0.0000000001
 40
0.0
 40
0.0
 40
0.0
 40
0.0
 40
0.0407037587
 40
0.0825515866
 40
0.1732323937
 40
0.2237039094
 40
0.2780068785
 40
0.3983772557
 40
0.5337797598
 40
0.6816834156
 40
0.838571481
 40
1.0
 40
1.0
 40
1.0
 40
1.0
 10
47.023548607
 20
11.4741568928
 30
0.0
 10
47.0235478952
 20
11.4167074861
 30
0.0
 10
47.0351478739
 20
11.2998720364
 30
0.0
 10
47.1059766366
 20
11.0645406108
 30
0.0
 10
47.2469561747
 20
10.8420289612
 30
0.0
 10
47.4377859303
 20
10.6424318503
 30
0.0
 10
47.6831196779
 20
10.4393322529
 30
0.0
 10
48.0617254408
 20
10.2147364885
 30
0.0
 10
48.5918710235
 20
10.001622276
 30
0.0
 10
49.1941557606
 20
9.843332464
 30
0.0
 10
49.846063691
 20
9.7460092666
 30
0.0
 10
50.2956616985
 20
9.7241568915
 30
0.0
 10
50.5235023922
 20
9.7241568915
 30
0.0
  0
SPLINE
  5
267
100
AcDbEntity
  8
0
100
AcDbSpline
 62
7
  6
BYLAYER
 70
0
 71
3
 72
17
 73
13
 74
0
 42
0.0000001
 43
0.0000001
 44
0.0000000001
 40
0.0
 40
0.0
 40
0.0
 40
0.0
 40
0.1614292953
 40
0.3183133905
 40
0.4662144188
 40
0.6016146575
 40
0.7219853953
 40
0.7762898331
 40
0.826763083
 40
0.9174466877
 40
0.959295363
 40
1.0
 40
1.0
 40
1.0
 40
1.0
 10
50.5235023922
 20
9.7241568915
 30
0.0
 10
50.7513442541
 20
9.7241568915
 30
0.0
 10
51.2009379626
 20
9.7460083038
 30
0.0
 10
51.8528378738
 20
9.8433302326
 30
0.0
 10
52.4551115251
 20
10.001613698
 30
0.0
 10
52.9852519779
 20
10.214723621
 30
0.0
 10
53.3638599231
 20
10.4393145352
 30
0.0
 10
53.6092002196
 20
10.6424141838
 30
0.0
 10
53.8000413026
 20
10.8420120563
 30
0.0
 10
53.9410285625
 20
11.0645296086
 30
0.0
 10
54.0118542801
 20
11.2998687336
 30
0.0
 10
54.0234554657
 20
11.4167062257
 30
0.0
 10
54.0234561775
 20
11.4741568902
 30
0.0
  0
SPLINE
  5
268
100
AcDbEntity
  8
0
100
AcDbSpline
 62
7
  6
BYLAYER
 70
0
 71
3
 72
10
 73
6
 74
0
 42
0.0000001
 43
0.0000001
 44
0.0000000001
 40
0.0
 40
0.0
 40
0.0
 40
0.0
 40
0.421606074
 40
0.695881249
 40
1.0
 40
1.0
 40
1.0
 40
1.0
 10
57.6411847144
 20
81.6327773602
 30
0.0
 10
57.0083850148
 20
81.3997139448
 30
0.0
 10
55.9487962773
 20
81.0536313365
 30
0.0
 10
54.3951769871
 20
80.6700563512
 30
0.0
 10
53.4830281612
 20
80.5093790874
 30
0.0
 10
53.0010807335
 20
80.4434589661
 30
0.0
  0
SPLINE
  5
269
100
AcDbEntity
  8
0
100
AcDbSpline
 62
7
  6
BYLAYER
 70
0
 71
3
 72
17
 73
13
 74
0
 42
0.0000001
 43
0.0000001
 44
0.0000000001
 40
0.0
 40
0.0
 40
0.0
 40
0.0
 40
0.1614292953
 40
0.3183133905
 40
0.4662144188
 40
0.6016146575
 40
0.7219853953
 40
0.7762898331
 40
0.826763083
 40
0.9174466877
 40
0.959295363
 40
1.0
 40
1.0
 40
1.0
 40
1.0
 10
50.5235023922
 20
13.2241568915
 30
0.0
 10
50.2956605304
 20
13.2241568915
 30
0.0
 10
49.8460668219
 20
13.2023054792
 30
0.0
 10
49.1941669107
 20
13.1049835504
 30
0.0
 10
48.5918932594
 20
12.946700085
 30
0.0
 10
48.0617528066
 20
12.733590162
 30
0.0
 10
47.6831448614
 20
12.5089992478
 30
0.0
 10
47.4378045649
 20
12.3058995992
 30
0.0
 10
47.2469634819
 20
12.1063017267
 30
0.0
 10
47.105976222
 20
11.8837841743
 30
0.0
 10
47.0351505044
 20
11.6484450493
 30
0.0
 10
47.0235493188
 20
11.5316075573
 30
0.0
 10
47.023548607
 20
11.4741568928
 30
0.0
  0
SPLINE
  5
26A
100
AcDbEntity
  8
0
100
AcDbSpline
 62
7
  6
BYLAYER
 70
0
 71
3
 72
15
 73
11
 74
0
 42
0.0000001
 43
0.0000001
 44
0.0000000001
 40
0.0
 40
0.0
 40
0.0
 40
0.0
 40
0.1295668518
 40
0.1752398925
 40
0.2266693765
 40
0.3466079275
 40
0.487824555
 40
0.6472138754
 40
0.8201683021
 40
1.0
 40
1.0
 40
1.0
 40
1.0
 10
42.0592738027
 20
16.2741568915
 30
0.0
 10
42.1075265813
 20
16.2741568915
 30
0.0
 10
42.1670476835
 20
16.3227511998
 30
0.0
 10
42.2169338305
 20
16.3890751858
 30
0.0
 10
42.2596030988
 20
16.4582935627
 30
0.0
 10
42.3079096007
 20
16.5644274937
 30
0.0
 10
42.3562637611
 20
16.7137387962
 30
0.0
 10
42.3939215476
 20
16.8862831318
 30
0.0
 10
42.417943089
 20
17.0757355895
 30
0.0
 10
42.4235023922
 20
17.2071846761
 30
0.0
 10
42.4235023922
 20
17.2741568915
 30
0.0
  0
SPLINE
  5
26B
100
AcDbEntity
  8
0
100
AcDbSpline
 62
7
  6
BYLAYER
 70
0
 71
3
 72
15
 73
11
 74
0
 42
0.0000001
 43
0.0000001
 44
0.0000000001
 40
0.0
 40
0.0
 40
0.0
 40
0.0
 40
0.1798396429
 40
0.3528097221
 40
0.5121998569
 40
0.6534086677
 40
0.7733400245
 40
0.8247670461
 40
0.8704379352
 40
1.0
 40
1.0
 40
1.0
 40
1.0
 10
42.4235023922
 20
17.2741568915
 30
0.0
 10
42.4235023922
 20
17.3411319566
 30
0.0
 10
42.4179407017
 20
17.472589387
 30
0.0
 10
42.3939245184
 20
17.662051455
 30
0.0
 10
42.3562615252
 20
17.834597874
 30
0.0
 10
42.3079036232
 20
17.9839023178
 30
0.0
 10
42.2595930845
 20
18.0900268571
 30
0.0
 10
42.2169255204
 20
18.1592408528
 30
0.0
 10
42.1670424588
 20
18.2255625014
 30
0.0
 10
42.10752472
 20
18.2741568915
 30
0.0
 10
42.0592738027
 20
18.2741568915
 30
0.0
  0
SPLINE
  5
26C
100
AcDbEntity
  8
0
100
AcDbSpline
 62
7
  6
BYLAYER
 70
0
 71
3
 72
10
 73
6
 74
0
 42
0.0000001
 43
0.0000001
 44
0.0000000001
 40
0.0
 40
0.0
 40
0.0
 40
0.0
 40
0.2011903536
 40
0.4893147116
 40
1.0
 40
1.0
 40
1.0
 40
1.0
 10
42.5235030116
 20
63.9241561895
 30
0.0
 10
42.5266826803
 20
63.9237110916
 30
0.0
 10
42.5345337247
 20
63.923369694
 30
0.0
 10
42.5504264044
 20
63.9264840299
 30
0.0
 10
42.5610929823
 20
63.9350569302
 30
0.0
 10
42.5658748996
 20
63.9416562461
 30
0.0
  0
SPLINE
  5
26D
100
AcDbEntity
  8
0
100
AcDbSpline
 62
7
  6
BYLAYER
 70
0
 71
3
 72
11
 73
7
 74
0
 42
0.0000001
 43
0.0000001
 44
0.0000000001
 40
0.0
 40
0.0
 40
0.0
 40
0.0
 40
0.1968618403
 40
0.4191262548
 40
0.6885005998
 40
1.0
 40
1.0
 40
1.0
 40
1.0
 10
42.4735023922
 20
61.9723452676
 30
0.0
 10
42.4733983433
 20
61.9677977857
 30
0.0
 10
42.4758693681
 20
61.9579739356
 30
0.0
 10
42.4863103657
 20
61.9454157013
 30
0.0
 10
42.5028471589
 20
61.9363330651
 30
0.0
 10
42.516304915
 20
61.9335227947
 30
0.0
 10
42.5235023922
 20
61.9335227947
 30
0.0
  0
SPLINE
  5
26E
100
AcDbEntity
  8
0
100
AcDbSpline
 62
7
  6
BYLAYER
 70
0
 71
3
 72
9
 73
5
 74
0
 42
0.0000001
 43
0.0000001
 44
0.0000000001
 40
0.0
 40
0.0
 40
0.0
 40
0.0
 40
0.5521947502
 40
1.0
 40
1.0
 40
1.0
 40
1.0
 10
42.5235023922
 20
61.9341059694
 30
0.0
 10
42.5323921881
 20
61.9341059694
 30
0.0
 10
42.5487431048
 20
61.9372964016
 30
0.0
 10
42.5622313635
 20
61.9472987723
 30
0.0
 10
42.5666268326
 20
61.9530130356
 30
0.0
  0
SPLINE
  5
26F
100
AcDbEntity
  8
0
100
AcDbSpline
 62
7
  6
BYLAYER
 70
0
 71
3
 72
9
 73
5
 74
0
 42
0.0000001
 43
0.0000001
 44
0.0000000001
 40
0.0
 40
0.0
 40
0.0
 40
0.0
 40
0.2685666241
 40
1.0
 40
1.0
 40
1.0
 40
1.0
 10
42.5666268326
 20
61.9530130356
 30
0.0
 10
42.5677587032
 20
61.9544845069
 30
0.0
 10
42.571598482
 20
61.9602272265
 30
0.0
 10
42.5736180452
 20
61.967290638
 30
0.0
 10
42.5735023922
 20
61.9723452676
 30
0.0
  0
SPLINE
  5
270
100
AcDbEntity
  8
0
100
AcDbSpline
 62
7
  6
BYLAYER
 70
0
 71
3
 72
9
 73
5
 74
0
 42
0.0000001
 43
0.0000001
 44
0.0000000001
 40
0.0
 40
0.0
 40
0.0
 40
0.0
 40
0.3304985091
 40
1.0
 40
1.0
 40
1.0
 40
1.0
 10
42.5735660952
 20
63.9673016527
 30
0.0
 10
43.4436311445
 20
63.8465427828
 30
0.0
 10
46.0841547776
 20
63.5384503418
 30
0.0
 10
48.7440884139
 20
63.4125411831
 30
0.0
 10
50.5235023922
 20
63.4125411831
 30
0.0
  0
SPLINE
  5
271
100
AcDbEntity
  8
0
100
AcDbSpline
 62
7
  6
BYLAYER
 70
0
 71
3
 72
10
 73
6
 74
0
 42
0.0000001
 43
0.0000001
 44
0.0000000001
 40
0.0
 40
0.0
 40
0.0
 40
0.0
 40
0.2940518972
 40
0.618103403
 40
1.0
 40
1.0
 40
1.0
 40
1.0
 10
58.5235023922
 20
63.9742833585
 30
0.0
 10
57.744391568
 20
63.8653482389
 30
0.0
 10
56.1021691232
 20
63.6687641136
 30
0.0
 10
53.4340647092
 20
63.4637083467
 30
0.0
 10
51.545129101
 20
63.4125411831
 30
0.0
 10
50.5235023922
 20
63.4125411831
 30
0.0
  0
SPLINE
  5
272
100
AcDbEntity
  8
0
100
AcDbSpline
 62
7
  6
BYLAYER
 70
0
 71
3
 72
17
 73
13
 74
0
 42
0.0000001
 43
0.0000001
 44
0.0000000001
 40
0.0
 40
0.0
 40
0.0
 40
0.0
 40
0.0407037587
 40
0.0825515866
 40
0.1732323937
 40
0.2237039094
 40
0.2780068785
 40
0.3983772557
 40
0.5337797598
 40
0.6816834156
 40
0.838571481
 40
1.0
 40
1.0
 40
1.0
 40
1.0
 10
54.0234561775
 20
11.4741568902
 30
0.0
 10
54.0234568893
 20
11.5316062969
 30
0.0
 10
54.0118569106
 20
11.6484417466
 30
0.0
 10
53.9410281479
 20
11.8837731722
 30
0.0
 10
53.8000486098
 20
12.1062848218
 30
0.0
 10
53.6092188542
 20
12.3058819327
 30
0.0
 10
53.3638851066
 20
12.5089815301
 30
0.0
 10
52.9852793437
 20
12.7335772945
 30
0.0
 10
52.455133761
 20
12.946691507
 30
0.0
 10
51.8528490239
 20
13.104981319
 30
0.0
 10
51.2009410935
 20
13.2023045163
 30
0.0
 10
50.751343086
 20
13.2241568915
 30
0.0
 10
50.5235023922
 20
13.2241568915
 30
0.0
  0
SPLINE
  5
273
100
AcDbEntity
  8
0
100
AcDbSpline
 62
7
  6
BYLAYER
 70
0
 71
3
 72
37
 73
33
 74
0
 42
0.0000001
 43
0.0000001
 44
0.0000000001
 40
0.0
 40
0.0
 40
0.0
 40
0.0
 40
0.044002066
 40
0.0879454997
 40
0.1316139465
 40
0.1750147979
 40
0.2607552067
 40
0.3449463533
 40
0.4272508194
 40
0.5072558117
 40
0.5844479297
 40
0.6582047363
 40
0.7277633424
 40
0.7921994991
 40
0.8504112217
 40
0.8767811738
 40
0.9010888686
 40
0.9231537264
 40
0.9427879339
 40
0.9598012067
 40
0.9740072459
 40
0.9800088458
 40
0.9852535534
 40
0.9897244409
 40
0.9934045802
 40
0.9962779076
 40
0.9974093412
 40
0.9983368051
 40
0.9990599505
 40
0.9995784288
 40
0.9998918923
 40
1.0
 40
1.0
 40
1.0
 40
1.0
 10
50.5235023922
 20
70.3887894412
 30
0.0
 10
50.3779387487
 20
70.3887894412
 30
0.0
 10
50.0866473281
 20
70.366122947
 30
0.0
 10
49.660125224
 20
70.2731707875
 30
0.0
 10
49.2500303683
 20
70.130388581
 30
0.0
 10
48.7288460215
 20
69.8941646875
 30
0.0
 10
48.1175782013
 20
69.5384013075
 30
0.0
 10
47.4309072371
 20
69.0637315544
 30
0.0
 10
46.7824308002
 20
68.568968636
 30
0.0
 10
46.1676316511
 20
68.0690927216
 30
0.0
 10
45.5850827153
 20
67.5747007372
 30
0.0
 10
45.0356636684
 20
67.0948263522
 30
0.0
 10
44.5228166565
 20
66.6372963084
 30
0.0
 10
44.051587141
 20
66.2103994003
 30
0.0
 10
43.6881662912
 20
65.8773165982
 30
0.0
 10
43.4234178415
 20
65.6330517077
 30
0.0
 10
43.246862546
 20
65.4695403183
 30
0.0
 10
43.0868797654
 20
65.3209281726
 30
0.0
 10
42.9447454247
 20
65.1885578272
 30
0.0
 10
42.82175525
 20
65.0737779411
 30
0.0
 10
42.7317892217
 20
64.989710612
 30
0.0
 10
42.6702887706
 20
64.9322023928
 30
0.0
 10
42.6323181134
 20
64.896683116
 30
0.0
 10
42.5999609789
 20
64.8664041978
 30
0.0
 10
42.5733315222
 20
64.841486812
 30
0.0
 10
42.5547725347
 20
64.8241106474
 30
0.0
 10
42.5428503762
 20
64.8129741156
 30
0.0
 10
42.5361397179
 20
64.8066699257
 30
0.0
 10
42.5308639786
 20
64.8018213236
 30
0.0
 10
42.5271745275
 20
64.7981999468
 30
0.0
 10
42.5247681604
 20
64.7962821633
 30
0.0
 10
42.5238788933
 20
64.7951259554
 30
0.0
 10
42.5235532268
 20
64.7949781651
 30
0.0
  0
SPLINE
  5
274
100
AcDbEntity
  8
0
100
AcDbSpline
 62
7
  6
BYLAYER
 70
0
 71
3
 72
14
 73
10
 74
0
 42
0.0000001
 43
0.0000001
 44
0.0000000001
 40
0.0
 40
0.0
 40
0.0
 40
0.0
 40
0.2471976738
 40
0.4961016012
 40
0.621430547
 40
0.7472720771
 40
0.8103490563
 40
0.8735408877
 40
1.0
 40
1.0
 40
1.0
 40
1.0
 10
53.0009732232
 20
80.4433613298
 30
0.0
 10
52.835676219
 20
80.2800056831
 30
0.0
 10
52.4855182034
 20
79.9700289037
 30
0.0
 10
51.9940550707
 20
79.6483666557
 30
0.0
 10
51.5667701203
 20
79.4505170291
 30
0.0
 10
51.286125925
 20
79.3557891996
 30
0.0
 10
51.0550693116
 20
79.3021527722
 30
0.0
 10
50.8206915314
 20
79.2631255088
 30
0.0
 10
50.6423896933
 20
79.2467479501
 30
0.0
 10
50.5235023922
 20
79.2467479501
 30
0.0
  0
ENDSEC
  0
SECTION
  2
OBJECTS
  0
DICTIONARY
  5
C
100
AcDbDictionary
280
0
281
1
  3
ACAD_GROUP
350
D
  3
ACAD_MLINESTYLE
350
17
  3
ACAD_LAYOUT
350
1A
  3
ACAD_PLOTSETTINGS
350
19
  3
ACAD_PLOTSTYLENAME
350
E
  0
DICTIONARY
  5
D
102
{ACAD_REACTORS
330
C
102
}
100
AcDbDictionary
280
0
281
1
  0
ACDBDICTIONARYWDFLT
  5
E
102
{ACAD_REACTORS
330
C
102
}
100
AcDbDictionary
281
1
  3
Normal
350
F
100
AcDbDictionaryWithDefault
340
F
  0
DICTIONARY
  5
17
102
{ACAD_REACTORS
330
C
102
}
100
AcDbDictionary
280
0
281
1
  3
Standard
350
18
  0
DICTIONARY
  5
19
102
{ACAD_REACTORS
330
C
102
}
100
AcDbDictionary
281
1
  0
DICTIONARY
  5
1A
102
{ACAD_REACTORS
330
C
102
}
100
AcDbDictionary
281
1
  3
Model
350
275
  3
Layout1
350
276
  0
ACDBPLACEHOLDER
  5
F
102
{ACAD_REACTORS
330
E
102
}
  0
MLINESTYLE
  5
18
102
{ACAD_REACTORS
330
17
102
}
100
AcDbMlineStyle
  2
STANDARD
 70
0
  3

 62
256
 51
90.0
 52
90.0
 71
2
 49
0.5
 62
256
  6
BYLAYER
 49
-0.5
 62
256
  6
BYLAYER
  0
LAYOUT
  5
275
102
{ACAD_REACTORS
330
1A
102
}
100
AcDbPlotSettings
  1

  2
none_device
  4

  6

 40
0.0
 41
0.0
 42
0.0
 43
0.0
 44
210.0
 45
297.0
 46
0.0
 47
0.0
 48
0.0
 49
0.0
140
0.0
141
0.0
142
1.0
143
1.0
 70
1024
 72
1
 73
0
 74
0
  7

 75
0
147
1.0
148
0.0
149
0.0
100
AcDbLayout
  1
Model
 70
0
 71
0
 10
0.0
 20
0.0
 11
210.0
 21
297.0
 12
0.0
 22
0.0
 32
0.0
 14
0.0
 24
0.0
 34
0.0
 15
0.0
 25
0.0
 35
0.0
146
0.0
 13
0.0
 23
0.0
 33
0.0
 16
1.0
 26
0.0
 36
0.0
 17
0.0
 27
1.0
 37
0.0
 76
0
330
210
345
0
346
0
  0
LAYOUT
  5
276
102
{ACAD_REACTORS
330
1A
102
}
100
AcDbPlotSettings
  1

  2
none_device
  4

  6

 40
0.0
 41
0.0
 42
0.0
 43
0.0
 44
210.0
 45
297.0
 46
0.0
 47
0.0
 48
0.0
 49
0.0
140
0.0
141
0.0
142
1.0
143
1.0
 70
0
 72
1
 73
0
 74
0
  7

 75
0
147
1.0
148
0.0
149
0.0
100
AcDbLayout
  1
Layout1
 70
0
 71
1
 10
0.0
 20
0.0
 11
210.0
 21
297.0
 12
0.0
 22
0.0
 32
0.0
 14
0.0
 24
0.0
 34
0.0
 15
0.0
 25
0.0
 35
0.0
146
0.0
 13
0.0
 23
0.0
 33
0.0
 16
1.0
 26
0.0
 36
0.0
 17
0.0
 27
1.0
 37
0.0
 76
0
330
211
345
0
346
0
  0
ENDSEC
  0
EOF
