999
DXF file: C:\Users\sesa63760\Dev\_Creo\CAD\MCADID0003805_3D-CAD\drw0001_6.dxf
999
Pro/ENGINEER 2019471 by Parametric Technology Corporation
  0
SECTION
  2
HEADER
  9
$ACADVER
  1
AC1024
  9
$DWGCODEPAGE
  3
ANSI_1252
  9
$EXTMAX
 10
125.2054350949
 20
177.0762582057
 30
0.0
  9
$EXTMIN
 10
0.0
 20
0.0
 30
0.0
  9
$LIMMIN
 10
0.0
 20
0.0
  9
$LIMMAX
 10
125.2054350949
 20
177.0762582057
  9
$VIEWCTR
 10
62.6027175475
 20
88.5381291028
  9
$VIEWSIZE
 40
177.0762582057
  9
$CLAYER
  8
0
  9
$LTSCALE
 40
11.542748683
  9
$CELTYPE
  6
BYLAYER
  9
$DIMSCALE
 40
1.0
  9
$DIMASZ
 40
1.490540894
  9
$DIMEXO
 40
1.0
  9
$DIMDLI
 40
7.9749899992
  9
$DIMEXE
 40
1.0
  9
$DIMCEN
 40
1.8888134209
  9
$DIMLFAC
 40
1.0
  9
$DIMBLK
  1
_FILLED
  9
$DIMALT
 70
0
  9
$DIMALTF
 40
0.0393700787
  9
$DIMTXT
 40
2.0867572516
  9
$DIMTOL
 70
1
  9
$DIMLIM
 70
0
  9
$DIMTFAC
 40
1.0
  9
$DIMTP
 40
0.01
  9
$DIMTM
 40
0.01
  9
$DIMGAP
 40
0.625
  9
$DIMDSEP
 70
46
  9
$AUNITS
 70
0
  9
$PDMODE
 70
3
  9
$PDSIZE
 40
0.3125
  9
$HANDSEED
  5
2A8
  9
$TILEMODE
 70
1
  9
$MEASUREMENT
 70
1
  9
$INSUNITS
 70
4
  0
ENDSEC
  0
SECTION
  2
CLASSES
  0
CLASS
  1
ACDBDICTIONARYWDFLT
  2
AcDbDictionaryWithDefault
  3
AutoCAD 2000
 90
0
 91
1
280
0
281
0
  0
CLASS
  1
ACDBPLACEHOLDER
  2
AcDbPlaceHolder
  3
AutoCAD 2000
 90
0
 91
1
280
0
281
0
  0
CLASS
  1
LAYOUT
  2
AcDbLayout
  3
AutoCAD 2000
 90
0
 91
0
280
0
281
0
  0
ENDSEC
  0
SECTION
  2
TABLES
  0
TABLE
  2
VPORT
  5
8
100
AcDbSymbolTable
 70
2
  0
VPORT
  5
1F4
100
AcDbSymbolTableRecord
100
AcDbViewportTableRecord
  2
*ACTIVE
 70
0
 10
0.0
 20
0.0
 11
1.0
 21
1.0
 12
62.6027175475
 22
88.5381291028
 13
0.0
 23
0.0
 14
1.0
 24
1.0
 15
0.0
 25
0.0
 16
0.0
 26
0.0
 36
1.0
 17
0.0
 27
0.0
 37
0.0
 40
177.0762582057
 41
0.7070707071
 42
50.0
 43
0.0
 44
0.0
 50
0.0
 51
0.0
 71
0
 72
100
 73
1
 74
1
 75
0
 76
0
 77
0
 78
0
  0
ENDTAB
  0
TABLE
  2
LTYPE
  5
5
100
AcDbSymbolTable
 70
6
  0
LTYPE
  5
14
100
AcDbSymbolTableRecord
100
AcDbLinetypeTableRecord
  2
BYBLOCK
 70
0
  3

 72
65
 73
0
 40
0.0
  0
LTYPE
  5
15
100
AcDbSymbolTableRecord
100
AcDbLinetypeTableRecord
  2
BYLAYER
 70
0
  3

 72
65
 73
0
 40
0.0
  0
LTYPE
  5
16
100
AcDbSymbolTableRecord
100
AcDbLinetypeTableRecord
  2
CONTINUOUS
 70
64
  3
Solid line
 72
65
 73
0
 40
0.0
  0
LTYPE
  5
1F5
100
AcDbSymbolTableRecord
100
AcDbLinetypeTableRecord
  2
CENTER
 70
64
  3
____ _ ____ _ ____ _ ____ _ ____ _ ____ _ ____
 72
65
 73
4
 40
0.6
 49
0.375
 74
0
 49
-0.075
 74
0
 49
0.075
 74
0
 49
-0.075
 74
0
  0
LTYPE
  5
1F6
100
AcDbSymbolTableRecord
100
AcDbLinetypeTableRecord
  2
HIDDEN
 70
64
  3
- - - - - - - - - - - - - - - - - - - -
 72
65
 73
2
 40
0.2
 49
0.1
 74
0
 49
-0.1
 74
0
  0
LTYPE
  5
1F7
100
AcDbSymbolTableRecord
100
AcDbLinetypeTableRecord
  2
PHANTOM
 70
64
  3
_____ _ _ _____ _ _ _____ _ _ _____
 72
65
 73
6
 40
0.8
 49
0.45
 74
0
 49
-0.05
 74
0
 49
0.1
 74
0
 49
-0.05
 74
0
 49
0.1
 74
0
 49
-0.05
 74
0
  0
LTYPE
  5
1F8
100
AcDbSymbolTableRecord
100
AcDbLinetypeTableRecord
  2
DOT
 70
64
  3
. . . . . . . . . . . . . . . . . . . .
 72
65
 73
2
 40
0.2
 49
0.1
 74
0
 49
-0.1
 74
0
  0
LTYPE
  5
1F9
100
AcDbSymbolTableRecord
100
AcDbLinetypeTableRecord
  2
DASHED
 70
64
  3
- - - - - - - - - - - - - - - - - - - -
 72
65
 73
2
 40
0.2
 49
0.1
 74
0
 49
-0.1
 74
0
  0
ENDTAB
  0
TABLE
  2
LAYER
  5
2
100
AcDbSymbolTable
 70
36
  0
LAYER
  5
10
100
AcDbSymbolTableRecord
100
AcDbLayerTableRecord
  2
0
 70
0
 62
7
  6
CONTINUOUS
370
-3
390
F
  0
LAYER
  5
1FA
100
AcDbSymbolTableRecord
100
AcDbLayerTableRecord
  2
DEFAULT_1
 70
0
 62
7
  6
CENTER
370
-3
390
F
  0
LAYER
  5
1FB
100
AcDbSymbolTableRecord
100
AcDbLayerTableRecord
  2
DEFAULT_2
 70
0
 62
7
  6
HIDDEN
370
-3
390
F
  0
LAYER
  5
1FC
100
AcDbSymbolTableRecord
100
AcDbLayerTableRecord
  2
DEFAULT_3
 70
0
 62
7
  6
PHANTOM
370
-3
390
F
  0
LAYER
  5
1FD
100
AcDbSymbolTableRecord
100
AcDbLayerTableRecord
  2
00_COMPONENTS
 70
0
 62
7
  6
CONTINUOUS
370
-3
390
F
  0
LAYER
  5
1FE
100
AcDbSymbolTableRecord
100
AcDbLayerTableRecord
  2
01_1_DEFAULT_DATUMS
 70
0
 62
7
  6
CONTINUOUS
370
-3
390
F
  0
LAYER
  5
1FF
100
AcDbSymbolTableRecord
100
AcDbLayerTableRecord
  2
01_PLANES
 70
0
 62
7
  6
CONTINUOUS
370
-3
390
F
  0
LAYER
  5
200
100
AcDbSymbolTableRecord
100
AcDbLayerTableRecord
  2
02_COORD_SYS
 70
0
 62
7
  6
CONTINUOUS
370
-3
390
F
  0
LAYER
  5
201
100
AcDbSymbolTableRecord
100
AcDbLayerTableRecord
  2
03_AXES
 70
0
 62
7
  6
CONTINUOUS
370
-3
390
F
  0
LAYER
  5
202
100
AcDbSymbolTableRecord
100
AcDbLayerTableRecord
  2
04_POINTS
 70
0
 62
7
  6
CONTINUOUS
370
-3
390
F
  0
LAYER
  5
203
100
AcDbSymbolTableRecord
100
AcDbLayerTableRecord
  2
05_CURVES
 70
0
 62
7
  6
CONTINUOUS
370
-3
390
F
  0
LAYER
  5
204
100
AcDbSymbolTableRecord
100
AcDbLayerTableRecord
  2
06_SURFS
 70
0
 62
7
  6
CONTINUOUS
370
-3
390
F
  0
LAYER
  5
205
100
AcDbSymbolTableRecord
100
AcDbLayerTableRecord
  2
07_COSMETICS
 70
0
 62
7
  6
CONTINUOUS
370
-3
390
F
  0
LAYER
  5
206
100
AcDbSymbolTableRecord
100
AcDbLayerTableRecord
  2
10_NOTES
 70
0
 62
7
  6
CONTINUOUS
370
-3
390
F
  0
LAYER
  5
207
100
AcDbSymbolTableRecord
100
AcDbLayerTableRecord
  2
11_NOTES_PUB
 70
0
 62
7
  6
CONTINUOUS
370
-3
390
F
  0
LAYER
  5
208
100
AcDbSymbolTableRecord
100
AcDbLayerTableRecord
  2
13_REF_GTOL
 70
0
 62
7
  6
CONTINUOUS
370
-3
390
F
  0
LAYER
  5
209
100
AcDbSymbolTableRecord
100
AcDbLayerTableRecord
  2
16_MISC
 70
0
 62
7
  6
CONTINUOUS
370
-3
390
F
  0
LAYER
  5
20A
100
AcDbSymbolTableRecord
100
AcDbLayerTableRecord
  2
17_NO_PRINT
 70
0
 62
7
  6
CONTINUOUS
370
-3
390
F
  0
LAYER
  5
20B
100
AcDbSymbolTableRecord
100
AcDbLayerTableRecord
  2
18_DATUM_CAMS_JOINTS
 70
0
 62
7
  6
CONTINUOUS
370
-3
390
F
  0
LAYER
  5
20C
100
AcDbSymbolTableRecord
100
AcDbLayerTableRecord
  2
19_DATUM_FUNCTIONAL
 70
0
 62
7
  6
CONTINUOUS
370
-3
390
F
  0
LAYER
  5
20D
100
AcDbSymbolTableRecord
100
AcDbLayerTableRecord
  2
20_DATUM_KINEMATIC_SCHEME
 70
0
 62
7
  6
CONTINUOUS
370
-3
390
F
  0
ENDTAB
  0
TABLE
  2
STYLE
  5
3
100
AcDbSymbolTable
 70
1
  0
STYLE
  5
11
100
AcDbSymbolTableRecord
100
AcDbTextStyleTableRecord
  2
STANDARD
 70
0
 40
0.0
 41
1.0
 50
0.0
 71
0
 42
0.2
  3
ARIAL.TTF
  4

  0
STYLE
  5
20E
100
AcDbSymbolTableRecord
100
AcDbTextStyleTableRecord
  2
TEXTSTYLE_1
 70
0
 40
0.0
 41
0.8
 50
0.0
 71
0
 42
0.2
  3
gdt
  4

  0
ENDTAB
  0
TABLE
  2
VIEW
  5
6
100
AcDbSymbolTable
 70
0
  0
ENDTAB
  0
TABLE
  2
UCS
  5
7
100
AcDbSymbolTable
 70
0
  0
ENDTAB
  0
TABLE
  2
APPID
  5
9
100
AcDbSymbolTable
 70
1
  0
APPID
  5
20F
100
AcDbSymbolTableRecord
100
AcDbRegAppTableRecord
  2
ACAD
 70
0
  0
ENDTAB
  0
TABLE
  2
BLOCK_RECORD
  5
1
100
AcDbSymbolTable
 70
0
  0
BLOCK_RECORD
  5
210
100
AcDbSymbolTableRecord
100
AcDbBlockTableRecord
  2
*Model_Space
  0
BLOCK_RECORD
  5
211
100
AcDbSymbolTableRecord
100
AcDbBlockTableRecord
  2
*Paper_Space
  0
BLOCK_RECORD
  5
212
100
AcDbSymbolTableRecord
100
AcDbBlockTableRecord
  2
_FILLED
  0
ENDTAB
  0
TABLE
  2
DIMSTYLE
  5
A
100
AcDbSymbolTable
 70
1
100
AcDbDimStyleTable
 71
0
  0
DIMSTYLE
105
213
100
AcDbSymbolTableRecord
100
AcDbDimStyleTableRecord
  2
STANDARD
 70
0
  3

  4

 40
1.0
 41
1.490540894
 42
1.0
 43
0.38
 44
1.0
 45
0.0
 46
0.0
 47
0.01
 48
0.01
140
2.0867572516
141
0.09
142
0.0
143
25.4
144
1.0
145
0.0
146
1.0
147
0.625
 71
1
 72
0
 73
0
 74
0
 75
0
 76
0
 77
1
 78
8
 79
2
170
0
171
1
172
0
173
0
174
0
175
0
176
0
177
0
178
0
270
2
179
2
271
2
272
2
273
2
274
2
275
0
280
0
281
0
282
0
283
1
284
8
285
0
286
0
287
3
288
0
340
11
278
46
341
212
342
212
343
212
344
212
  0
ENDTAB
  0
ENDSEC
  0
SECTION
  2
BLOCKS
  0
BLOCK
  5
20
100
AcDbEntity
  8
0
100
AcDbBlockBegin
  2
*Model_Space
 70
0
 10
0.0
 20
0.0
 30
0.0
  3
*Model_Space
  1

  0
ENDBLK
  5
21
100
AcDbEntity
  8
0
100
AcDbBlockEnd
  0
BLOCK
  5
1C
100
AcDbEntity
  8
0
100
AcDbBlockBegin
  2
*Paper_Space
 70
0
 10
0.0
 20
0.0
 30
0.0
  3
*Paper_Space
  1

  0
ENDBLK
  5
1D
100
AcDbEntity
  8
0
100
AcDbBlockEnd
  0
BLOCK
  5
214
100
AcDbEntity
  8
0
100
AcDbBlockBegin
  2
_FILLED
 70
64
 10
0.0
 20
0.0
  3
_FILLED
  1

  0
SOLID
  5
215
100
AcDbEntity
  8
0
  6
BYBLOCK
 62
0
100
AcDbTrace
 10
0.0
 20
0.0
 11
-1.0
 21
0.25
 12
-1.0
 22
-0.25
 13
-1.0
 23
-0.25
  0
ENDBLK
  5
216
100
AcDbEntity
  8
0
  6
BYBLOCK
 62
0
100
AcDbBlockEnd
  0
ENDSEC
  0
SECTION
  2
ENTITIES
  0
LINE
  5
217
100
AcDbEntity
  8
0
100
AcDbLine
 62
7
  6
BYLAYER
 10
14.1614155781
 20
84.5259092089
 11
14.1614155781
 21
94.5262394516
  0
LINE
  5
218
100
AcDbEntity
  8
0
100
AcDbLine
 62
7
  6
BYLAYER
 10
15.1614155781
 20
84.3260743302
 11
15.1614155781
 21
94.7260743302
  0
LINE
  5
219
100
AcDbEntity
  8
0
100
AcDbLine
 62
7
  6
BYLAYER
 10
15.8614155781
 20
94.7260743302
 11
15.8614155781
 21
84.3260743302
  0
LINE
  5
21A
100
AcDbEntity
  8
0
100
AcDbLine
 62
7
  6
BYLAYER
 10
16.2078257396
 20
84.5260743302
 11
16.2078257396
 21
94.5260743302
  0
LINE
  5
21B
100
AcDbEntity
  8
0
100
AcDbLine
 62
7
  6
BYLAYER
 10
17.3614155781
 20
94.5260743302
 11
17.3614155781
 21
84.5260743302
  0
LINE
  5
21C
100
AcDbEntity
  8
0
100
AcDbLine
 62
7
  6
BYLAYER
 10
18.3614155781
 20
83.5260743302
 11
18.3614155781
 21
95.5260743302
  0
LINE
  5
21D
100
AcDbEntity
  8
0
100
AcDbLine
 62
7
  6
BYLAYER
 10
24.1614155781
 20
95.5260743302
 11
24.1614155781
 21
83.5260743302
  0
LINE
  5
21E
100
AcDbEntity
  8
0
100
AcDbLine
 62
7
  6
BYLAYER
 10
25.1614155781
 20
81.8319941299
 11
25.1614155781
 21
97.2201545306
  0
LINE
  5
21F
100
AcDbEntity
  8
0
100
AcDbLine
 62
7
  6
BYLAYER
 10
25.4614155781
 20
81.5319798613
 11
25.4614155781
 21
97.5201687992
  0
LINE
  5
220
100
AcDbEntity
  8
0
100
AcDbLine
 62
7
  6
BYLAYER
 10
26.0065528812
 20
71.7851899716
 11
26.3169009219
 21
90.0408889423
  0
LINE
  5
221
100
AcDbEntity
  8
0
100
AcDbLine
 62
7
  6
BYLAYER
 10
27.3165958753
 20
90.0496133044
 11
27.0052800877
 21
71.7369841561
  0
LINE
  5
222
100
AcDbEntity
  8
0
100
AcDbLine
 62
7
  6
BYLAYER
 10
26.3076562574
 20
108.5435051453
 11
26.1203761374
 21
97.8158659004
  0
LINE
  5
223
100
AcDbEntity
  8
0
100
AcDbLine
 62
7
  6
BYLAYER
 10
25.8307828643
 20
81.227692289
 11
25.666371054
 21
71.8099297834
  0
LINE
  5
224
100
AcDbEntity
  8
0
100
AcDbLine
 62
7
  6
BYLAYER
 10
25.2492835437
 20
97.4323008335
 11
25.1614155781
 21
97.2201687992
  0
LINE
  5
225
100
AcDbEntity
  8
0
100
AcDbLine
 62
7
  6
BYLAYER
 10
17.3614155781
 20
94.5260743302
 11
18.3614155781
 21
95.5260743302
  0
LINE
  5
226
100
AcDbEntity
  8
0
100
AcDbLine
 62
7
  6
BYLAYER
 10
17.3614155781
 20
84.5260743302
 11
18.3614155781
 21
83.5260743302
  0
LINE
  5
227
100
AcDbEntity
  8
0
100
AcDbLine
 62
7
  6
BYLAYER
 10
25.2492835437
 20
81.619847827
 11
25.1614155781
 21
81.8319798613
  0
LINE
  5
228
100
AcDbEntity
  8
0
100
AcDbLine
 62
7
  6
BYLAYER
 10
28.6614155781
 20
88.0502986465
 11
28.6614155781
 21
74.0550960968
  0
LINE
  5
229
100
AcDbEntity
  8
0
100
AcDbLine
 62
7
  6
BYLAYER
 10
28.9114155781
 20
74.3102452197
 11
28.9114155781
 21
87.8056191069
  0
LINE
  5
22A
100
AcDbEntity
  8
0
100
AcDbLine
 62
7
  6
BYLAYER
 10
25.4614155781
 20
97.5201687992
 11
25.2492835437
 21
97.4323008335
  0
LINE
  5
22B
100
AcDbEntity
  8
0
100
AcDbLine
 62
7
  6
BYLAYER
 10
25.4614155781
 20
81.5319798613
 11
25.2492835437
 21
81.619847827
  0
LINE
  5
22C
100
AcDbEntity
  8
0
100
AcDbLine
 62
7
  6
BYLAYER
 10
16.2078257396
 20
84.5260743302
 11
15.8614155781
 21
84.3260743302
  0
LINE
  5
22D
100
AcDbEntity
  8
0
100
AcDbLine
 62
7
  6
BYLAYER
 10
80.3339242624
 20
67.5498918805
 11
25.9446103533
 21
71.5054783466
  0
LINE
  5
22E
100
AcDbEntity
  8
0
100
AcDbLine
 62
7
  6
BYLAYER
 10
25.666371054
 20
71.8099297834
 11
26.0065528812
 21
71.7851899716
  0
LINE
  5
22F
100
AcDbEntity
  8
0
100
AcDbLine
 62
7
  6
BYLAYER
 10
27.0052800877
 20
71.7369841561
 11
79.3132604212
 21
67.9327674046
  0
LINE
  5
230
100
AcDbEntity
  8
0
100
AcDbLine
 62
7
  6
BYLAYER
 10
80.3137185875
 20
67.8792009928
 11
80.6556849714
 21
67.8543306951
  0
LINE
  5
231
100
AcDbEntity
  8
0
100
AcDbLine
 62
7
  6
BYLAYER
 10
16.2078257396
 20
94.5260743303
 11
15.8614155781
 21
94.7260743302
  0
LINE
  5
232
100
AcDbEntity
  8
0
100
AcDbLine
 62
7
  6
BYLAYER
 10
84.3442904982
 20
76.2703707561
 11
84.0078257396
 21
76.2260743302
  0
LINE
  5
233
100
AcDbEntity
  8
0
100
AcDbLine
 62
7
  6
BYLAYER
 10
29.6614155781
 20
73.0554387718
 11
76.6614155781
 21
73.0554387718
  0
LINE
  5
234
100
AcDbEntity
  8
0
100
AcDbLine
 62
7
  6
BYLAYER
 10
76.4114155781
 20
73.3105878947
 11
29.9114155781
 21
73.3105878947
  0
LINE
  5
235
100
AcDbEntity
  8
0
100
AcDbLine
 62
7
  6
BYLAYER
 10
51.2814306612
 20
88.8052758818
 11
51.2814306612
 21
89.0499559522
  0
LINE
  5
236
100
AcDbEntity
  8
0
100
AcDbLine
 62
7
  6
BYLAYER
 10
84.0078257396
 20
76.2260743302
 11
80.5095334395
 21
76.2260743302
  0
LINE
  5
237
100
AcDbEntity
  8
0
100
AcDbLine
 62
7
  6
BYLAYER
 10
86.2614155781
 20
77.5260743302
 11
86.2173380297
 21
77.5260743302
  0
LINE
  5
238
100
AcDbEntity
  8
0
100
AcDbLine
 62
7
  6
BYLAYER
 10
14.1614155781
 20
84.5258940479
 11
15.1614155781
 21
84.3260743302
  0
LINE
  5
239
100
AcDbEntity
  8
0
100
AcDbLine
 62
7
  6
BYLAYER
 10
86.2614155781
 20
80.5260743302
 11
92.922740418
 21
80.5260743302
  0
LINE
  5
23A
100
AcDbEntity
  8
0
100
AcDbLine
 62
7
  6
BYLAYER
 10
112.7114155781
 20
81.0260743302
 11
93.2114155781
 21
81.0260743302
  0
LINE
  5
23B
100
AcDbEntity
  8
0
100
AcDbLine
 62
7
  6
BYLAYER
 10
25.5311559638
 20
81.5319798613
 11
25.4614155781
 21
81.5319798613
  0
LINE
  5
23C
100
AcDbEntity
  8
0
100
AcDbLine
 62
7
  6
BYLAYER
 10
92.3453901743
 20
82.1959473113
 11
87.7887658473
 21
82.1959473113
  0
LINE
  5
23D
100
AcDbEntity
  8
0
100
AcDbLine
 62
7
  6
BYLAYER
 10
24.1614155781
 20
83.5260743302
 11
18.3614155781
 21
83.5260743302
  0
LINE
  5
23E
100
AcDbEntity
  8
0
100
AcDbLine
 62
7
  6
BYLAYER
 10
15.8614155781
 20
84.3260743302
 11
15.1614155781
 21
84.3260743302
  0
LINE
  5
23F
100
AcDbEntity
  8
0
100
AcDbLine
 62
7
  6
BYLAYER
 10
17.3614155781
 20
84.5260743302
 11
16.2078257396
 21
84.5260743302
  0
LINE
  5
240
100
AcDbEntity
  8
0
100
AcDbLine
 62
7
  6
BYLAYER
 10
29.9114155781
 20
88.8052764318
 11
51.2814306612
 21
88.8052758818
  0
LINE
  5
241
100
AcDbEntity
  8
0
100
AcDbLine
 62
7
  6
BYLAYER
 10
67.2814306612
 20
88.8052758818
 11
76.4114155781
 21
88.8052764318
  0
LINE
  5
242
100
AcDbEntity
  8
0
100
AcDbLine
 62
7
  6
BYLAYER
 10
67.2814306612
 20
88.8052752358
 11
67.2814306612
 21
89.0499559136
  0
LINE
  5
243
100
AcDbEntity
  8
0
100
AcDbLine
 62
7
  6
BYLAYER
 10
76.6614155781
 20
89.0499559714
 11
67.2814306612
 21
89.0499559714
  0
LINE
  5
244
100
AcDbEntity
  8
0
100
AcDbLine
 62
7
  6
BYLAYER
 10
51.2814306612
 20
89.0499559714
 11
29.6614155781
 21
89.0499559714
  0
LINE
  5
245
100
AcDbEntity
  8
0
100
AcDbLine
 62
7
  6
BYLAYER
 10
78.937247646
 20
90.0496134893
 11
27.3165958753
 21
90.0496133044
  0
LINE
  5
246
100
AcDbEntity
  8
0
100
AcDbLine
 62
7
  6
BYLAYER
 10
87.7887658473
 20
90.8562013492
 11
92.3453901743
 21
90.8562013492
  0
LINE
  5
247
100
AcDbEntity
  8
0
100
AcDbLine
 62
7
  6
BYLAYER
 10
92.3453901743
 20
94.1959473113
 11
87.7887658473
 21
94.1959473113
  0
LINE
  5
248
100
AcDbEntity
  8
0
100
AcDbLine
 62
7
  6
BYLAYER
 10
17.3614155781
 20
94.5260743302
 11
16.2078257396
 21
94.5260743302
  0
LINE
  5
249
100
AcDbEntity
  8
0
100
AcDbLine
 62
7
  6
BYLAYER
 10
15.8614155781
 20
94.7260743302
 11
15.1614155781
 21
94.7260743302
  0
LINE
  5
24A
100
AcDbEntity
  8
0
100
AcDbLine
 62
7
  6
BYLAYER
 10
24.1614155781
 20
95.5260743302
 11
18.3614155781
 21
95.5260743302
  0
LINE
  5
24B
100
AcDbEntity
  8
0
100
AcDbLine
 62
7
  6
BYLAYER
 10
25.8198794097
 20
97.5201687992
 11
25.4614155781
 21
97.5201687992
  0
LINE
  5
24C
100
AcDbEntity
  8
0
100
AcDbLine
 62
7
  6
BYLAYER
 10
77.4114155781
 20
87.8056191069
 11
77.4114155781
 21
74.3102452197
  0
LINE
  5
24D
100
AcDbEntity
  8
0
100
AcDbLine
 62
7
  6
BYLAYER
 10
77.6614155781
 20
74.0550960968
 11
77.6614155781
 21
88.0502986465
  0
LINE
  5
24E
100
AcDbEntity
  8
0
100
AcDbLine
 62
7
  6
BYLAYER
 10
87.7887658473
 20
102.8562013492
 11
92.3453901743
 21
102.8562013492
  0
LINE
  5
24F
100
AcDbEntity
  8
0
100
AcDbLine
 62
7
  6
BYLAYER
 10
80.509534245
 20
76.2260281905
 11
80.6556849714
 21
67.8543306951
  0
LINE
  5
250
100
AcDbEntity
  8
0
100
AcDbLine
 62
7
  6
BYLAYER
 10
79.3132604212
 20
67.9327674046
 11
78.937247646
 21
90.0496134893
  0
LINE
  5
251
100
AcDbEntity
  8
0
100
AcDbLine
 62
7
  6
BYLAYER
 10
79.9369432026
 20
90.0408882841
 11
80.3137185875
 21
67.8792009928
  0
LWPOLYLINE
  5
252
100
AcDbEntity
  8
0
100
AcDbPolyline
 62
7
  6
BYLAYER
 90
3
 70
0
 10
79.8124959336
 20
100.9995679658
 10
79.8544861921
 20
95.8239978079
 10
79.9369432026
 20
90.0408882841
  0
LINE
  5
253
100
AcDbEntity
  8
0
100
AcDbLine
 62
7
  6
BYLAYER
 10
79.8614155781
 20
98.0303772272
 11
79.8614155781
 21
107.8764005143
  0
LWPOLYLINE
  5
254
100
AcDbEntity
  8
0
100
AcDbPolyline
 62
7
  6
BYLAYER
 90
3
 70
0
 10
79.8614155733
 20
107.6804586059
 10
79.8148500413
 20
105.0809703593
 10
79.8124959336
 20
100.9995679658
  0
LINE
  5
255
100
AcDbEntity
  8
0
100
AcDbLine
 62
7
  6
BYLAYER
 10
14.1614155781
 20
94.5262546125
 11
15.1614155781
 21
94.7260743302
  0
LINE
  5
256
100
AcDbEntity
  8
0
100
AcDbLine
 62
7
  6
BYLAYER
 10
112.7114155781
 20
104.0260743302
 11
93.2114155781
 21
104.0260743302
  0
LINE
  5
257
100
AcDbEntity
  8
0
100
AcDbLine
 62
7
  6
BYLAYER
 10
92.9227404052
 20
104.5260743302
 11
86.2614155781
 21
104.5260743302
  0
LINE
  5
258
100
AcDbEntity
  8
0
100
AcDbLine
 62
7
  6
BYLAYER
 10
84.0078257396
 20
108.8260743302
 11
84.0078257396
 21
76.2260743302
  0
LINE
  5
259
100
AcDbEntity
  8
0
100
AcDbLine
 62
7
  6
BYLAYER
 10
84.6578257396
 20
76.4002413053
 11
84.6578257396
 21
108.6519073552
  0
LINE
  5
25A
100
AcDbEntity
  8
0
100
AcDbLine
 62
7
  6
BYLAYER
 10
85.8614155781
 20
77.0951342226
 11
84.6578257396
 21
76.4002413053
  0
LINE
  5
25B
100
AcDbEntity
  8
0
100
AcDbLine
 62
7
  6
BYLAYER
 10
84.6578257396
 20
76.4002413053
 11
84.3442904982
 21
76.2703707561
  0
LINE
  5
25C
100
AcDbEntity
  8
0
100
AcDbLine
 62
7
  6
BYLAYER
 10
86.2614155781
 20
107.5260743302
 11
86.2173380297
 21
107.5260743302
  0
LINE
  5
25D
100
AcDbEntity
  8
0
100
AcDbLine
 62
7
  6
BYLAYER
 10
84.0078257396
 20
108.8260743302
 11
79.9404115165
 21
108.8260743302
  0
LINE
  5
25E
100
AcDbEntity
  8
0
100
AcDbLine
 62
7
  6
BYLAYER
 10
27.3076571297
 20
109.5260743302
 11
78.9863251545
 21
109.5260743302
  0
LINE
  5
25F
100
AcDbEntity
  8
0
100
AcDbLine
 62
7
  6
BYLAYER
 10
85.8614155781
 20
107.9570144379
 11
85.8614155781
 21
77.0951342226
  0
LINE
  5
260
100
AcDbEntity
  8
0
100
AcDbLine
 62
7
  6
BYLAYER
 10
86.2173380297
 20
77.5260743302
 11
86.2173380297
 21
107.5260743302
  0
LINE
  5
261
100
AcDbEntity
  8
0
100
AcDbLine
 62
7
  6
BYLAYER
 10
86.2614155781
 20
107.5260535795
 11
86.2614155781
 21
77.526095081
  0
LINE
  5
262
100
AcDbEntity
  8
0
100
AcDbLine
 62
7
  6
BYLAYER
 10
87.2114155781
 20
104.5260743302
 11
87.2114155781
 21
80.5260743302
  0
LINE
  5
263
100
AcDbEntity
  8
0
100
AcDbLine
 62
7
  6
BYLAYER
 10
87.7887658473
 20
80.5260743302
 11
87.7887658473
 21
82.1959473113
  0
LINE
  5
264
100
AcDbEntity
  8
0
100
AcDbLine
 62
7
  6
BYLAYER
 10
87.7887658473
 20
90.8562013492
 11
87.7887658473
 21
94.1959473113
  0
LINE
  5
265
100
AcDbEntity
  8
0
100
AcDbLine
 62
7
  6
BYLAYER
 10
87.7887658473
 20
102.8562013492
 11
87.7887658473
 21
104.5260743302
  0
LINE
  5
266
100
AcDbEntity
  8
0
100
AcDbLine
 62
7
  6
BYLAYER
 10
86.2173380297
 20
77.5260743302
 11
85.8614155781
 21
77.0951342226
  0
LINE
  5
267
100
AcDbEntity
  8
0
100
AcDbLine
 62
7
  6
BYLAYER
 10
84.3442904982
 20
108.7817779044
 11
84.0078257396
 21
108.8260743302
  0
LINE
  5
268
100
AcDbEntity
  8
0
100
AcDbLine
 62
7
  6
BYLAYER
 10
92.3453901743
 20
104.5260743302
 11
92.3453901743
 21
102.8562013492
  0
LINE
  5
269
100
AcDbEntity
  8
0
100
AcDbLine
 62
7
  6
BYLAYER
 10
92.3453901743
 20
94.1959473113
 11
92.3453901743
 21
90.8562013492
  0
LINE
  5
26A
100
AcDbEntity
  8
0
100
AcDbLine
 62
7
  6
BYLAYER
 10
92.3453901743
 20
82.1959473113
 11
92.3453901743
 21
80.5260743302
  0
LINE
  5
26B
100
AcDbEntity
  8
0
100
AcDbLine
 62
7
  6
BYLAYER
 10
84.6578257396
 20
108.6519073552
 11
84.3442904982
 21
108.7817779044
  0
LINE
  5
26C
100
AcDbEntity
  8
0
100
AcDbLine
 62
7
  6
BYLAYER
 10
85.8614155781
 20
107.9570144379
 11
84.6578257396
 21
108.6519073552
  0
LINE
  5
26D
100
AcDbEntity
  8
0
100
AcDbLine
 62
7
  6
BYLAYER
 10
93.2114155781
 20
81.0260743302
 11
93.2114155781
 21
104.0260743302
  0
LINE
  5
26E
100
AcDbEntity
  8
0
100
AcDbLine
 62
7
  6
BYLAYER
 10
92.9227404371
 20
80.5260743192
 11
93.2114155781
 21
81.0260743302
  0
LINE
  5
26F
100
AcDbEntity
  8
0
100
AcDbLine
 62
7
  6
BYLAYER
 10
86.2173380297
 20
107.5260743302
 11
85.8614155781
 21
107.9570144379
  0
LINE
  5
270
100
AcDbEntity
  8
0
100
AcDbLine
 62
7
  6
BYLAYER
 10
92.9227404244
 20
104.5260743634
 11
93.2114155781
 21
104.0260743302
  0
LINE
  5
271
100
AcDbEntity
  8
0
100
AcDbLine
 62
7
  6
BYLAYER
 10
112.7114155781
 20
81.0260743302
 11
113.2114155781
 21
81.5260743302
  0
LINE
  5
272
100
AcDbEntity
  8
0
100
AcDbLine
 62
7
  6
BYLAYER
 10
112.7114155781
 20
104.0260743302
 11
113.2114155781
 21
103.5260743302
  0
LINE
  5
273
100
AcDbEntity
  8
0
100
AcDbLine
 62
7
  6
BYLAYER
 10
112.7114155781
 20
104.0260743302
 11
112.7114155781
 21
81.0260743302
  0
LINE
  5
274
100
AcDbEntity
  8
0
100
AcDbLine
 62
7
  6
BYLAYER
 10
113.2114155781
 20
103.5260743302
 11
113.2114155781
 21
81.5260743302
  0
ARC
  5
275
100
AcDbEntity
  8
0
100
AcDbCircle
 62
7
  6
BYLAYER
 10
1088.6638033909
 20
106.4282912063
 40
1009.8593835633
100
AcDbArc
 50
180.2524647224
 51
180.9293078568
  0
ARC
  5
276
100
AcDbEntity
  8
0
100
AcDbCircle
 62
7
  6
BYLAYER
 10
973.7685559967
 20
108.1724023554
 40
893.9646728842
100
AcDbArc
 50
180.6500343014
 51
181.0028725
  0
ARC
  5
277
100
AcDbEntity
  8
0
100
AcDbCircle
 62
7
  6
BYLAYER
 10
-413.445217831
 20
97.2072802993
 40
439.6328556803
100
AcDbArc
 50
358.4130539373
 51
359.5393525068
  0
ARC
  5
278
100
AcDbEntity
  8
0
100
AcDbCircle
 62
7
  6
BYLAYER
 10
32.9614155781
 20
129.3715867851
 40
20.0023589758
100
AcDbArc
 50
262.8200955412
 51
277.1799044588
  0
ARC
  5
279
100
AcDbEntity
  8
0
100
AcDbCircle
 62
7
  6
BYLAYER
 10
27.3107591347
 20
108.5252644516
 40
1.001096785
100
AcDbArc
 50
90.1775954813
 51
178.9580987755
  0
ARC
  5
27A
100
AcDbEntity
  8
0
100
AcDbCircle
 62
7
  6
BYLAYER
 10
78.986316777
 20
108.5258532446
 40
1.000218663
100
AcDbArc
 50
17.4670903208
 51
89.9989063941
  0
ARC
  5
27B
100
AcDbEntity
  8
0
100
AcDbCircle
 62
7
  6
BYLAYER
 10
24.1614155781
 20
82.5260743302
 40
1.0
100
AcDbArc
 50
0.0
 51
90.0
  0
ARC
  5
27C
100
AcDbEntity
  8
0
100
AcDbCircle
 62
7
  6
BYLAYER
 10
24.1614155781
 20
96.5260743302
 40
1.0
100
AcDbArc
 50
270.0
 51
360.0
  0
ARC
  5
27D
100
AcDbEntity
  8
0
100
AcDbCircle
 62
7
  6
BYLAYER
 10
76.4115230984
 20
87.8053589325
 40
0.9999096411
100
AcDbArc
 50
0.0148399604
 51
90.006160979
  0
ARC
  5
27E
100
AcDbEntity
  8
0
100
AcDbCircle
 62
7
  6
BYLAYER
 10
29.9113080627
 20
87.8053589374
 40
0.9999096412
100
AcDbArc
 50
89.9938393038
 51
179.9851603198
  0
ARC
  5
27F
100
AcDbEntity
  8
0
100
AcDbCircle
 62
7
  6
BYLAYER
 10
76.4115230983
 20
74.3105030019
 40
0.9999096411
100
AcDbArc
 50
269.9938390299
 51
359.9851600431
  0
ARC
  5
280
100
AcDbEntity
  8
0
100
AcDbCircle
 62
7
  6
BYLAYER
 10
29.9113080625
 20
74.3105029971
 40
0.999909641
100
AcDbArc
 50
180.0148396781
 51
270.0061607073
  0
ARC
  5
281
100
AcDbEntity
  8
0
100
AcDbCircle
 62
7
  6
BYLAYER
 10
25.9663532944
 20
71.8047183616
 40
0.3000280313
100
AcDbArc
 50
180.0045113571
 51
265.8441606997
  0
ARC
  5
282
100
AcDbEntity
  8
0
100
AcDbCircle
 62
7
  6
BYLAYER
 10
80.3557114982
 20
67.849120992
 40
0.3000196519
100
AcDbArc
 50
265.8355733955
 51
359.9950322184
  0
ARC
  5
283
100
AcDbEntity
  8
0
100
AcDbCircle
 62
7
  6
BYLAYER
 10
80.0137771062
 20
67.8739453794
 40
0.2999811076
100
AcDbArc
 50
265.8463192546
 51
0.0037992581
  0
ARC
  5
284
100
AcDbEntity
  8
0
100
AcDbCircle
 62
7
  6
BYLAYER
 10
26.3064842497
 20
71.7799231062
 40
0.2999728072
100
AcDbArc
 50
179.9940515011
 51
265.8355712619
  0
SPLINE
  5
285
100
AcDbEntity
  8
0
100
AcDbSpline
 62
7
  6
BYLAYER
 70
0
 71
3
 72
8
 73
4
 74
0
 42
0.0000001
 43
0.0000001
 44
0.0000000001
 40
0.0
 40
0.0
 40
0.0
 40
0.0
 40
1.0
 40
1.0
 40
1.0
 40
1.0
 10
25.6617790847
 20
81.5027465275
 30
0.0
 10
25.6218146551
 20
81.5234790439
 30
0.0
 10
25.5758320389
 20
81.5352278138
 30
0.0
 10
25.5308132267
 20
81.5357749976
 30
0.0
  0
SPLINE
  5
286
100
AcDbEntity
  8
0
100
AcDbSpline
 62
7
  6
BYLAYER
 70
0
 71
3
 72
9
 73
5
 74
0
 42
0.0000001
 43
0.0000001
 44
0.0000000001
 40
0.0
 40
0.0
 40
0.0
 40
0.0
 40
0.4998905809
 40
1.0
 40
1.0
 40
1.0
 40
1.0
 10
25.8247559098
 20
81.2278171457
 30
0.0
 10
25.8262682259
 20
81.2832333471
 30
0.0
 10
25.7973930719
 20
81.3974393053
 30
0.0
 10
25.7110083269
 20
81.4772041013
 30
0.0
 10
25.6617790847
 20
81.5027465275
 30
0.0
  0
SPLINE
  5
287
100
AcDbEntity
  8
0
100
AcDbSpline
 62
7
  6
BYLAYER
 70
0
 71
3
 72
11
 73
7
 74
0
 42
0.0000001
 43
0.0000001
 44
0.0000000001
 40
0.0
 40
0.0
 40
0.0
 40
0.0
 40
0.2499803301
 40
0.4999833492
 40
0.7500084654
 40
1.0
 40
1.0
 40
1.0
 40
1.0
 10
25.8189143885
 20
97.5196495078
 30
0.0
 10
25.8579740844
 20
97.5187789791
 30
0.0
 10
25.9372585544
 20
97.5335705199
 30
0.0
 10
26.0378581968
 20
97.5990958013
 30
0.0
 10
26.106360648
 20
97.6978829158
 30
0.0
 10
26.1228287432
 20
97.7767512753
 30
0.0
 10
26.1233040658
 20
97.8158195306
 30
0.0
  0
SPLINE
  5
288
100
AcDbEntity
  8
0
100
AcDbSpline
 62
7
  6
BYLAYER
 70
0
 71
3
 72
11
 73
7
 74
0
 42
0.0000001
 43
0.0000001
 44
0.0000000001
 40
0.0
 40
0.0
 40
0.0
 40
0.0
 40
0.2501361708
 40
0.499943897
 40
0.7497848037
 40
1.0
 40
1.0
 40
1.0
 40
1.0
 10
28.6614155781
 20
88.0502986465
 30
0.0
 10
28.6614155781
 20
88.1803365757
 30
0.0
 10
28.7154387278
 20
88.4424160224
 30
0.0
 10
28.9353424116
 20
88.7761621463
 30
0.0
 10
29.2692004855
 20
88.9959633599
 30
0.0
 10
29.5313365659
 20
89.0499559714
 30
0.0
 10
29.6614155781
 20
89.0499559714
 30
0.0
  0
SPLINE
  5
289
100
AcDbEntity
  8
0
100
AcDbSpline
 62
7
  6
BYLAYER
 70
0
 71
3
 72
11
 73
7
 74
0
 42
0.0000001
 43
0.0000001
 44
0.0000000001
 40
0.0
 40
0.0
 40
0.0
 40
0.0
 40
0.2502151963
 40
0.500056103
 40
0.7498638292
 40
1.0
 40
1.0
 40
1.0
 40
1.0
 10
29.6614155781
 20
73.0554387718
 30
0.0
 10
29.531336566
 20
73.0554387718
 30
0.0
 10
29.2692004856
 20
73.1094313834
 30
0.0
 10
28.9353424116
 20
73.329232597
 30
0.0
 10
28.7154387278
 20
73.6629787209
 30
0.0
 10
28.6614155781
 20
73.9250581675
 30
0.0
 10
28.6614155781
 20
74.0550960968
 30
0.0
  0
SPLINE
  5
28A
100
AcDbEntity
  8
0
100
AcDbSpline
 62
7
  6
BYLAYER
 70
0
 71
3
 72
11
 73
7
 74
0
 42
0.0000001
 43
0.0000001
 44
0.0000000001
 40
0.0
 40
0.0
 40
0.0
 40
0.0
 40
0.2501361708
 40
0.499943897
 40
0.7497848037
 40
1.0
 40
1.0
 40
1.0
 40
1.0
 10
77.6614155781
 20
74.0550960968
 30
0.0
 10
77.6614155781
 20
73.9250581675
 30
0.0
 10
77.6073924284
 20
73.6629787209
 30
0.0
 10
77.3874887446
 20
73.329232597
 30
0.0
 10
77.0536306706
 20
73.1094313834
 30
0.0
 10
76.7914945902
 20
73.0554387718
 30
0.0
 10
76.6614155781
 20
73.0554387718
 30
0.0
  0
SPLINE
  5
28B
100
AcDbEntity
  8
0
100
AcDbSpline
 62
7
  6
BYLAYER
 70
0
 71
3
 72
11
 73
7
 74
0
 42
0.0000001
 43
0.0000001
 44
0.0000000001
 40
0.0
 40
0.0
 40
0.0
 40
0.0
 40
0.2502151963
 40
0.500056103
 40
0.7498638292
 40
1.0
 40
1.0
 40
1.0
 40
1.0
 10
76.6614155781
 20
89.0499559714
 30
0.0
 10
76.7914945903
 20
89.0499559714
 30
0.0
 10
77.0536306707
 20
88.9959633599
 30
0.0
 10
77.3874887446
 20
88.7761621463
 30
0.0
 10
77.6073924284
 20
88.4424160224
 30
0.0
 10
77.6614155781
 20
88.1803365757
 30
0.0
 10
77.6614155781
 20
88.0502986465
 30
0.0
  0
SPLINE
  5
28C
100
AcDbEntity
  8
0
100
AcDbSpline
 62
7
  6
BYLAYER
 70
0
 71
3
 72
18
 73
14
 74
0
 42
0.0000001
 43
0.0000001
 44
0.0000000001
 40
0.0
 40
0.0
 40
0.0
 40
0.0
 40
0.0041088232
 40
0.016826188
 40
0.0387540786
 40
0.0704929319
 40
0.1124389213
 40
0.164171806
 40
0.29450083
 40
0.4551427667
 40
0.6343910217
 40
0.8196328121
 40
1.0
 40
1.0
 40
1.0
 40
1.0
 10
26.9835193789
 20
71.4299213266
 30
0.0
 10
26.9830988769
 20
71.4299519085
 30
0.0
 10
26.9842200105
 20
71.4326478213
 30
0.0
 10
26.9834346864
 20
71.4356506423
 30
0.0
 10
26.9844883442
 20
71.4430212477
 30
0.0
 10
26.9848671639
 20
71.4525454703
 30
0.0
 10
26.9858627021
 20
71.4654905457
 30
0.0
 10
26.9874039446
 20
71.4883696995
 30
0.0
 10
26.9899133477
 20
71.5234808479
 30
0.0
 10
26.9933296664
 20
71.5715950764
 30
0.0
 10
26.9971930909
 20
71.6253456561
 30
0.0
 10
27.001219945
 20
71.6811077293
 30
0.0
 10
27.0039366993
 20
71.7185252236
 30
0.0
 10
27.0052800876
 20
71.7369841561
 30
0.0
  0
SPLINE
  5
28D
100
AcDbEntity
  8
0
100
AcDbSpline
 62
7
  6
BYLAYER
 70
0
 71
3
 72
19
 73
15
 74
0
 42
0.0000001
 43
0.0000001
 44
0.0000000001
 40
0.0
 40
0.0
 40
0.0
 40
0.0
 40
0.0065011885
 40
0.0222918632
 40
0.0472507651
 40
0.0812014684
 40
0.1237959316
 40
0.1746131337
 40
0.2332219224
 40
0.2990596487
 40
0.4497811744
 40
0.6212173705
 40
0.8071498419
 40
1.0
 40
1.0
 40
1.0
 40
1.0
 10
26.006552884
 20
71.7851899699
 30
0.0
 10
26.0083666926
 20
71.7840042293
 30
0.0
 10
26.016334146
 20
71.7841956898
 30
0.0
 10
26.0315399012
 20
71.782034741
 30
0.0
 10
26.0566570154
 20
71.7810186378
 30
0.0
 10
26.0903332936
 20
71.7790443044
 30
0.0
 10
26.1327803944
 20
71.7771080199
 30
0.0
 10
26.1833873597
 20
71.7748213525
 30
0.0
 10
26.2417583815
 20
71.7723345193
 30
0.0
 10
26.3333960494
 20
71.7684932244
 30
0.0
 10
26.4626115204
 20
71.7630743961
 30
0.0
 10
26.631805307
 20
71.7556136677
 30
0.0
 10
26.8150018297
 20
71.7469490696
 30
0.0
 10
26.9410926477
 20
71.7404599173
 30
0.0
 10
27.0052800877
 20
71.7369841561
 30
0.0
  0
SPLINE
  5
28E
100
AcDbEntity
  8
0
100
AcDbSpline
 62
7
  6
BYLAYER
 70
0
 71
3
 72
9
 73
5
 74
0
 42
0.0000001
 43
0.0000001
 44
0.0000000001
 40
0.0
 40
0.0
 40
0.0
 40
0.0
 40
0.4989355945
 40
1.0
 40
1.0
 40
1.0
 40
1.0
 10
87.2114155781
 20
98.5260743302
 30
0.0
 10
87.2114155781
 20
99.2540516518
 30
0.0
 10
87.3165280744
 20
100.714670381
 30
0.0
 10
87.6071827552
 20
102.1480272901
 30
0.0
 10
87.7887658473
 20
102.8562013492
 30
0.0
  0
SPLINE
  5
28F
100
AcDbEntity
  8
0
100
AcDbSpline
 62
7
  6
BYLAYER
 70
0
 71
3
 72
29
 73
25
 74
0
 42
0.0000001
 43
0.0000001
 44
0.0000000001
 40
0.0
 40
0.0
 40
0.0
 40
0.0
 40
0.0004899297
 40
0.0014631377
 40
0.0030013192
 40
0.0051209142
 40
0.0111210477
 40
0.0194746594
 40
0.0301667214
 40
0.0431737071
 40
0.0584701262
 40
0.0760207274
 40
0.0957828697
 40
0.1177133584
 40
0.1678708422
 40
0.226026041
 40
0.2916375284
 40
0.3640980592
 40
0.4427290725
 40
0.5268007717
 40
0.6155322699
 40
0.7080877439
 40
0.8036110315
 40
1.0
 40
1.0
 40
1.0
 40
1.0
 10
27.3076571297
 20
109.5260743302
 30
0.0
 10
27.3108393952
 20
109.5260743263
 30
0.0
 10
27.3181398557
 20
109.5173544743
 30
0.0
 10
27.3237319011
 20
109.4996099714
 30
0.0
 10
27.3309772476
 20
109.4699089548
 30
0.0
 10
27.3407619582
 20
109.408178188
 30
0.0
 10
27.3520588726
 20
109.301541045
 30
0.0
 10
27.3639082276
 20
109.1393740824
 30
0.0
 10
27.3751695636
 20
108.931440415
 30
0.0
 10
27.3856449238
 20
108.6783766174
 30
0.0
 10
27.3952729985
 20
108.3806869096
 30
0.0
 10
27.4039997777
 20
108.0390829092
 30
0.0
 10
27.4118025053
 20
107.6543545567
 30
0.0
 10
27.4213607887
 20
107.0578311936
 30
0.0
 10
27.4303648736
 20
106.2118982005
 30
0.0
 10
27.4368471362
 20
105.0822154033
 30
0.0
 10
27.4392936312
 20
103.8076505122
 30
0.0
 10
27.4376625353
 20
102.4000874647
 30
0.0
 10
27.4319487838
 20
100.8726289172
 30
0.0
 10
27.4221935999
 20
99.2395034524
 30
0.0
 10
27.4084877468
 20
97.5159592874
 30
0.0
 10
27.3909404164
 20
95.7180641536
 30
0.0
 10
27.3623216658
 20
93.2209747221
 30
0.0
 10
27.3362812237
 20
91.3250767408
 30
0.0
 10
27.3165956794
 20
90.0496133969
 30
0.0
  0
SPLINE
  5
290
100
AcDbEntity
  8
0
100
AcDbSpline
 62
7
  6
BYLAYER
 70
0
 71
3
 72
16
 73
12
 74
0
 42
0.0000001
 43
0.0000001
 44
0.0000000001
 40
0.0
 40
0.0
 40
0.0
 40
0.0
 40
0.228848156
 40
0.4283181626
 40
0.5981623544
 40
0.7381455635
 40
0.8480628494
 40
0.9277912368
 40
0.977500452
 40
0.9916102487
 40
1.0
 40
1.0
 40
1.0
 40
1.0
 10
78.873750614
 20
108.7035163267
 30
0.0
 10
78.8777708113
 20
108.7671659198
 30
0.0
 10
78.8860202462
 20
108.8862518454
 30
0.0
 10
78.9000266596
 20
109.0523633654
 30
0.0
 10
78.9145017093
 20
109.1935796869
 30
0.0
 10
78.9290910719
 20
109.3096182744
 30
0.0
 10
78.9434629402
 20
109.4004709272
 30
0.0
 10
78.9570589693
 20
109.4655854381
 30
0.0
 10
78.9688431654
 20
109.504338191
 30
0.0
 10
78.9783416058
 20
109.5218676969
 30
0.0
 10
78.983997807
 20
109.5260591576
 30
0.0
 10
78.9863358656
 20
109.5260719074
 30
0.0
  0
SPLINE
  5
291
100
AcDbEntity
  8
0
100
AcDbSpline
 62
7
  6
BYLAYER
 70
0
 71
3
 72
9
 73
5
 74
0
 42
0.0000001
 43
0.0000001
 44
0.0000000001
 40
0.0
 40
0.0
 40
0.0
 40
0.0
 40
0.4989355945
 40
1.0
 40
1.0
 40
1.0
 40
1.0
 10
87.2114155781
 20
86.5260743302
 30
0.0
 10
87.2114155781
 20
87.2540516518
 30
0.0
 10
87.3165280744
 20
88.714670381
 30
0.0
 10
87.6071827552
 20
90.1480272901
 30
0.0
 10
87.7887658473
 20
90.8562013492
 30
0.0
  0
SPLINE
  5
292
100
AcDbEntity
  8
0
100
AcDbSpline
 62
7
  6
BYLAYER
 70
0
 71
3
 72
9
 73
5
 74
0
 42
0.0000001
 43
0.0000001
 44
0.0000000001
 40
0.0
 40
0.0
 40
0.0
 40
0.0
 40
0.5010661341
 40
1.0
 40
1.0
 40
1.0
 40
1.0
 10
87.7887658473
 20
94.1959473113
 30
0.0
 10
87.6071810716
 20
94.9041279365
 30
0.0
 10
87.3161285033
 20
96.3374277039
 30
0.0
 10
87.2114155781
 20
97.7980952927
 30
0.0
 10
87.2114155781
 20
98.5260743302
 30
0.0
  0
SPLINE
  5
293
100
AcDbEntity
  8
0
100
AcDbSpline
 62
7
  6
BYLAYER
 70
0
 71
3
 72
8
 73
4
 74
0
 42
0.0000001
 43
0.0000001
 44
0.0000000001
 40
0.0
 40
0.0
 40
0.0
 40
0.0
 40
1.0
 40
1.0
 40
1.0
 40
1.0
 10
78.8617207999
 20
108.6176955659
 30
0.0
 10
78.8627762513
 20
108.6465634594
 30
0.0
 10
78.8666624002
 20
108.6755127774
 30
0.0
 10
78.8737393042
 20
108.7035196817
 30
0.0
  0
SPLINE
  5
294
100
AcDbEntity
  8
0
100
AcDbSpline
 62
7
  6
BYLAYER
 70
0
 71
3
 72
9
 73
5
 74
0
 42
0.0000001
 43
0.0000001
 44
0.0000000001
 40
0.0
 40
0.0
 40
0.0
 40
0.0
 40
0.5010661341
 40
1.0
 40
1.0
 40
1.0
 40
1.0
 10
87.7887658473
 20
82.1959473113
 30
0.0
 10
87.6071810716
 20
82.9041279365
 30
0.0
 10
87.3161285033
 20
84.3374277039
 30
0.0
 10
87.2114155781
 20
85.7980952927
 30
0.0
 10
87.2114155781
 20
86.5260743302
 30
0.0
  0
SPLINE
  5
295
100
AcDbEntity
  8
0
100
AcDbSpline
 62
7
  6
BYLAYER
 70
0
 71
3
 72
23
 73
19
 74
0
 42
0.0000001
 43
0.0000001
 44
0.0000000001
 40
0.0
 40
0.0
 40
0.0
 40
0.0
 40
0.2186273695
 40
0.4155582948
 40
0.5877208514
 40
0.6636591019
 40
0.7324314653
 40
0.793792199
 40
0.8474985641
 40
0.8933319896
 40
0.9311122561
 40
0.9606661415
 40
0.9723173364
 40
0.9818895863
 40
0.9893959121
 40
0.9948575228
 40
0.9983229164
 40
1.0
 40
1.0
 40
1.0
 40
1.0
 10
26.0190169313
 20
85.0321351913
 30
0.0
 10
26.0110447289
 20
84.7543873936
 30
0.0
 10
25.9951216765
 20
84.2264767867
 30
0.0
 10
25.9698870919
 20
83.4799437455
 30
0.0
 10
25.948210886
 20
82.9147476375
 30
0.0
 10
25.9308261447
 20
82.5123955566
 30
0.0
 10
25.9185249509
 20
82.2507797301
 30
0.0
 10
25.9064680695
 20
82.0174406936
 30
0.0
 10
25.8947071672
 20
81.813284088
 30
0.0
 10
25.8833059824
 20
81.6391251683
 30
0.0
 10
25.8723258258
 20
81.4957222559
 30
0.0
 10
25.8630308138
 20
81.3957368676
 30
0.0
 10
25.855561728
 20
81.331663668
 30
0.0
 10
25.8505087491
 20
81.2954300218
 30
0.0
 10
25.8457669237
 20
81.2673492844
 30
0.0
 10
25.8409260266
 20
81.2465855253
 30
0.0
 10
25.8370734144
 20
81.2344987131
 30
0.0
 10
25.8329009267
 20
81.227931004
 30
0.0
 10
25.8307828643
 20
81.227692289
 30
0.0
  0
SPLINE
  5
296
100
AcDbEntity
  8
0
100
AcDbSpline
 62
7
  6
BYLAYER
 70
0
 71
3
 72
23
 73
19
 74
0
 42
0.0000001
 43
0.0000001
 44
0.0000000001
 40
0.0
 40
0.0
 40
0.0
 40
0.0
 40
0.001647608
 40
0.0051172501
 40
0.010607392
 40
0.0181638007
 40
0.0278067556
 40
0.0395489397
 40
0.0693285939
 40
0.1073695328
 40
0.1534887366
 40
0.2074890562
 40
0.2691270598
 40
0.3381469332
 40
0.4142767344
 40
0.5864963263
 40
0.7828579615
 40
1.0
 40
1.0
 40
1.0
 40
1.0
 10
26.1203761374
 20
97.8158659004
 30
0.0
 10
26.1226296442
 20
97.8155350237
 30
0.0
 10
26.1267217164
 20
97.808094603
 30
0.0
 10
26.1302936302
 20
97.7948479772
 30
0.0
 10
26.1345772845
 20
97.7718938863
 30
0.0
 10
26.1384864128
 20
97.7409792052
 30
0.0
 10
26.1424142112
 20
97.7010784504
 30
0.0
 10
26.1478221734
 20
97.6305894379
 30
0.0
 10
26.1537876734
 20
97.5207277302
 30
0.0
 10
26.1598820744
 20
97.3633426441
 30
0.0
 10
26.165251062
 20
97.1724169552
 30
0.0
 10
26.1698582625
 20
96.9488493433
 30
0.0
 10
26.1736669333
 20
96.6936030454
 30
0.0
 10
26.1766525466
 20
96.4077528646
 30
0.0
 10
26.1796220847
 20
95.9690279406
 30
0.0
 10
26.1809057453
 20
95.3542535295
 30
0.0
 10
26.1790113417
 20
94.5445448457
 30
0.0
 10
26.1756356326
 20
93.9729223594
 30
0.0
 10
26.1734292926
 20
93.6727513534
 30
0.0
  0
SPLINE
  5
297
100
AcDbEntity
  8
0
100
AcDbSpline
 62
7
  6
BYLAYER
 70
0
 71
3
 72
28
 73
24
 74
0
 42
0.0000001
 43
0.0000001
 44
0.0000000001
 40
0.0
 40
0.0
 40
0.0
 40
0.0
 40
0.196487879
 40
0.2920554851
 40
0.3846498345
 40
0.4734138739
 40
0.5575103448
 40
0.6361576386
 40
0.7086250867
 40
0.7742334604
 40
0.8323757332
 40
0.8825090482
 40
0.9044220403
 40
0.924163865
 40
0.9416931307
 40
0.9569689661
 40
0.9699544357
 40
0.9806178217
 40
0.9889294981
 40
0.9948787262
 40
0.998501603
 40
0.9994788623
 40
1.0
 40
1.0
 40
1.0
 40
1.0
 10
26.3169009219
 20
90.0408889423
 30
0.0
 10
26.3374869279
 20
91.2532805333
 30
0.0
 10
26.3651757091
 20
93.0554058368
 30
0.0
 10
26.3952867284
 20
95.4289675519
 30
0.0
 10
26.4137892428
 20
97.1378346959
 30
0.0
 10
26.4282567066
 20
98.7759474906
 30
0.0
 10
26.4385488151
 20
100.3280201736
 30
0.0
 10
26.4445822955
 20
101.7795451975
 30
0.0
 10
26.4463147565
 20
103.1169882464
 30
0.0
 10
26.4437476115
 20
104.3278900014
 30
0.0
 10
26.4369282289
 20
105.4009448746
 30
0.0
 10
26.4274508807
 20
106.2043153971
 30
0.0
 10
26.4173789829
 20
106.7706710638
 30
0.0
 10
26.4091575298
 20
107.1358158889
 30
0.0
 10
26.3999614774
 20
107.4599692653
 30
0.0
 10
26.3898354341
 20
107.7423624584
 30
0.0
 10
26.3787946345
 20
107.9823602872
 30
0.0
 10
26.3670077214
 20
108.1791564222
 30
0.0
 10
26.3543484314
 20
108.3327141493
 30
0.0
 10
26.3416545724
 20
108.4418108916
 30
0.0
 10
26.328882806
 20
108.5067894831
 30
0.0
 10
26.3184051799
 20
108.5357185325
 30
0.0
 10
26.3108720131
 20
108.5434619224
 30
0.0
 10
26.3076562574
 20
108.5435051453
 30
0.0
  0
SPLINE
  5
298
100
AcDbEntity
  8
0
100
AcDbSpline
 62
7
  6
BYLAYER
 70
0
 71
3
 72
16
 73
12
 74
0
 42
0.0000001
 43
0.0000001
 44
0.0000000001
 40
0.0
 40
0.0
 40
0.0
 40
0.0
 40
0.0074387554
 40
0.020732206
 40
0.0691635762
 40
0.1480385139
 40
0.2576129337
 40
0.3978287426
 40
0.5685338395
 40
0.7694024691
 40
1.0
 40
1.0
 40
1.0
 40
1.0
 10
79.9403933789
 20
108.8260743206
 30
0.0
 10
79.9380150777
 20
108.8260696245
 30
0.0
 10
79.9323064862
 20
108.8210011741
 30
0.0
 10
79.9239803439
 20
108.800922719
 30
0.0
 10
79.9140750811
 20
108.7564216462
 30
0.0
 10
79.9040046505
 20
108.6816316105
 30
0.0
 10
79.8941161437
 20
108.5768691535
 30
0.0
 10
79.8848895178
 20
108.4427881401
 30
0.0
 10
79.8763127976
 20
108.279361665
 30
0.0
 10
79.8683669604
 20
108.087004324
 30
0.0
 10
79.8637164181
 20
107.9491324511
 30
0.0
 10
79.8614155781
 20
107.8754421236
 30
0.0
  0
SPLINE
  5
299
100
AcDbEntity
  8
0
100
AcDbSpline
 62
7
  6
BYLAYER
 70
0
 71
3
 72
20
 73
16
 74
0
 42
0.0000001
 43
0.0000001
 44
0.0000000001
 40
0.0
 40
0.0
 40
0.0
 40
0.0
 40
0.0023893133
 40
0.0069480685
 40
0.0228873686
 40
0.0479246419
 40
0.0819163111
 40
0.1245260476
 40
0.1753421353
 40
0.2339393855
 40
0.2997548934
 40
0.4503893913
 40
0.621676682
 40
0.8073924057
 40
1.0
 40
1.0
 40
1.0
 40
1.0
 10
26.3169011013
 20
90.0408887586
 30
0.0
 10
26.317354897
 20
90.0415438205
 30
0.0
 10
26.3197018919
 20
90.0424399369
 30
0.0
 10
26.3269257795
 20
90.044249424
 30
0.0
 10
26.3422371414
 20
90.045958595
 30
0.0
 10
26.3670494681
 20
90.0479138828
 30
0.0
 10
26.4009596094
 20
90.0495958322
 30
0.0
 10
26.443411102
 20
90.0511076558
 30
0.0
 10
26.4941062606
 20
90.0523637479
 30
0.0
 10
26.5525388255
 20
90.0533632606
 30
0.0
 10
26.6442692836
 20
90.054374755
 30
0.0
 10
26.7735891373
 20
90.0548299547
 30
0.0
 10
26.9428982737
 20
90.0542384184
 30
0.0
 10
27.1261991459
 20
90.0525299012
 30
0.0
 10
27.252366256
 20
90.0507044607
 30
0.0
 10
27.3165961252
 20
90.0496132964
 30
0.0
  0
SPLINE
  5
29A
100
AcDbEntity
  8
0
100
AcDbSpline
 62
7
  6
BYLAYER
 70
0
 71
3
 72
11
 73
7
 74
0
 42
0.0000001
 43
0.0000001
 44
0.0000000001
 40
0.0
 40
0.0
 40
0.0
 40
0.0
 40
0.2505303749
 40
0.5000002049
 40
0.7494696918
 40
1.0
 40
1.0
 40
1.0
 40
1.0
 10
92.3453901743
 20
102.8562013492
 30
0.0
 10
92.5269738789
 20
102.1480249015
 30
0.0
 10
92.8184976964
 20
100.7145551607
 30
0.0
 10
92.9746247635
 20
98.5260735953
 30
0.0
 10
92.8184890784
 20
96.3375937489
 30
0.0
 10
92.5269738305
 20
94.9041235704
 30
0.0
 10
92.3453901743
 20
94.1959473113
 30
0.0
  0
SPLINE
  5
29B
100
AcDbEntity
  8
0
100
AcDbSpline
 62
7
  6
BYLAYER
 70
0
 71
3
 72
11
 73
7
 74
0
 42
0.0000001
 43
0.0000001
 44
0.0000000001
 40
0.0
 40
0.0
 40
0.0
 40
0.0
 40
0.2449496125
 40
0.4939823219
 40
0.746332432
 40
1.0
 40
1.0
 40
1.0
 40
1.0
 10
79.8614175807
 20
107.8763911818
 30
0.0
 10
79.8435126669
 20
107.9885505033
 30
0.0
 10
79.7638973442
 20
108.2097160706
 30
0.0
 10
79.5360345436
 20
108.4791861954
 30
0.0
 10
79.2273040526
 20
108.6579743523
 30
0.0
 10
78.9913496769
 20
108.7019508607
 30
0.0
 10
78.8737382692
 20
108.7035197028
 30
0.0
  0
SPLINE
  5
29C
100
AcDbEntity
  8
0
100
AcDbSpline
 62
7
  6
BYLAYER
 70
0
 71
3
 72
11
 73
7
 74
0
 42
0.0000001
 43
0.0000001
 44
0.0000000001
 40
0.0
 40
0.0
 40
0.0
 40
0.0
 40
0.1651885494
 40
0.3904383757
 40
0.6707778197
 40
1.0
 40
1.0
 40
1.0
 40
1.0
 10
78.8617214603
 20
108.6176955637
 30
0.0
 10
78.8488752319
 20
108.252325728
 30
0.0
 10
78.8308656856
 20
107.3883343747
 30
0.0
 10
78.8154311315
 20
105.9038500199
 30
0.0
 10
78.8094904801
 20
104.0562354953
 30
0.0
 10
78.8117153395
 20
102.7071519663
 30
0.0
 10
78.8142234448
 20
101.9785211517
 30
0.0
  0
SPLINE
  5
29D
100
AcDbEntity
  8
0
100
AcDbSpline
 62
7
  6
BYLAYER
 70
0
 71
3
 72
11
 73
7
 74
0
 42
0.0000001
 43
0.0000001
 44
0.0000000001
 40
0.0
 40
0.0
 40
0.0
 40
0.0
 40
0.2505303749
 40
0.5000002049
 40
0.7494696918
 40
1.0
 40
1.0
 40
1.0
 40
1.0
 10
92.3453901743
 20
90.8562013492
 30
0.0
 10
92.5269738789
 20
90.1480249015
 30
0.0
 10
92.8184976964
 20
88.7145551607
 30
0.0
 10
92.9746247635
 20
86.5260735953
 30
0.0
 10
92.8184890784
 20
84.3375937489
 30
0.0
 10
92.5269738305
 20
82.9041235704
 30
0.0
 10
92.3453901743
 20
82.1959473113
 30
0.0
  0
SPLINE
  5
29E
100
AcDbEntity
  8
0
100
AcDbSpline
 62
7
  6
BYLAYER
 70
0
 71
3
 72
11
 73
7
 74
0
 42
0.0000001
 43
0.0000001
 44
0.0000000001
 40
0.0
 40
0.0
 40
0.0
 40
0.0
 40
0.2406168321
 40
0.4979904118
 40
0.7560296017
 40
1.0
 40
1.0
 40
1.0
 40
1.0
 10
78.8617200226
 20
108.6176559516
 30
0.0
 10
78.9680968501
 20
108.6172933452
 30
0.0
 10
79.1895809194
 20
108.5826858575
 30
0.0
 10
79.4921833304
 20
108.4266074683
 30
0.0
 10
79.726167581
 20
108.1765253388
 30
0.0
 10
79.8150230059
 20
107.9673540413
 30
0.0
 10
79.838861122
 20
107.8621611785
 30
0.0
  0
SPLINE
  5
29F
100
AcDbEntity
  8
0
100
AcDbSpline
 62
7
  6
BYLAYER
 70
0
 71
3
 72
20
 73
16
 74
0
 42
0.0000001
 43
0.0000001
 44
0.0000000001
 40
0.0
 40
0.0
 40
0.0
 40
0.0
 40
0.1926198609
 40
0.3783465854
 40
0.5496262523
 40
0.7002520645
 40
0.7660641215
 40
0.8246578379
 40
0.8754737243
 40
0.9180845533
 40
0.9520752858
 40
0.9771127917
 40
0.9930532726
 40
0.9976118335
 40
1.0
 40
1.0
 40
1.0
 40
1.0
 10
78.9372470486
 20
90.0496132964
 30
0.0
 10
79.0014810793
 20
90.050704605
 30
0.0
 10
79.1276560908
 20
90.052530147
 30
0.0
 10
79.3109623829
 20
90.0542390583
 30
0.0
 10
79.4802699404
 20
90.0548305654
 30
0.0
 10
79.6095833466
 20
90.0543754483
 30
0.0
 10
79.7013086863
 20
90.0533641362
 30
0.0
 10
79.7597389125
 20
90.0523646412
 30
0.0
 10
79.8104332726
 20
90.0511086874
 30
0.0
 10
79.8528847373
 20
90.0495970482
 30
0.0
 10
79.8867952125
 20
90.047914768
 30
0.0
 10
79.9116072642
 20
90.0459590182
 30
0.0
 10
79.9269198251
 20
90.0442497653
 30
0.0
 10
79.9341428103
 20
90.0424402038
 30
0.0
 10
79.93649004
 20
90.0415440353
 30
0.0
 10
79.9369428486
 20
90.0408887544
 30
0.0
  0
SPLINE
  5
2A0
100
AcDbEntity
  8
0
100
AcDbSpline
 62
7
  6
BYLAYER
 70
0
 71
3
 72
26
 73
22
 74
0
 42
0.0000001
 43
0.0000001
 44
0.0000000001
 40
0.0
 40
0.0
 40
0.0
 40
0.0
 40
0.1949916859
 40
0.3824798518
 40
0.4711369098
 40
0.5552699597
 40
0.6340555329
 40
0.7067395211
 40
0.772608961
 40
0.8310422168
 40
0.8814669306
 40
0.9234118804
 40
0.9410689934
 40
0.956462036
 40
0.9695573506
 40
0.980322218
 40
0.9887298684
 40
0.9947738792
 40
0.9984681008
 40
0.9994657559
 40
1.0
 40
1.0
 40
1.0
 40
1.0
 10
25.8041429548
 20
89.5260736797
 30
0.0
 10
25.8122949476
 20
90.0458910182
 30
0.0
 10
25.8268462816
 20
91.0655460057
 30
0.0
 10
25.8409171704
 20
92.3216002091
 30
0.0
 10
25.8504246745
 20
93.2821168357
 30
0.0
 10
25.8563304168
 20
93.9528349064
 30
0.0
 10
25.8609685257
 20
94.5809750077
 30
0.0
 10
25.8640261445
 20
95.1604306268
 30
0.0
 10
25.8652044644
 20
95.6856305147
 30
0.0
 10
25.8646374971
 20
96.1514844457
 30
0.0
 10
25.8624461571
 20
96.5535465512
 30
0.0
 10
25.8591198921
 20
96.8468801695
 30
0.0
 10
25.8553571414
 20
97.0467975701
 30
0.0
 10
25.8522221865
 20
97.1697859049
 30
0.0
 10
25.8485605213
 20
97.2743937367
 30
0.0
 10
25.84439082
 20
97.3602891054
 30
0.0
 10
25.8395821419
 20
97.4274592181
 30
0.0
 10
25.8345394125
 20
97.4753542894
 30
0.0
 10
25.8291782839
 20
97.5039543551
 30
0.0
 10
25.8246737476
 20
97.5167698633
 30
0.0
 10
25.8213038051
 20
97.5201679593
 30
0.0
 10
25.8198794189
 20
97.5201687349
 30
0.0
  0
SPLINE
  5
2A1
100
AcDbEntity
  8
0
100
AcDbSpline
 62
7
  6
BYLAYER
 70
0
 71
3
 72
10
 73
6
 74
0
 42
0.0000001
 43
0.0000001
 44
0.0000000001
 40
0.0
 40
0.0
 40
0.0
 40
0.0
 40
0.2072771825
 40
0.4505904941
 40
1.0
 40
1.0
 40
1.0
 40
1.0
 10
25.6617728745
 20
83.4938992573
 30
0.0
 10
25.677606947
 20
83.910498605
 30
0.0
 10
25.7065499555
 20
84.8163308721
 30
0.0
 10
25.7585631714
 20
86.8269795933
 30
0.0
 10
25.7877573148
 20
88.4211583978
 30
0.0
 10
25.8041416811
 20
89.5260736797
 30
0.0
  0
SPLINE
  5
2A2
100
AcDbEntity
  8
0
100
AcDbSpline
 62
7
  6
BYLAYER
 70
0
 71
3
 72
19
 73
15
 74
0
 42
0.0000001
 43
0.0000001
 44
0.0000000001
 40
0.0
 40
0.0
 40
0.0
 40
0.0
 40
0.0055922059
 40
0.0182726162
 40
0.038797785
 40
0.0672794408
 40
0.1037242806
 40
0.1480660716
 40
0.2002162684
 40
0.2600816671
 40
0.4025134762
 40
0.57427926
 40
0.7740754021
 40
1.0
 40
1.0
 40
1.0
 40
1.0
 10
25.5309679278
 20
81.5319843926
 30
0.0
 10
25.5346377972
 20
81.5318075058
 30
0.0
 10
25.542370031
 20
81.5450017269
 30
0.0
 10
25.5481310214
 20
81.5674359476
 30
0.0
 10
25.556439823
 20
81.6084099086
 30
0.0
 10
25.563992166
 20
81.663514995
 30
0.0
 10
25.572159461
 20
81.7350505042
 30
0.0
 10
25.5802762655
 20
81.8219438059
 30
0.0
 10
25.5885230965
 20
81.9243672735
 30
0.0
 10
25.6002255622
 20
82.0911232046
 30
0.0
 10
25.6144498321
 20
82.3364880495
 30
0.0
 10
25.6306707175
 20
82.6737971911
 30
0.0
 10
25.6467147484
 20
83.0660267312
 30
0.0
 10
25.6567268819
 20
83.3455505456
 30
0.0
 10
25.6617728745
 20
83.4938992573
 30
0.0
  0
SPLINE
  5
2A3
100
AcDbEntity
  8
0
100
AcDbSpline
 62
7
  6
BYLAYER
 70
0
 71
3
 72
29
 73
25
 74
0
 42
0.0000001
 43
0.0000001
 44
0.0000000001
 40
0.0
 40
0.0
 40
0.0
 40
0.0
 40
0.0005271103
 40
0.0015336309
 40
0.0031051989
 40
0.0052600252
 40
0.0113381123
 40
0.0197804503
 40
0.0305720786
 40
0.0436891212
 40
0.0591054679
 40
0.0767846716
 40
0.0966822477
 40
0.1187531056
 40
0.1691979675
 40
0.2276339423
 40
0.2934991824
 40
0.3661639491
 40
0.4449255896
 40
0.5290291764
 40
0.6176679799
 40
0.7099796914
 40
0.8050824748
 40
1.0
 40
1.0
 40
1.0
 40
1.0
 10
80.5095341922
 20
76.2260311476
 30
0.0
 10
80.5066669082
 20
76.2260311344
 30
0.0
 10
80.4999097869
 20
76.2331194383
 30
0.0
 10
80.4940693573
 20
76.2483152666
 30
0.0
 10
80.4866400334
 20
76.2733269854
 30
0.0
 10
80.4758143653
 20
76.3253979933
 30
0.0
 10
80.4623656626
 20
76.4152779177
 30
0.0
 10
80.4467627338
 20
76.5520253025
 30
0.0
 10
80.4304149696
 20
76.7272760344
 30
0.0
 10
80.4134780824
 20
76.940513081
 30
0.0
 10
80.3960242814
 20
77.1912918802
 30
0.0
 10
80.3781187406
 20
77.4789990409
 30
0.0
 10
80.3598117743
 20
77.802944878
 30
0.0
 10
80.3337691831
 20
78.3049650772
 30
0.0
 10
80.3010297263
 20
79.01654661
 30
0.0
 10
80.2624118002
 20
79.9663184069
 30
0.0
 10
80.2233408464
 20
81.0370301028
 30
0.0
 10
80.184213295
 20
82.2183698507
 30
0.0
 10
80.1454208433
 20
83.4989794922
 30
0.0
 10
80.1073485597
 20
84.8665392497
 30
0.0
 10
80.0703731103
 20
86.3078618188
 30
0.0
 10
80.0348491179
 20
87.8090698405
 30
0.0
 10
79.9895198601
 20
89.8883206093
 30
0.0
 10
79.9593288052
 20
91.465638523
 30
0.0
 10
79.9408215769
 20
92.5257558436
 30
0.0
  0
SPLINE
  5
2A4
100
AcDbEntity
  8
0
100
AcDbSpline
 62
7
  6
BYLAYER
 70
0
 71
3
 72
18
 73
14
 74
0
 42
0.0000001
 43
0.0000001
 44
0.0000000001
 40
0.0
 40
0.0
 40
0.0
 40
0.0
 40
0.1803671879
 40
0.3656089783
 40
0.5448572333
 40
0.70549917
 40
0.835828194
 40
0.8875610787
 40
0.9295070681
 40
0.9612459214
 40
0.983173812
 40
0.9958911768
 40
1.0
 40
1.0
 40
1.0
 40
1.0
 10
79.3132604212
 20
67.9327674046
 30
0.0
 10
79.3119170328
 20
67.914308472
 30
0.0
 10
79.3092002785
 20
67.8768909778
 30
0.0
 10
79.3051734244
 20
67.8211289046
 30
0.0
 10
79.3013099999
 20
67.7673783249
 30
0.0
 10
79.2978936812
 20
67.7192640963
 30
0.0
 10
79.2953842782
 20
67.684152948
 30
0.0
 10
79.2938430356
 20
67.6612737941
 30
0.0
 10
79.2928474974
 20
67.6483287188
 30
0.0
 10
79.2924686777
 20
67.6388044962
 30
0.0
 10
79.2914150199
 20
67.6314338908
 30
0.0
 10
79.292200344
 20
67.6284310697
 30
0.0
 10
79.2910792104
 20
67.625735157
 30
0.0
 10
79.2914997124
 20
67.625704575
 30
0.0
  0
SPLINE
  5
2A5
100
AcDbEntity
  8
0
100
AcDbSpline
 62
7
  6
BYLAYER
 70
0
 71
3
 72
18
 73
14
 74
0
 42
0.0000001
 43
0.0000001
 44
0.0000000001
 40
0.0
 40
0.0
 40
0.0
 40
0.0
 40
0.1925297866
 40
0.3782484367
 40
0.5495687103
 40
0.7003363551
 40
0.8249417827
 40
0.8758509372
 40
0.9185388032
 40
0.952578811
 40
0.9776140687
 40
0.9934648447
 40
1.0
 40
1.0
 40
1.0
 40
1.0
 10
79.3132604212
 20
67.9327674046
 30
0.0
 10
79.3774929965
 20
67.9297144786
 30
0.0
 10
79.5036922155
 20
67.9238511152
 30
0.0
 10
79.6870493458
 20
67.9153087028
 30
0.0
 10
79.856461661
 20
67.9071436337
 30
0.0
 10
80.0054712417
 20
67.8997585847
 30
0.0
 10
80.1143064931
 20
67.8939989917
 30
0.0
 10
80.1870408499
 20
67.8896001109
 30
0.0
 10
80.2296141368
 20
67.8868978259
 30
0.0
 10
80.2634303004
 20
67.8842901903
 30
0.0
 10
80.2885785912
 20
67.8826988842
 30
0.0
 10
80.3039571184
 20
67.8803461532
 30
0.0
 10
80.3118251207
 20
67.8802868867
 30
0.0
 10
80.3137185876
 20
67.8792009928
 30
0.0
  0
ENDSEC
  0
SECTION
  2
OBJECTS
  0
DICTIONARY
  5
C
100
AcDbDictionary
280
0
281
1
  3
ACAD_GROUP
350
D
  3
ACAD_MLINESTYLE
350
17
  3
ACAD_LAYOUT
350
1A
  3
ACAD_PLOTSETTINGS
350
19
  3
ACAD_PLOTSTYLENAME
350
E
  0
DICTIONARY
  5
D
102
{ACAD_REACTORS
330
C
102
}
100
AcDbDictionary
280
0
281
1
  0
ACDBDICTIONARYWDFLT
  5
E
102
{ACAD_REACTORS
330
C
102
}
100
AcDbDictionary
281
1
  3
Normal
350
F
100
AcDbDictionaryWithDefault
340
F
  0
DICTIONARY
  5
17
102
{ACAD_REACTORS
330
C
102
}
100
AcDbDictionary
280
0
281
1
  3
Standard
350
18
  0
DICTIONARY
  5
19
102
{ACAD_REACTORS
330
C
102
}
100
AcDbDictionary
281
1
  0
DICTIONARY
  5
1A
102
{ACAD_REACTORS
330
C
102
}
100
AcDbDictionary
281
1
  3
Model
350
2A6
  3
Layout1
350
2A7
  0
ACDBPLACEHOLDER
  5
F
102
{ACAD_REACTORS
330
E
102
}
  0
MLINESTYLE
  5
18
102
{ACAD_REACTORS
330
17
102
}
100
AcDbMlineStyle
  2
STANDARD
 70
0
  3

 62
256
 51
90.0
 52
90.0
 71
2
 49
0.5
 62
256
  6
BYLAYER
 49
-0.5
 62
256
  6
BYLAYER
  0
LAYOUT
  5
2A6
102
{ACAD_REACTORS
330
1A
102
}
100
AcDbPlotSettings
  1

  2
none_device
  4

  6

 40
0.0
 41
0.0
 42
0.0
 43
0.0
 44
210.0
 45
297.0
 46
0.0
 47
0.0
 48
0.0
 49
0.0
140
0.0
141
0.0
142
1.0
143
1.0
 70
1024
 72
1
 73
0
 74
0
  7

 75
0
147
1.0
148
0.0
149
0.0
100
AcDbLayout
  1
Model
 70
0
 71
0
 10
0.0
 20
0.0
 11
210.0
 21
297.0
 12
0.0
 22
0.0
 32
0.0
 14
0.0
 24
0.0
 34
0.0
 15
0.0
 25
0.0
 35
0.0
146
0.0
 13
0.0
 23
0.0
 33
0.0
 16
1.0
 26
0.0
 36
0.0
 17
0.0
 27
1.0
 37
0.0
 76
0
330
210
345
0
346
0
  0
LAYOUT
  5
2A7
102
{ACAD_REACTORS
330
1A
102
}
100
AcDbPlotSettings
  1

  2
none_device
  4

  6

 40
0.0
 41
0.0
 42
0.0
 43
0.0
 44
210.0
 45
297.0
 46
0.0
 47
0.0
 48
0.0
 49
0.0
140
0.0
141
0.0
142
1.0
143
1.0
 70
0
 72
1
 73
0
 74
0
  7

 75
0
147
1.0
148
0.0
149
0.0
100
AcDbLayout
  1
Layout1
 70
0
 71
1
 10
0.0
 20
0.0
 11
210.0
 21
297.0
 12
0.0
 22
0.0
 32
0.0
 14
0.0
 24
0.0
 34
0.0
 15
0.0
 25
0.0
 35
0.0
146
0.0
 13
0.0
 23
0.0
 33
0.0
 16
1.0
 26
0.0
 36
0.0
 17
0.0
 27
1.0
 37
0.0
 76
0
330
211
345
0
346
0
  0
ENDSEC
  0
EOF
