999
DXF file: C:\Users\sesa63760\Dev\_Creo\CAD\MCADID0004586_3D-CAD\drw0001_2.dxf
999
Pro/ENGINEER 2019471 by Parametric Technology Corporation
  0
SECTION
  2
HEADER
  9
$ACADVER
  1
AC1024
  9
$DWGCODEPAGE
  3
ANSI_1252
  9
$EXTMAX
 10
356.8003565062
 20
504.6176470588
 30
0.0
  9
$EXTMIN
 10
0.0
 20
0.0
 30
0.0
  9
$LIMMIN
 10
0.0
 20
0.0
  9
$LIMMAX
 10
356.8003565062
 20
504.6176470588
  9
$VIEWCTR
 10
178.4001782531
 20
252.3088235294
  9
$VIEWSIZE
 40
504.6176470588
  9
$CLAYER
  8
0
  9
$LTSCALE
 40
32.8935947712
  9
$CELTYPE
  6
BYLAYER
  9
$DIMSCALE
 40
1.0
  9
$DIMASZ
 40
4.2476232917
  9
$DIMEXO
 40
1.0
  9
$DIMDLI
 40
22.7264836601
  9
$DIMEXE
 40
1.0
  9
$DIMCEN
 40
5.3825882353
  9
$DIMLFAC
 40
1.0
  9
$DIMBLK
  1
_FILLED
  9
$DIMALT
 70
0
  9
$DIMALTF
 40
0.0393700787
  9
$DIMTXT
 40
5.9466726084
  9
$DIMTOL
 70
1
  9
$DIMLIM
 70
0
  9
$DIMTFAC
 40
1.0
  9
$DIMTP
 40
0.01
  9
$DIMTM
 40
0.01
  9
$DIMGAP
 40
0.625
  9
$DIMDSEP
 70
46
  9
$AUNITS
 70
0
  9
$PDMODE
 70
3
  9
$PDSIZE
 40
0.3125
  9
$HANDSEED
  5
30B
  9
$TILEMODE
 70
1
  9
$MEASUREMENT
 70
1
  9
$INSUNITS
 70
4
  0
ENDSEC
  0
SECTION
  2
CLASSES
  0
CLASS
  1
ACDBDICTIONARYWDFLT
  2
AcDbDictionaryWithDefault
  3
AutoCAD 2000
 90
0
 91
1
280
0
281
0
  0
CLASS
  1
ACDBPLACEHOLDER
  2
AcDbPlaceHolder
  3
AutoCAD 2000
 90
0
 91
1
280
0
281
0
  0
CLASS
  1
LAYOUT
  2
AcDbLayout
  3
AutoCAD 2000
 90
0
 91
0
280
0
281
0
  0
ENDSEC
  0
SECTION
  2
TABLES
  0
TABLE
  2
VPORT
  5
8
100
AcDbSymbolTable
 70
2
  0
VPORT
  5
1F4
100
AcDbSymbolTableRecord
100
AcDbViewportTableRecord
  2
*ACTIVE
 70
0
 10
0.0
 20
0.0
 11
1.0
 21
1.0
 12
178.4001782531
 22
252.3088235294
 13
0.0
 23
0.0
 14
1.0
 24
1.0
 15
0.0
 25
0.0
 16
0.0
 26
0.0
 36
1.0
 17
0.0
 27
0.0
 37
0.0
 40
504.6176470588
 41
0.7070707071
 42
50.0
 43
0.0
 44
0.0
 50
0.0
 51
0.0
 71
0
 72
100
 73
1
 74
1
 75
0
 76
0
 77
0
 78
0
  0
ENDTAB
  0
TABLE
  2
LTYPE
  5
5
100
AcDbSymbolTable
 70
6
  0
LTYPE
  5
14
100
AcDbSymbolTableRecord
100
AcDbLinetypeTableRecord
  2
BYBLOCK
 70
0
  3

 72
65
 73
0
 40
0.0
  0
LTYPE
  5
15
100
AcDbSymbolTableRecord
100
AcDbLinetypeTableRecord
  2
BYLAYER
 70
0
  3

 72
65
 73
0
 40
0.0
  0
LTYPE
  5
16
100
AcDbSymbolTableRecord
100
AcDbLinetypeTableRecord
  2
CONTINUOUS
 70
64
  3
Solid line
 72
65
 73
0
 40
0.0
  0
LTYPE
  5
1F5
100
AcDbSymbolTableRecord
100
AcDbLinetypeTableRecord
  2
CENTER
 70
64
  3
____ _ ____ _ ____ _ ____ _ ____ _ ____ _ ____
 72
65
 73
4
 40
0.6
 49
0.375
 74
0
 49
-0.075
 74
0
 49
0.075
 74
0
 49
-0.075
 74
0
  0
LTYPE
  5
1F6
100
AcDbSymbolTableRecord
100
AcDbLinetypeTableRecord
  2
HIDDEN
 70
64
  3
- - - - - - - - - - - - - - - - - - - -
 72
65
 73
2
 40
0.2
 49
0.1
 74
0
 49
-0.1
 74
0
  0
LTYPE
  5
1F7
100
AcDbSymbolTableRecord
100
AcDbLinetypeTableRecord
  2
PHANTOM
 70
64
  3
_____ _ _ _____ _ _ _____ _ _ _____
 72
65
 73
6
 40
0.8
 49
0.45
 74
0
 49
-0.05
 74
0
 49
0.1
 74
0
 49
-0.05
 74
0
 49
0.1
 74
0
 49
-0.05
 74
0
  0
LTYPE
  5
1F8
100
AcDbSymbolTableRecord
100
AcDbLinetypeTableRecord
  2
DOT
 70
64
  3
. . . . . . . . . . . . . . . . . . . .
 72
65
 73
2
 40
0.2
 49
0.1
 74
0
 49
-0.1
 74
0
  0
LTYPE
  5
1F9
100
AcDbSymbolTableRecord
100
AcDbLinetypeTableRecord
  2
DASHED
 70
64
  3
- - - - - - - - - - - - - - - - - - - -
 72
65
 73
2
 40
0.2
 49
0.1
 74
0
 49
-0.1
 74
0
  0
ENDTAB
  0
TABLE
  2
LAYER
  5
2
100
AcDbSymbolTable
 70
36
  0
LAYER
  5
10
100
AcDbSymbolTableRecord
100
AcDbLayerTableRecord
  2
0
 70
0
 62
7
  6
CONTINUOUS
370
-3
390
F
  0
LAYER
  5
1FA
100
AcDbSymbolTableRecord
100
AcDbLayerTableRecord
  2
DEFAULT_1
 70
0
 62
7
  6
CENTER
370
-3
390
F
  0
LAYER
  5
1FB
100
AcDbSymbolTableRecord
100
AcDbLayerTableRecord
  2
DEFAULT_2
 70
0
 62
7
  6
HIDDEN
370
-3
390
F
  0
LAYER
  5
1FC
100
AcDbSymbolTableRecord
100
AcDbLayerTableRecord
  2
DEFAULT_3
 70
0
 62
7
  6
PHANTOM
370
-3
390
F
  0
LAYER
  5
1FD
100
AcDbSymbolTableRecord
100
AcDbLayerTableRecord
  2
00_COMPONENTS
 70
0
 62
7
  6
CONTINUOUS
370
-3
390
F
  0
LAYER
  5
1FE
100
AcDbSymbolTableRecord
100
AcDbLayerTableRecord
  2
01_1_DEFAULT_DATUMS
 70
0
 62
7
  6
CONTINUOUS
370
-3
390
F
  0
LAYER
  5
1FF
100
AcDbSymbolTableRecord
100
AcDbLayerTableRecord
  2
01_PLANES
 70
0
 62
7
  6
CONTINUOUS
370
-3
390
F
  0
LAYER
  5
200
100
AcDbSymbolTableRecord
100
AcDbLayerTableRecord
  2
02_COORD_SYS
 70
0
 62
7
  6
CONTINUOUS
370
-3
390
F
  0
LAYER
  5
201
100
AcDbSymbolTableRecord
100
AcDbLayerTableRecord
  2
03_AXES
 70
0
 62
7
  6
CONTINUOUS
370
-3
390
F
  0
LAYER
  5
202
100
AcDbSymbolTableRecord
100
AcDbLayerTableRecord
  2
04_POINTS
 70
0
 62
7
  6
CONTINUOUS
370
-3
390
F
  0
LAYER
  5
203
100
AcDbSymbolTableRecord
100
AcDbLayerTableRecord
  2
05_CURVES
 70
0
 62
7
  6
CONTINUOUS
370
-3
390
F
  0
LAYER
  5
204
100
AcDbSymbolTableRecord
100
AcDbLayerTableRecord
  2
06_SURFS
 70
0
 62
7
  6
CONTINUOUS
370
-3
390
F
  0
LAYER
  5
205
100
AcDbSymbolTableRecord
100
AcDbLayerTableRecord
  2
07_COSMETICS
 70
0
 62
7
  6
CONTINUOUS
370
-3
390
F
  0
LAYER
  5
206
100
AcDbSymbolTableRecord
100
AcDbLayerTableRecord
  2
10_NOTES
 70
0
 62
7
  6
CONTINUOUS
370
-3
390
F
  0
LAYER
  5
207
100
AcDbSymbolTableRecord
100
AcDbLayerTableRecord
  2
11_NOTES_PUB
 70
0
 62
7
  6
CONTINUOUS
370
-3
390
F
  0
LAYER
  5
208
100
AcDbSymbolTableRecord
100
AcDbLayerTableRecord
  2
13_REF_GTOL
 70
0
 62
7
  6
CONTINUOUS
370
-3
390
F
  0
LAYER
  5
209
100
AcDbSymbolTableRecord
100
AcDbLayerTableRecord
  2
16_MISC
 70
0
 62
7
  6
CONTINUOUS
370
-3
390
F
  0
LAYER
  5
20A
100
AcDbSymbolTableRecord
100
AcDbLayerTableRecord
  2
17_NO_PRINT
 70
0
 62
7
  6
CONTINUOUS
370
-3
390
F
  0
LAYER
  5
20B
100
AcDbSymbolTableRecord
100
AcDbLayerTableRecord
  2
18_DATUM_CAMS_JOINTS
 70
0
 62
7
  6
CONTINUOUS
370
-3
390
F
  0
LAYER
  5
20C
100
AcDbSymbolTableRecord
100
AcDbLayerTableRecord
  2
19_DATUM_FUNCTIONAL
 70
0
 62
7
  6
CONTINUOUS
370
-3
390
F
  0
LAYER
  5
20D
100
AcDbSymbolTableRecord
100
AcDbLayerTableRecord
  2
20_DATUM_KINEMATIC_SCHEME
 70
0
 62
7
  6
CONTINUOUS
370
-3
390
F
  0
ENDTAB
  0
TABLE
  2
STYLE
  5
3
100
AcDbSymbolTable
 70
1
  0
STYLE
  5
11
100
AcDbSymbolTableRecord
100
AcDbTextStyleTableRecord
  2
STANDARD
 70
0
 40
0.0
 41
1.0
 50
0.0
 71
0
 42
0.2
  3
ARIAL.TTF
  4

  0
STYLE
  5
20E
100
AcDbSymbolTableRecord
100
AcDbTextStyleTableRecord
  2
TEXTSTYLE_1
 70
0
 40
0.0
 41
0.8
 50
0.0
 71
0
 42
0.2
  3
gdt
  4

  0
ENDTAB
  0
TABLE
  2
VIEW
  5
6
100
AcDbSymbolTable
 70
0
  0
ENDTAB
  0
TABLE
  2
UCS
  5
7
100
AcDbSymbolTable
 70
0
  0
ENDTAB
  0
TABLE
  2
APPID
  5
9
100
AcDbSymbolTable
 70
1
  0
APPID
  5
20F
100
AcDbSymbolTableRecord
100
AcDbRegAppTableRecord
  2
ACAD
 70
0
  0
ENDTAB
  0
TABLE
  2
BLOCK_RECORD
  5
1
100
AcDbSymbolTable
 70
0
  0
BLOCK_RECORD
  5
210
100
AcDbSymbolTableRecord
100
AcDbBlockTableRecord
  2
*Model_Space
  0
BLOCK_RECORD
  5
211
100
AcDbSymbolTableRecord
100
AcDbBlockTableRecord
  2
*Paper_Space
  0
BLOCK_RECORD
  5
212
100
AcDbSymbolTableRecord
100
AcDbBlockTableRecord
  2
_FILLED
  0
ENDTAB
  0
TABLE
  2
DIMSTYLE
  5
A
100
AcDbSymbolTable
 70
1
100
AcDbDimStyleTable
 71
0
  0
DIMSTYLE
105
213
100
AcDbSymbolTableRecord
100
AcDbDimStyleTableRecord
  2
STANDARD
 70
0
  3

  4

 40
1.0
 41
4.2476232917
 42
1.0
 43
0.38
 44
1.0
 45
0.0
 46
0.0
 47
0.01
 48
0.01
140
5.9466726084
141
0.09
142
0.0
143
25.4
144
1.0
145
0.0
146
1.0
147
0.625
 71
1
 72
0
 73
0
 74
0
 75
0
 76
0
 77
1
 78
8
 79
2
170
0
171
1
172
0
173
0
174
0
175
0
176
0
177
0
178
0
270
2
179
2
271
2
272
2
273
2
274
2
275
0
280
0
281
0
282
0
283
1
284
8
285
0
286
0
287
3
288
0
340
11
278
46
341
212
342
212
343
212
344
212
  0
ENDTAB
  0
ENDSEC
  0
SECTION
  2
BLOCKS
  0
BLOCK
  5
20
100
AcDbEntity
  8
0
100
AcDbBlockBegin
  2
*Model_Space
 70
0
 10
0.0
 20
0.0
 30
0.0
  3
*Model_Space
  1

  0
ENDBLK
  5
21
100
AcDbEntity
  8
0
100
AcDbBlockEnd
  0
BLOCK
  5
1C
100
AcDbEntity
  8
0
100
AcDbBlockBegin
  2
*Paper_Space
 70
0
 10
0.0
 20
0.0
 30
0.0
  3
*Paper_Space
  1

  0
ENDBLK
  5
1D
100
AcDbEntity
  8
0
100
AcDbBlockEnd
  0
BLOCK
  5
214
100
AcDbEntity
  8
0
100
AcDbBlockBegin
  2
_FILLED
 70
64
 10
0.0
 20
0.0
  3
_FILLED
  1

  0
SOLID
  5
215
100
AcDbEntity
  8
0
  6
BYBLOCK
 62
0
100
AcDbTrace
 10
0.0
 20
0.0
 11
-1.0
 21
0.25
 12
-1.0
 22
-0.25
 13
-1.0
 23
-0.25
  0
ENDBLK
  5
216
100
AcDbEntity
  8
0
  6
BYBLOCK
 62
0
100
AcDbBlockEnd
  0
ENDSEC
  0
SECTION
  2
ENTITIES
  0
LINE
  5
217
100
AcDbEntity
  8
0
100
AcDbLine
 62
7
  6
BYLAYER
 10
65.7207664884
 20
230.3423529412
 11
65.7207664884
 21
233.976438874
  0
LINE
  5
218
100
AcDbEntity
  8
0
100
AcDbLine
 62
7
  6
BYLAYER
 10
65.7207664884
 20
239.8082664863
 11
65.7207664884
 21
243.4423529412
  0
LINE
  5
219
100
AcDbEntity
  8
0
100
AcDbLine
 62
7
  6
BYLAYER
 10
71.3207664884
 20
243.4423529412
 11
71.3207664884
 21
230.3427329845
  0
LINE
  5
21A
100
AcDbEntity
  8
0
100
AcDbLine
 62
7
  6
BYLAYER
 10
73.3207664884
 20
231.4396096976
 11
73.3207664884
 21
242.3450961848
  0
LINE
  5
21B
100
AcDbEntity
  8
0
100
AcDbLine
 62
7
  6
BYLAYER
 10
73.3207664884
 20
231.4388809697
 11
73.7542525912
 21
230.3923529412
  0
LINE
  5
21C
100
AcDbEntity
  8
0
100
AcDbLine
 62
7
  6
BYLAYER
 10
77.1707664884
 20
228.8923987867
 11
77.1707664884
 21
244.8923070957
  0
LINE
  5
21D
100
AcDbEntity
  8
0
100
AcDbLine
 62
7
  6
BYLAYER
 10
78.6707664884
 20
227.2580077289
 11
78.6707664884
 21
246.2580077289
  0
LINE
  5
21E
100
AcDbEntity
  8
0
100
AcDbLine
 62
7
  6
BYLAYER
 10
80.3652750807
 20
227.4182990822
 11
80.3652750807
 21
246.0977163756
  0
LINE
  5
21F
100
AcDbEntity
  8
0
100
AcDbLine
 62
7
  6
BYLAYER
 10
85.4717283827
 20
218.5736625166
 11
80.3652750807
 21
227.4182990822
  0
LINE
  5
220
100
AcDbEntity
  8
0
100
AcDbLine
 62
7
  6
BYLAYER
 10
77.1707664884
 20
242.3458249126
 11
76.7372803856
 21
243.3923529412
  0
LINE
  5
221
100
AcDbEntity
  8
0
100
AcDbLine
 62
7
  6
BYLAYER
 10
85.4717283827
 20
254.9423529412
 11
85.4717283827
 21
218.5736625166
  0
LINE
  5
222
100
AcDbEntity
  8
0
100
AcDbLine
 62
7
  6
BYLAYER
 10
87.9848632162
 20
218.4427714134
 11
87.9848632162
 21
255.0732440444
  0
LINE
  5
223
100
AcDbEntity
  8
0
100
AcDbLine
 62
7
  6
BYLAYER
 10
89.647007361
 20
252.782377716
 11
89.647007361
 21
220.7336377418
  0
LINE
  5
224
100
AcDbEntity
  8
0
100
AcDbLine
 62
7
  6
BYLAYER
 10
90.2945256158
 20
220.7336377418
 11
90.2945256158
 21
252.782377716
  0
LINE
  5
225
100
AcDbEntity
  8
0
100
AcDbLine
 62
7
  6
BYLAYER
 10
91.9566697607
 20
255.0732440444
 11
91.9566697607
 21
218.4427714134
  0
LINE
  5
226
100
AcDbEntity
  8
0
100
AcDbLine
 62
7
  6
BYLAYER
 10
94.3848632162
 20
218.4427714134
 11
94.3848632162
 21
255.0732440444
  0
LINE
  5
227
100
AcDbEntity
  8
0
100
AcDbLine
 62
7
  6
BYLAYER
 10
73.3207664884
 20
242.3458249126
 11
73.7542525912
 21
243.3923529412
  0
LINE
  5
228
100
AcDbEntity
  8
0
100
AcDbLine
 62
7
  6
BYLAYER
 10
77.1707664884
 20
231.4388809697
 11
76.7372803856
 21
230.3923529412
  0
LINE
  5
229
100
AcDbEntity
  8
0
100
AcDbLine
 62
7
  6
BYLAYER
 10
91.9566697607
 20
218.4427714134
 11
90.2945256158
 21
220.7336377418
  0
LINE
  5
22A
100
AcDbEntity
  8
0
100
AcDbLine
 62
7
  6
BYLAYER
 10
96.047007361
 20
252.782377716
 11
96.047007361
 21
220.7336377418
  0
LINE
  5
22B
100
AcDbEntity
  8
0
100
AcDbLine
 62
7
  6
BYLAYER
 10
96.6945256158
 20
220.7336377418
 11
96.6945256158
 21
252.782377716
  0
LINE
  5
22C
100
AcDbEntity
  8
0
100
AcDbLine
 62
7
  6
BYLAYER
 10
98.3566697607
 20
255.0732440444
 11
98.3566697607
 21
218.4427714134
  0
LINE
  5
22D
100
AcDbEntity
  8
0
100
AcDbLine
 62
7
  6
BYLAYER
 10
100.7848632162
 20
218.4427714134
 11
100.7848632162
 21
255.0732440444
  0
LINE
  5
22E
100
AcDbEntity
  8
0
100
AcDbLine
 62
7
  6
BYLAYER
 10
102.447007361
 20
252.782377716
 11
102.447007361
 21
220.7336377418
  0
LINE
  5
22F
100
AcDbEntity
  8
0
100
AcDbLine
 62
7
  6
BYLAYER
 10
103.0945256158
 20
220.7336377418
 11
103.0945256158
 21
252.782377716
  0
LINE
  5
230
100
AcDbEntity
  8
0
100
AcDbLine
 62
7
  6
BYLAYER
 10
85.4717283827
 20
254.9423529412
 11
80.3652750807
 21
246.0977163756
  0
LINE
  5
231
100
AcDbEntity
  8
0
100
AcDbLine
 62
7
  6
BYLAYER
 10
98.3566697607
 20
218.4427714134
 11
96.6945256158
 21
220.7336377418
  0
LINE
  5
232
100
AcDbEntity
  8
0
100
AcDbLine
 62
7
  6
BYLAYER
 10
104.7566697607
 20
218.4427714134
 11
103.0945256158
 21
220.7336377418
  0
LINE
  5
233
100
AcDbEntity
  8
0
100
AcDbLine
 62
7
  6
BYLAYER
 10
104.7566697607
 20
255.0732440444
 11
104.7566697607
 21
218.4427714134
  0
LINE
  5
234
100
AcDbEntity
  8
0
100
AcDbLine
 62
7
  6
BYLAYER
 10
106.8189684174
 20
218.0865071151
 11
106.8188137391
 21
255.4292951558
  0
LINE
  5
235
100
AcDbEntity
  8
0
100
AcDbLine
 62
7
  6
BYLAYER
 10
107.2698045941
 20
218.8423529412
 11
107.2698045941
 21
254.9423529412
  0
LINE
  5
236
100
AcDbEntity
  8
0
100
AcDbLine
 62
7
  6
BYLAYER
 10
109.6369406978
 20
222.9423529412
 11
109.6369406978
 21
250.8423529412
  0
LINE
  5
237
100
AcDbEntity
  8
0
100
AcDbLine
 62
7
  6
BYLAYER
 10
113.8707664884
 20
268.4423529412
 11
113.8707664884
 21
216.8423529412
  0
LINE
  5
238
100
AcDbEntity
  8
0
100
AcDbLine
 62
7
  6
BYLAYER
 10
91.9566697607
 20
255.0732440444
 11
90.2945256158
 21
252.782377716
  0
LINE
  5
239
100
AcDbEntity
  8
0
100
AcDbLine
 62
7
  6
BYLAYER
 10
98.3566697607
 20
255.0732440444
 11
96.6945256158
 21
252.782377716
  0
LINE
  5
23A
100
AcDbEntity
  8
0
100
AcDbLine
 62
7
  6
BYLAYER
 10
89.647007361
 20
252.782377716
 11
87.9848632162
 21
255.0732440444
  0
LINE
  5
23B
100
AcDbEntity
  8
0
100
AcDbLine
 62
7
  6
BYLAYER
 10
96.047007361
 20
252.782377716
 11
94.3848632162
 21
255.0732440444
  0
LINE
  5
23C
100
AcDbEntity
  8
0
100
AcDbLine
 62
7
  6
BYLAYER
 10
117.0707664884
 20
236.8923529412
 11
117.0707664884
 21
268.4423529412
  0
LINE
  5
23D
100
AcDbEntity
  8
0
100
AcDbLine
 62
7
  6
BYLAYER
 10
119.8707664884
 20
216.8423529412
 11
119.8707664884
 21
236.8923529412
  0
LINE
  5
23E
100
AcDbEntity
  8
0
100
AcDbLine
 62
7
  6
BYLAYER
 10
104.7566697607
 20
255.0732440444
 11
103.0945256158
 21
252.782377716
  0
LINE
  5
23F
100
AcDbEntity
  8
0
100
AcDbLine
 62
7
  6
BYLAYER
 10
102.447007361
 20
252.782377716
 11
100.7848632162
 21
255.0732440444
  0
LINE
  5
240
100
AcDbEntity
  8
0
100
AcDbLine
 62
7
  6
BYLAYER
 10
109.6369406978
 20
250.8423529412
 11
107.2698045941
 21
254.9423529412
  0
LINE
  5
241
100
AcDbEntity
  8
0
100
AcDbLine
 62
7
  6
BYLAYER
 10
124.6707664884
 20
268.4423529412
 11
124.6707664884
 21
236.8923529412
  0
LINE
  5
242
100
AcDbEntity
  8
0
100
AcDbLine
 62
7
  6
BYLAYER
 10
127.8707664884
 20
268.4423529412
 11
127.8707664884
 21
236.8923529412
  0
LINE
  5
243
100
AcDbEntity
  8
0
100
AcDbLine
 62
7
  6
BYLAYER
 10
129.6507664884
 20
270.6023529412
 11
129.6507664884
 21
268.4423529412
  0
LINE
  5
244
100
AcDbEntity
  8
0
100
AcDbLine
 62
7
  6
BYLAYER
 10
133.0707664884
 20
236.8923529412
 11
133.0707664884
 21
268.4423529412
  0
LINE
  5
245
100
AcDbEntity
  8
0
100
AcDbLine
 62
7
  6
BYLAYER
 10
109.6369406978
 20
222.9423529412
 11
107.2698045941
 21
218.8423529412
  0
LINE
  5
246
100
AcDbEntity
  8
0
100
AcDbLine
 62
7
  6
BYLAYER
 10
89.647007361
 20
220.7336377418
 11
87.9848632162
 21
218.4427714134
  0
LINE
  5
247
100
AcDbEntity
  8
0
100
AcDbLine
 62
7
  6
BYLAYER
 10
96.047007361
 20
220.7336377418
 11
94.3848632162
 21
218.4427714134
  0
LINE
  5
248
100
AcDbEntity
  8
0
100
AcDbLine
 62
7
  6
BYLAYER
 10
136.4907664884
 20
270.6023529412
 11
136.4907664884
 21
268.4423529412
  0
LINE
  5
249
100
AcDbEntity
  8
0
100
AcDbLine
 62
7
  6
BYLAYER
 10
141.6507664884
 20
270.6023529412
 11
141.6507664884
 21
268.4423529412
  0
LINE
  5
24A
100
AcDbEntity
  8
0
100
AcDbLine
 62
7
  6
BYLAYER
 10
102.447007361
 20
220.7336377418
 11
100.7848632162
 21
218.4427714134
  0
LINE
  5
24B
100
AcDbEntity
  8
0
100
AcDbLine
 62
7
  6
BYLAYER
 10
148.4907664884
 20
270.6023529412
 11
148.4907664884
 21
268.4423529412
  0
LINE
  5
24C
100
AcDbEntity
  8
0
100
AcDbLine
 62
7
  6
BYLAYER
 10
247.8707664884
 20
216.8423529412
 11
113.8707664884
 21
216.8423529412
  0
LINE
  5
24D
100
AcDbEntity
  8
0
100
AcDbLine
 62
7
  6
BYLAYER
 10
247.8707664884
 20
222.8080077289
 11
252.1045922791
 21
222.8080077289
  0
LINE
  5
24E
100
AcDbEntity
  8
0
100
AcDbLine
 62
7
  6
BYLAYER
 10
113.8707664884
 20
222.9423529412
 11
109.6369406978
 21
222.9423529412
  0
LINE
  5
24F
100
AcDbEntity
  8
0
100
AcDbLine
 62
7
  6
BYLAYER
 10
78.6707664884
 20
228.8923529412
 11
77.1707664884
 21
228.8923529412
  0
LINE
  5
250
100
AcDbEntity
  8
0
100
AcDbLine
 62
7
  6
BYLAYER
 10
283.0707664884
 20
228.8923529412
 11
284.5707664884
 21
228.8923529412
  0
LINE
  5
251
100
AcDbEntity
  8
0
100
AcDbLine
 62
7
  6
BYLAYER
 10
71.3207664884
 20
230.3423529412
 11
65.7207664884
 21
230.3423529412
  0
LINE
  5
252
100
AcDbEntity
  8
0
100
AcDbLine
 62
7
  6
BYLAYER
 10
290.4207664884
 20
230.3423529412
 11
296.0207664884
 21
230.3423529412
  0
LINE
  5
253
100
AcDbEntity
  8
0
100
AcDbLine
 62
7
  6
BYLAYER
 10
73.7547733817
 20
230.3923529412
 11
76.7367595952
 21
230.3923529412
  0
LINE
  5
254
100
AcDbEntity
  8
0
100
AcDbLine
 62
7
  6
BYLAYER
 10
285.004774688
 20
230.3923529412
 11
287.9867582888
 21
230.3923529412
  0
LINE
  5
255
100
AcDbEntity
  8
0
100
AcDbLine
 62
7
  6
BYLAYER
 10
61.4708643358
 20
232.9423529412
 11
43.0707664884
 21
232.9423529412
  0
LINE
  5
256
100
AcDbEntity
  8
0
100
AcDbLine
 62
7
  6
BYLAYER
 10
300.270668641
 20
232.9423529412
 11
318.6707664884
 21
232.9423529412
  0
LINE
  5
257
100
AcDbEntity
  8
0
100
AcDbLine
 62
7
  6
BYLAYER
 10
165.8707664884
 20
274.8923529412
 11
165.8707664884
 21
269.6923529412
  0
LINE
  5
258
100
AcDbEntity
  8
0
100
AcDbLine
 62
7
  6
BYLAYER
 10
168.2707664884
 20
269.6923529412
 11
168.2707664884
 21
268.4423529412
  0
LINE
  5
259
100
AcDbEntity
  8
0
100
AcDbLine
 62
7
  6
BYLAYER
 10
166.5707664884
 20
283.8923529412
 11
165.8707664884
 21
274.8923529412
  0
LINE
  5
25A
100
AcDbEntity
  8
0
100
AcDbLine
 62
7
  6
BYLAYER
 10
281.3762578961
 20
246.2320615878
 11
283.0707664884
 21
246.3923529412
  0
LINE
  5
25B
100
AcDbEntity
  8
0
100
AcDbLine
 62
7
  6
BYLAYER
 10
80.3652750807
 20
227.4182990822
 11
78.6707664884
 21
227.2580077289
  0
LINE
  5
25C
100
AcDbEntity
  8
0
100
AcDbLine
 62
7
  6
BYLAYER
 10
287.5707664884
 20
236.8923529412
 11
285.4207664884
 21
236.8923529412
  0
LINE
  5
25D
100
AcDbEntity
  8
0
100
AcDbLine
 62
7
  6
BYLAYER
 10
74.1707664884
 20
236.8923529412
 11
76.3207664884
 21
236.8923529412
  0
LINE
  5
25E
100
AcDbEntity
  8
0
100
AcDbLine
 62
7
  6
BYLAYER
 10
113.8707664884
 20
236.8923529412
 11
133.0707664884
 21
236.8923529412
  0
LINE
  5
25F
100
AcDbEntity
  8
0
100
AcDbLine
 62
7
  6
BYLAYER
 10
228.6707664884
 20
236.8923529412
 11
247.8707664884
 21
236.8923529412
  0
LINE
  5
260
100
AcDbEntity
  8
0
100
AcDbLine
 62
7
  6
BYLAYER
 10
61.4708643358
 20
240.8423529412
 11
43.0707664884
 21
240.8423529412
  0
LINE
  5
261
100
AcDbEntity
  8
0
100
AcDbLine
 62
7
  6
BYLAYER
 10
300.270668641
 20
240.8423529412
 11
318.6707664884
 21
240.8423529412
  0
LINE
  5
262
100
AcDbEntity
  8
0
100
AcDbLine
 62
7
  6
BYLAYER
 10
80.3652750807
 20
246.0977163756
 11
78.6707664884
 21
246.2580077289
  0
LINE
  5
263
100
AcDbEntity
  8
0
100
AcDbLine
 62
7
  6
BYLAYER
 10
281.3762578961
 20
227.5526442945
 11
283.0707664884
 21
227.3923529412
  0
LINE
  5
264
100
AcDbEntity
  8
0
100
AcDbLine
 62
7
  6
BYLAYER
 10
287.9867582888
 20
243.3923529412
 11
285.004774688
 21
243.3923529412
  0
LINE
  5
265
100
AcDbEntity
  8
0
100
AcDbLine
 62
7
  6
BYLAYER
 10
73.7547733817
 20
243.3923529412
 11
76.7367595952
 21
243.3923529412
  0
LINE
  5
266
100
AcDbEntity
  8
0
100
AcDbLine
 62
7
  6
BYLAYER
 10
71.3207664884
 20
243.4423529412
 11
65.7207664884
 21
243.4423529412
  0
LINE
  5
267
100
AcDbEntity
  8
0
100
AcDbLine
 62
7
  6
BYLAYER
 10
290.4207664884
 20
243.4423529412
 11
296.0207664884
 21
243.4423529412
  0
LINE
  5
268
100
AcDbEntity
  8
0
100
AcDbLine
 62
7
  6
BYLAYER
 10
78.6707664884
 20
244.8923529412
 11
77.1707664884
 21
244.8923529412
  0
LINE
  5
269
100
AcDbEntity
  8
0
100
AcDbLine
 62
7
  6
BYLAYER
 10
283.0707664884
 20
244.8923529412
 11
284.5707664884
 21
244.8923529412
  0
LINE
  5
26A
100
AcDbEntity
  8
0
100
AcDbLine
 62
7
  6
BYLAYER
 10
247.8707664884
 20
250.7080077289
 11
252.1045922791
 21
250.7080077289
  0
LINE
  5
26B
100
AcDbEntity
  8
0
100
AcDbLine
 62
7
  6
BYLAYER
 10
113.8707664884
 20
250.8423529412
 11
109.6369406978
 21
250.8423529412
  0
LINE
  5
26C
100
AcDbEntity
  8
0
100
AcDbLine
 62
7
  6
BYLAYER
 10
195.8707664884
 20
274.8923529412
 11
195.1707664884
 21
283.8923529412
  0
LINE
  5
26D
100
AcDbEntity
  8
0
100
AcDbLine
 62
7
  6
BYLAYER
 10
193.4707664884
 20
268.4423529412
 11
193.4707664884
 21
269.6923529412
  0
LINE
  5
26E
100
AcDbEntity
  8
0
100
AcDbLine
 62
7
  6
BYLAYER
 10
195.8707664884
 20
274.8923529412
 11
195.8707664884
 21
269.6923529412
  0
LINE
  5
26F
100
AcDbEntity
  8
0
100
AcDbLine
 62
7
  6
BYLAYER
 10
113.8707664884
 20
268.4423529412
 11
247.8707664884
 21
268.4423529412
  0
LINE
  5
270
100
AcDbEntity
  8
0
100
AcDbLine
 62
7
  6
BYLAYER
 10
195.8707664884
 20
269.6923529412
 11
165.8707664884
 21
269.6923529412
  0
LINE
  5
271
100
AcDbEntity
  8
0
100
AcDbLine
 62
7
  6
BYLAYER
 10
129.6507664884
 20
270.6023529412
 11
136.4907664884
 21
270.6023529412
  0
LINE
  5
272
100
AcDbEntity
  8
0
100
AcDbLine
 62
7
  6
BYLAYER
 10
141.6507664884
 20
270.6023529412
 11
148.4907664884
 21
270.6023529412
  0
LINE
  5
273
100
AcDbEntity
  8
0
100
AcDbLine
 62
7
  6
BYLAYER
 10
213.2507664884
 20
270.6023529412
 11
220.0907664884
 21
270.6023529412
  0
LINE
  5
274
100
AcDbEntity
  8
0
100
AcDbLine
 62
7
  6
BYLAYER
 10
225.2507664884
 20
270.6023529412
 11
232.0907664884
 21
270.6023529412
  0
LINE
  5
275
100
AcDbEntity
  8
0
100
AcDbLine
 62
7
  6
BYLAYER
 10
130.1507664884
 20
271.1023529412
 11
135.9907664884
 21
271.1023529412
  0
LINE
  5
276
100
AcDbEntity
  8
0
100
AcDbLine
 62
7
  6
BYLAYER
 10
142.1507664884
 20
271.1023529412
 11
147.9907664884
 21
271.1023529412
  0
LINE
  5
277
100
AcDbEntity
  8
0
100
AcDbLine
 62
7
  6
BYLAYER
 10
213.7507664884
 20
271.1023529412
 11
219.5907664884
 21
271.1023529412
  0
LINE
  5
278
100
AcDbEntity
  8
0
100
AcDbLine
 62
7
  6
BYLAYER
 10
225.7507664884
 20
271.1023529412
 11
231.5907664884
 21
271.1023529412
  0
LINE
  5
279
100
AcDbEntity
  8
0
100
AcDbLine
 62
7
  6
BYLAYER
 10
165.8707664884
 20
274.8923529412
 11
195.8707664884
 21
274.8923529412
  0
LINE
  5
27A
100
AcDbEntity
  8
0
100
AcDbLine
 62
7
  6
BYLAYER
 10
213.2507664884
 20
270.6023529412
 11
213.2507664884
 21
268.4423529412
  0
LINE
  5
27B
100
AcDbEntity
  8
0
100
AcDbLine
 62
7
  6
BYLAYER
 10
220.0907664884
 20
270.6023529412
 11
220.0907664884
 21
268.4423529412
  0
LINE
  5
27C
100
AcDbEntity
  8
0
100
AcDbLine
 62
7
  6
BYLAYER
 10
166.5707664884
 20
283.8923529412
 11
195.1707664884
 21
283.8923529412
  0
LINE
  5
27D
100
AcDbEntity
  8
0
100
AcDbLine
 62
7
  6
BYLAYER
 10
225.2507664884
 20
270.6023529412
 11
225.2507664884
 21
268.4423529412
  0
LINE
  5
27E
100
AcDbEntity
  8
0
100
AcDbLine
 62
7
  6
BYLAYER
 10
228.6707664884
 20
268.4423529412
 11
228.6707664884
 21
236.8923529412
  0
LINE
  5
27F
100
AcDbEntity
  8
0
100
AcDbLine
 62
7
  6
BYLAYER
 10
259.2945256158
 20
220.8679829541
 11
260.9566697607
 21
218.5771166257
  0
LINE
  5
280
100
AcDbEntity
  8
0
100
AcDbLine
 62
7
  6
BYLAYER
 10
252.1045922791
 20
222.8080077289
 11
254.4717283827
 21
218.7080077289
  0
LINE
  5
281
100
AcDbEntity
  8
0
100
AcDbLine
 62
7
  6
BYLAYER
 10
232.0907664884
 20
270.6023529412
 11
232.0907664884
 21
268.4423529412
  0
LINE
  5
282
100
AcDbEntity
  8
0
100
AcDbLine
 62
7
  6
BYLAYER
 10
233.8707664884
 20
236.8923529412
 11
233.8707664884
 21
268.4423529412
  0
LINE
  5
283
100
AcDbEntity
  8
0
100
AcDbLine
 62
7
  6
BYLAYER
 10
237.0707664884
 20
236.8923529412
 11
237.0707664884
 21
268.4423529412
  0
LINE
  5
284
100
AcDbEntity
  8
0
100
AcDbLine
 62
7
  6
BYLAYER
 10
265.6945256158
 20
220.8679829541
 11
267.3566697607
 21
218.5771166257
  0
LINE
  5
285
100
AcDbEntity
  8
0
100
AcDbLine
 62
7
  6
BYLAYER
 10
272.0945256158
 20
220.8679829541
 11
273.7566697607
 21
218.5771166257
  0
LINE
  5
286
100
AcDbEntity
  8
0
100
AcDbLine
 62
7
  6
BYLAYER
 10
241.8707664884
 20
236.8923529412
 11
241.8707664884
 21
216.8423529412
  0
LINE
  5
287
100
AcDbEntity
  8
0
100
AcDbLine
 62
7
  6
BYLAYER
 10
244.6707664884
 20
268.4423529412
 11
244.6707664884
 21
236.8923529412
  0
LINE
  5
288
100
AcDbEntity
  8
0
100
AcDbLine
 62
7
  6
BYLAYER
 10
247.8707664884
 20
216.8423529412
 11
247.8707664884
 21
268.4423529412
  0
LINE
  5
289
100
AcDbEntity
  8
0
100
AcDbLine
 62
7
  6
BYLAYER
 10
252.1045922791
 20
250.7080077289
 11
254.4717283827
 21
254.8080077289
  0
LINE
  5
28A
100
AcDbEntity
  8
0
100
AcDbLine
 62
7
  6
BYLAYER
 10
259.2945256158
 20
252.9167229283
 11
260.9566697607
 21
255.2075892567
  0
LINE
  5
28B
100
AcDbEntity
  8
0
100
AcDbLine
 62
7
  6
BYLAYER
 10
265.6945256158
 20
252.9167229283
 11
267.3566697607
 21
255.2075892567
  0
LINE
  5
28C
100
AcDbEntity
  8
0
100
AcDbLine
 62
7
  6
BYLAYER
 10
256.9848632162
 20
255.2075892567
 11
258.647007361
 21
252.9167229283
  0
LINE
  5
28D
100
AcDbEntity
  8
0
100
AcDbLine
 62
7
  6
BYLAYER
 10
263.3848632162
 20
255.2075892567
 11
265.047007361
 21
252.9167229283
  0
LINE
  5
28E
100
AcDbEntity
  8
0
100
AcDbLine
 62
7
  6
BYLAYER
 10
252.1045922791
 20
250.7080077289
 11
252.1045922791
 21
222.8080077289
  0
LINE
  5
28F
100
AcDbEntity
  8
0
100
AcDbLine
 62
7
  6
BYLAYER
 10
254.4717283827
 20
254.8080077289
 11
254.4717283827
 21
218.7080077289
  0
LINE
  5
290
100
AcDbEntity
  8
0
100
AcDbLine
 62
7
  6
BYLAYER
 10
254.9225645594
 20
255.563853555
 11
254.9227201673
 21
218.2210667954
  0
LINE
  5
291
100
AcDbEntity
  8
0
100
AcDbLine
 62
7
  6
BYLAYER
 10
256.9848632162
 20
218.5771166257
 11
256.9848632162
 21
255.2075892567
  0
LINE
  5
292
100
AcDbEntity
  8
0
100
AcDbLine
 62
7
  6
BYLAYER
 10
258.647007361
 20
252.9167229283
 11
258.647007361
 21
220.8679829541
  0
LINE
  5
293
100
AcDbEntity
  8
0
100
AcDbLine
 62
7
  6
BYLAYER
 10
259.2945256158
 20
220.8679829541
 11
259.2945256158
 21
252.9167229283
  0
LINE
  5
294
100
AcDbEntity
  8
0
100
AcDbLine
 62
7
  6
BYLAYER
 10
272.0945256158
 20
252.9167229283
 11
273.7566697607
 21
255.2075892567
  0
LINE
  5
295
100
AcDbEntity
  8
0
100
AcDbLine
 62
7
  6
BYLAYER
 10
269.7848632162
 20
255.2075892567
 11
271.447007361
 21
252.9167229283
  0
LINE
  5
296
100
AcDbEntity
  8
0
100
AcDbLine
 62
7
  6
BYLAYER
 10
260.9566697607
 20
255.2075892567
 11
260.9566697607
 21
218.5771166257
  0
LINE
  5
297
100
AcDbEntity
  8
0
100
AcDbLine
 62
7
  6
BYLAYER
 10
263.3848632162
 20
218.5771166257
 11
263.3848632162
 21
255.2075892567
  0
LINE
  5
298
100
AcDbEntity
  8
0
100
AcDbLine
 62
7
  6
BYLAYER
 10
265.047007361
 20
252.9167229283
 11
265.047007361
 21
220.8679829541
  0
LINE
  5
299
100
AcDbEntity
  8
0
100
AcDbLine
 62
7
  6
BYLAYER
 10
265.6945256158
 20
220.8679829541
 11
265.6945256158
 21
252.9167229283
  0
LINE
  5
29A
100
AcDbEntity
  8
0
100
AcDbLine
 62
7
  6
BYLAYER
 10
267.3566697607
 20
255.2075892567
 11
267.3566697607
 21
218.5771166257
  0
LINE
  5
29B
100
AcDbEntity
  8
0
100
AcDbLine
 62
7
  6
BYLAYER
 10
256.9848632162
 20
218.5771166257
 11
258.647007361
 21
220.8679829541
  0
LINE
  5
29C
100
AcDbEntity
  8
0
100
AcDbLine
 62
7
  6
BYLAYER
 10
263.3848632162
 20
218.5771166257
 11
265.047007361
 21
220.8679829541
  0
LINE
  5
29D
100
AcDbEntity
  8
0
100
AcDbLine
 62
7
  6
BYLAYER
 10
276.2698045941
 20
255.0766981535
 11
281.3762578961
 21
246.2320615879
  0
LINE
  5
29E
100
AcDbEntity
  8
0
100
AcDbLine
 62
7
  6
BYLAYER
 10
284.5707664884
 20
231.4388809697
 11
285.0042525912
 21
230.3923529412
  0
LINE
  5
29F
100
AcDbEntity
  8
0
100
AcDbLine
 62
7
  6
BYLAYER
 10
269.7848632162
 20
218.5771166257
 11
269.7848632162
 21
255.2075892567
  0
LINE
  5
2A0
100
AcDbEntity
  8
0
100
AcDbLine
 62
7
  6
BYLAYER
 10
271.447007361
 20
252.9167229283
 11
271.447007361
 21
220.8679829541
  0
LINE
  5
2A1
100
AcDbEntity
  8
0
100
AcDbLine
 62
7
  6
BYLAYER
 10
272.0945256158
 20
220.8679829541
 11
272.0945256158
 21
252.9167229283
  0
LINE
  5
2A2
100
AcDbEntity
  8
0
100
AcDbLine
 62
7
  6
BYLAYER
 10
273.7566697607
 20
255.2075892567
 11
273.7566697607
 21
218.5771166257
  0
LINE
  5
2A3
100
AcDbEntity
  8
0
100
AcDbLine
 62
7
  6
BYLAYER
 10
276.2698045941
 20
218.7080077289
 11
276.2698045941
 21
255.0766981535
  0
LINE
  5
2A4
100
AcDbEntity
  8
0
100
AcDbLine
 62
7
  6
BYLAYER
 10
269.7848632162
 20
218.5771166257
 11
271.447007361
 21
220.8679829541
  0
LINE
  5
2A5
100
AcDbEntity
  8
0
100
AcDbLine
 62
7
  6
BYLAYER
 10
288.4207664884
 20
242.3458249126
 11
287.9872803856
 21
243.3923529412
  0
LINE
  5
2A6
100
AcDbEntity
  8
0
100
AcDbLine
 62
7
  6
BYLAYER
 10
281.3762578961
 20
246.2320615878
 11
281.3762578961
 21
227.5526442945
  0
LINE
  5
2A7
100
AcDbEntity
  8
0
100
AcDbLine
 62
7
  6
BYLAYER
 10
283.0707664884
 20
246.3923529412
 11
283.0707664884
 21
227.3923529412
  0
LINE
  5
2A8
100
AcDbEntity
  8
0
100
AcDbLine
 62
7
  6
BYLAYER
 10
284.5707664884
 20
244.8923070957
 11
284.5707664884
 21
228.8923987867
  0
LINE
  5
2A9
100
AcDbEntity
  8
0
100
AcDbLine
 62
7
  6
BYLAYER
 10
288.4207664884
 20
242.3450961848
 11
288.4207664884
 21
231.4396096976
  0
LINE
  5
2AA
100
AcDbEntity
  8
0
100
AcDbLine
 62
7
  6
BYLAYER
 10
284.5707664884
 20
242.3458249126
 11
285.0042525912
 21
243.3923529412
  0
LINE
  5
2AB
100
AcDbEntity
  8
0
100
AcDbLine
 62
7
  6
BYLAYER
 10
288.4207664884
 20
231.4388809697
 11
287.9872803856
 21
230.3923529412
  0
LINE
  5
2AC
100
AcDbEntity
  8
0
100
AcDbLine
 62
7
  6
BYLAYER
 10
276.2698045941
 20
218.7080077289
 11
281.3762578961
 21
227.5526442945
  0
LINE
  5
2AD
100
AcDbEntity
  8
0
100
AcDbLine
 62
7
  6
BYLAYER
 10
290.4207664884
 20
230.3423529412
 11
290.4207664884
 21
243.4419728978
  0
LINE
  5
2AE
100
AcDbEntity
  8
0
100
AcDbLine
 62
7
  6
BYLAYER
 10
296.0207664884
 20
243.4423529412
 11
296.0207664884
 21
239.8082655381
  0
LINE
  5
2AF
100
AcDbEntity
  8
0
100
AcDbLine
 62
7
  6
BYLAYER
 10
296.0207664884
 20
233.9764407684
 11
296.0207664884
 21
230.3423529412
  0
ARC
  5
2B0
100
AcDbEntity
  8
0
100
AcDbCircle
 62
7
  6
BYLAYER
 10
65.7207664884
 20
236.8923529412
 40
6.55
100
AcDbArc
 50
218.7931989464
 51
270.0
  0
ARC
  5
2B1
100
AcDbEntity
  8
0
100
AcDbCircle
 62
7
  6
BYLAYER
 10
65.7207664884
 20
236.8923529412
 40
6.55
100
AcDbArc
 50
90.0
 51
144.4363419615
  0
ARC
  5
2B2
100
AcDbEntity
  8
0
100
AcDbCircle
 62
7
  6
BYLAYER
 10
43.0707664884
 20
236.8923529412
 40
3.95
100
AcDbArc
 50
90.0
 51
270.0
  0
ARC
  5
2B3
100
AcDbEntity
  8
0
100
AcDbCircle
 62
7
  6
BYLAYER
 10
63.155098491
 20
235.7010893851
 40
3.6642881527
100
AcDbArc
 50
229.0458775996
 51
233.4069589666
  0
ARC
  5
2B4
100
AcDbEntity
  8
0
100
AcDbCircle
 62
7
  6
BYLAYER
 10
63.1189929953
 20
238.1282202187
 40
3.606940086
100
AcDbArc
 50
122.6766627733
 51
131.0464588788
  0
ARC
  5
2B5
100
AcDbEntity
  8
0
100
AcDbCircle
 62
7
  6
BYLAYER
 10
63.0624821186
 20
235.5753226865
 40
3.508100242
100
AcDbArc
 50
233.396959901
 51
238.8894515084
  0
ARC
  5
2B6
100
AcDbEntity
  8
0
100
AcDbCircle
 62
7
  6
BYLAYER
 10
71.3207664884
 20
232.3423529412
 40
2.0
100
AcDbArc
 50
270.0
 51
360.0
  0
ARC
  5
2B7
100
AcDbEntity
  8
0
100
AcDbCircle
 62
7
  6
BYLAYER
 10
71.3207664884
 20
241.4423529412
 40
2.0
100
AcDbArc
 50
0.0
 51
90.0
  0
ARC
  5
2B8
100
AcDbEntity
  8
0
100
AcDbCircle
 62
7
  6
BYLAYER
 10
105.9707664884
 20
219.5923529412
 40
1.5
100
AcDbArc
 50
304.5954709582
 51
330.0000000001
  0
ARC
  5
2B9
100
AcDbEntity
  8
0
100
AcDbCircle
 62
7
  6
BYLAYER
 10
105.9707664884
 20
219.3236625166
 40
1.5
100
AcDbArc
 50
215.9628616852
 51
304.4347930905
  0
ARC
  5
2BA
100
AcDbEntity
  8
0
100
AcDbCircle
 62
7
  6
BYLAYER
 10
99.5707664884
 20
219.3236625166
 40
1.5
100
AcDbArc
 50
215.9628616852
 51
324.0371383148
  0
ARC
  5
2BB
100
AcDbEntity
  8
0
100
AcDbCircle
 62
7
  6
BYLAYER
 10
93.1707664884
 20
219.3236625166
 40
1.5
100
AcDbArc
 50
215.9628616852
 51
324.0371383148
  0
ARC
  5
2BC
100
AcDbEntity
  8
0
100
AcDbCircle
 62
7
  6
BYLAYER
 10
86.7707664884
 20
219.3236625166
 40
1.5
100
AcDbArc
 50
209.9999999999
 51
324.0371383148
  0
ARC
  5
2BD
100
AcDbEntity
  8
0
100
AcDbCircle
 62
7
  6
BYLAYER
 10
102.7707664884
 20
220.4987334476
 40
0.4
100
AcDbArc
 50
35.9628616854
 51
144.0371383146
  0
ARC
  5
2BE
100
AcDbEntity
  8
0
100
AcDbCircle
 62
7
  6
BYLAYER
 10
96.3707664884
 20
220.4987334476
 40
0.4
100
AcDbArc
 50
35.9628616854
 51
144.0371383146
  0
ARC
  5
2BF
100
AcDbEntity
  8
0
100
AcDbCircle
 62
7
  6
BYLAYER
 10
89.9707664884
 20
220.4987334476
 40
0.4
100
AcDbArc
 50
35.9628616854
 51
144.0371383146
  0
ARC
  5
2C0
100
AcDbEntity
  8
0
100
AcDbCircle
 62
7
  6
BYLAYER
 10
105.9707664884
 20
254.1923529412
 40
1.5
100
AcDbArc
 50
29.9999999999
 51
144.0371383148
  0
ARC
  5
2C1
100
AcDbEntity
  8
0
100
AcDbCircle
 62
7
  6
BYLAYER
 10
99.5707664884
 20
254.1923529412
 40
1.5
100
AcDbArc
 50
35.9628616852
 51
144.0371383148
  0
ARC
  5
2C2
100
AcDbEntity
  8
0
100
AcDbCircle
 62
7
  6
BYLAYER
 10
93.1707664884
 20
254.1923529412
 40
1.5
100
AcDbArc
 50
35.9628616852
 51
144.0371383148
  0
ARC
  5
2C3
100
AcDbEntity
  8
0
100
AcDbCircle
 62
7
  6
BYLAYER
 10
86.7707664884
 20
254.1923529412
 40
1.5
100
AcDbArc
 50
35.9628616852
 51
150.0000000001
  0
ARC
  5
2C4
100
AcDbEntity
  8
0
100
AcDbCircle
 62
7
  6
BYLAYER
 10
130.1507664884
 20
270.6023529412
 40
0.5
100
AcDbArc
 50
90.0
 51
180.0
  0
ARC
  5
2C5
100
AcDbEntity
  8
0
100
AcDbCircle
 62
7
  6
BYLAYER
 10
135.9907664884
 20
270.6023529412
 40
0.5
100
AcDbArc
 50
0.0
 51
90.0
  0
ARC
  5
2C6
100
AcDbEntity
  8
0
100
AcDbCircle
 62
7
  6
BYLAYER
 10
142.1507664884
 20
270.6023529412
 40
0.5
100
AcDbArc
 50
90.0
 51
180.0
  0
ARC
  5
2C7
100
AcDbEntity
  8
0
100
AcDbCircle
 62
7
  6
BYLAYER
 10
147.9907664884
 20
270.6023529412
 40
0.5
100
AcDbArc
 50
0.0
 51
90.0
  0
ARC
  5
2C8
100
AcDbEntity
  8
0
100
AcDbCircle
 62
7
  6
BYLAYER
 10
102.7707664884
 20
253.0172820102
 40
0.4
100
AcDbArc
 50
215.9628616854
 51
324.0371383146
  0
ARC
  5
2C9
100
AcDbEntity
  8
0
100
AcDbCircle
 62
7
  6
BYLAYER
 10
96.3707664884
 20
253.0172820102
 40
0.4
100
AcDbArc
 50
215.9628616854
 51
324.0371383146
  0
ARC
  5
2CA
100
AcDbEntity
  8
0
100
AcDbCircle
 62
7
  6
BYLAYER
 10
89.9707664884
 20
253.0172820102
 40
0.4
100
AcDbArc
 50
215.9628616854
 51
324.0371383146
  0
ARC
  5
2CB
100
AcDbEntity
  8
0
100
AcDbCircle
 62
7
  6
BYLAYER
 10
180.8707664884
 20
239.0775556439
 40
46.8447972973
100
AcDbArc
 50
73.2007887054
 51
106.7992112946
  0
ARC
  5
2CC
100
AcDbEntity
  8
0
100
AcDbCircle
 62
7
  6
BYLAYER
 10
296.0207664884
 20
236.8923529412
 40
6.55
100
AcDbArc
 50
270.0
 51
324.4363419615
  0
ARC
  5
2CD
100
AcDbEntity
  8
0
100
AcDbCircle
 62
7
  6
BYLAYER
 10
296.0207664884
 20
236.8923529412
 40
6.55
100
AcDbArc
 50
38.7931989465
 51
90.0
  0
ARC
  5
2CE
100
AcDbEntity
  8
0
100
AcDbCircle
 62
7
  6
BYLAYER
 10
318.6707664884
 20
236.8923529412
 40
3.95
100
AcDbArc
 50
270.0
 51
90.0
  0
ARC
  5
2CF
100
AcDbEntity
  8
0
100
AcDbCircle
 62
7
  6
BYLAYER
 10
298.5864531119
 20
238.0836389962
 40
3.6642589529
100
AcDbArc
 50
49.045786605
 51
53.4091136587
  0
ARC
  5
2D0
100
AcDbEntity
  8
0
100
AcDbCircle
 62
7
  6
BYLAYER
 10
298.6226114616
 20
235.6563966823
 40
3.6068260872
100
AcDbArc
 50
302.668261678
 51
311.0474951663
  0
ARC
  5
2D1
100
AcDbEntity
  8
0
100
AcDbCircle
 62
7
  6
BYLAYER
 10
298.6790729858
 20
238.2094171486
 40
3.5080597354
100
AcDbArc
 50
53.3991448152
 51
58.8896068205
  0
ARC
  5
2D2
100
AcDbEntity
  8
0
100
AcDbCircle
 62
7
  6
BYLAYER
 10
290.4207664884
 20
232.3423529412
 40
2.0
100
AcDbArc
 50
180.0
 51
270.0
  0
ARC
  5
2D3
100
AcDbEntity
  8
0
100
AcDbCircle
 62
7
  6
BYLAYER
 10
290.4207664884
 20
241.4423529412
 40
2.0
100
AcDbArc
 50
90.0
 51
180.0
  0
ARC
  5
2D4
100
AcDbEntity
  8
0
100
AcDbCircle
 62
7
  6
BYLAYER
 10
255.7707664884
 20
219.4580077289
 40
1.5
100
AcDbArc
 50
209.9999999999
 51
324.0371383148
  0
ARC
  5
2D5
100
AcDbEntity
  8
0
100
AcDbCircle
 62
7
  6
BYLAYER
 10
274.9707664884
 20
219.4580077289
 40
1.5
100
AcDbArc
 50
215.9628616852
 51
330.0000000001
  0
ARC
  5
2D6
100
AcDbEntity
  8
0
100
AcDbCircle
 62
7
  6
BYLAYER
 10
268.5707664884
 20
219.4580077289
 40
1.5
100
AcDbArc
 50
215.9628616852
 51
324.0371383148
  0
ARC
  5
2D7
100
AcDbEntity
  8
0
100
AcDbCircle
 62
7
  6
BYLAYER
 10
262.1707664884
 20
219.4580077289
 40
1.5
100
AcDbArc
 50
215.9628616852
 51
324.0371383148
  0
ARC
  5
2D8
100
AcDbEntity
  8
0
100
AcDbCircle
 62
7
  6
BYLAYER
 10
271.7707664884
 20
220.6330786599
 40
0.4
100
AcDbArc
 50
35.9628616854
 51
144.0371383146
  0
ARC
  5
2D9
100
AcDbEntity
  8
0
100
AcDbCircle
 62
7
  6
BYLAYER
 10
265.3707664884
 20
220.6330786599
 40
0.4
100
AcDbArc
 50
35.9628616854
 51
144.0371383146
  0
ARC
  5
2DA
100
AcDbEntity
  8
0
100
AcDbCircle
 62
7
  6
BYLAYER
 10
258.9707664884
 20
220.6330786599
 40
0.4
100
AcDbArc
 50
35.9628616854
 51
144.0371383146
  0
ARC
  5
2DB
100
AcDbEntity
  8
0
100
AcDbCircle
 62
7
  6
BYLAYER
 10
255.7707664884
 20
254.3266981535
 40
1.5
100
AcDbArc
 50
35.9628616852
 51
124.4347930905
  0
ARC
  5
2DC
100
AcDbEntity
  8
0
100
AcDbCircle
 62
7
  6
BYLAYER
 10
274.9707664884
 20
254.3266981535
 40
1.5
100
AcDbArc
 50
29.9999999999
 51
144.0371383148
  0
ARC
  5
2DD
100
AcDbEntity
  8
0
100
AcDbCircle
 62
7
  6
BYLAYER
 10
268.5707664884
 20
254.3266981535
 40
1.5
100
AcDbArc
 50
35.9628616852
 51
144.0371383148
  0
ARC
  5
2DE
100
AcDbEntity
  8
0
100
AcDbCircle
 62
7
  6
BYLAYER
 10
262.1707664884
 20
254.3266981535
 40
1.5
100
AcDbArc
 50
35.9628616852
 51
144.0371383148
  0
ARC
  5
2DF
100
AcDbEntity
  8
0
100
AcDbCircle
 62
7
  6
BYLAYER
 10
255.7707664884
 20
254.0580077289
 40
1.5
100
AcDbArc
 50
124.5954815904
 51
150.0000000001
  0
ARC
  5
2E0
100
AcDbEntity
  8
0
100
AcDbCircle
 62
7
  6
BYLAYER
 10
225.7507664884
 20
270.6023529412
 40
0.5
100
AcDbArc
 50
90.0
 51
180.0
  0
ARC
  5
2E1
100
AcDbEntity
  8
0
100
AcDbCircle
 62
7
  6
BYLAYER
 10
231.5907664884
 20
270.6023529412
 40
0.5
100
AcDbArc
 50
0.0
 51
90.0
  0
ARC
  5
2E2
100
AcDbEntity
  8
0
100
AcDbCircle
 62
7
  6
BYLAYER
 10
213.7507664884
 20
270.6023529412
 40
0.5
100
AcDbArc
 50
90.0
 51
180.0
  0
ARC
  5
2E3
100
AcDbEntity
  8
0
100
AcDbCircle
 62
7
  6
BYLAYER
 10
219.5907664884
 20
270.6023529412
 40
0.5
100
AcDbArc
 50
0.0
 51
90.0
  0
ARC
  5
2E4
100
AcDbEntity
  8
0
100
AcDbCircle
 62
7
  6
BYLAYER
 10
271.7707664884
 20
253.1516272224
 40
0.4
100
AcDbArc
 50
215.9628616854
 51
324.0371383146
  0
ARC
  5
2E5
100
AcDbEntity
  8
0
100
AcDbCircle
 62
7
  6
BYLAYER
 10
265.3707664884
 20
253.1516272224
 40
0.4
100
AcDbArc
 50
215.9628616854
 51
324.0371383146
  0
ARC
  5
2E6
100
AcDbEntity
  8
0
100
AcDbCircle
 62
7
  6
BYLAYER
 10
258.9707664884
 20
253.1516272224
 40
0.4
100
AcDbArc
 50
215.9628616854
 51
324.0371383146
  0
SPLINE
  5
2E7
100
AcDbEntity
  8
0
100
AcDbSpline
 62
7
  6
BYLAYER
 70
0
 71
3
 72
9
 73
5
 74
0
 42
0.0000001
 43
0.0000001
 44
0.0000000001
 40
0.0
 40
0.0
 40
0.0
 40
0.0
 40
0.5037529993
 40
1.0
 40
1.0
 40
1.0
 40
1.0
 10
300.5694827401
 20
232.6201347291
 30
0.0
 10
300.3255276339
 20
232.4640485635
 30
0.0
 10
299.7990051282
 20
232.2139018843
 30
0.0
 10
299.2209180888
 20
232.1256277166
 30
0.0
 10
298.9356181666
 20
232.125599507
 30
0.0
  0
SPLINE
  5
2E8
100
AcDbEntity
  8
0
100
AcDbSpline
 62
7
  6
BYLAYER
 70
0
 71
3
 72
9
 73
5
 74
0
 42
0.0000001
 43
0.0000001
 44
0.0000000001
 40
0.0
 40
0.0
 40
0.0
 40
0.0
 40
0.5
 40
1.0
 40
1.0
 40
1.0
 40
1.0
 10
287.5707664884
 20
243.3923529412
 30
0.0
 10
287.8247965285
 20
242.3301160277
 30
0.0
 10
288.1495790361
 20
240.1423529411
 30
0.0
 10
287.8247965284
 20
237.9545898546
 30
0.0
 10
287.5707664884
 20
236.8923529412
 30
0.0
  0
SPLINE
  5
2E9
100
AcDbEntity
  8
0
100
AcDbSpline
 62
7
  6
BYLAYER
 70
0
 71
3
 72
9
 73
5
 74
0
 42
0.0000001
 43
0.0000001
 44
0.0000000001
 40
0.0
 40
0.0
 40
0.0
 40
0.0
 40
0.5
 40
1.0
 40
1.0
 40
1.0
 40
1.0
 10
287.5707664884
 20
236.8923529412
 30
0.0
 10
287.8247965285
 20
235.8301160277
 30
0.0
 10
288.1495790361
 20
233.6423529411
 30
0.0
 10
287.8247965284
 20
231.4545898546
 30
0.0
 10
287.5707664884
 20
230.3923529412
 30
0.0
  0
SPLINE
  5
2EA
100
AcDbEntity
  8
0
100
AcDbSpline
 62
7
  6
BYLAYER
 70
0
 71
3
 72
9
 73
5
 74
0
 42
0.0000001
 43
0.0000001
 44
0.0000000001
 40
0.0
 40
0.0
 40
0.0
 40
0.0
 40
0.262264576
 40
1.0
 40
1.0
 40
1.0
 40
1.0
 10
297.4136580629
 20
236.8923529412
 30
0.0
 10
297.413658067
 20
236.6738832195
 30
0.0
 10
297.459237554
 20
235.8433451003
 30
0.0
 10
297.6862759782
 20
235.0086339838
 30
0.0
 10
297.992928551
 20
234.4760673049
 30
0.0
  0
SPLINE
  5
2EB
100
AcDbEntity
  8
0
100
AcDbSpline
 62
7
  6
BYLAYER
 70
0
 71
3
 72
9
 73
5
 74
0
 42
0.0000001
 43
0.0000001
 44
0.0000000001
 40
0.0
 40
0.0
 40
0.0
 40
0.0
 40
0.5385456817
 40
1.0
 40
1.0
 40
1.0
 40
1.0
 10
297.9929332816
 20
234.4760725722
 30
0.0
 10
298.2475637943
 20
234.033953622
 30
0.0
 10
298.8798811596
 20
233.280469232
 30
0.0
 10
299.8334996192
 20
232.9424038443
 30
0.0
 10
300.2706673929
 20
232.9423567967
 30
0.0
  0
SPLINE
  5
2EC
100
AcDbEntity
  8
0
100
AcDbSpline
 62
7
  6
BYLAYER
 70
0
 71
3
 72
9
 73
5
 74
0
 42
0.0000001
 43
0.0000001
 44
0.0000000001
 40
0.0
 40
0.0
 40
0.0
 40
0.0
 40
0.5
 40
1.0
 40
1.0
 40
1.0
 40
1.0
 10
285.4207664884
 20
230.3923529412
 30
0.0
 10
285.1667364484
 20
231.4545898546
 30
0.0
 10
284.8419539407
 20
233.6423529411
 30
0.0
 10
285.1667364484
 20
235.8301160277
 30
0.0
 10
285.4207664884
 20
236.8923529412
 30
0.0
  0
SPLINE
  5
2ED
100
AcDbEntity
  8
0
100
AcDbSpline
 62
7
  6
BYLAYER
 70
0
 71
3
 72
9
 73
5
 74
0
 42
0.0000001
 43
0.0000001
 44
0.0000000001
 40
0.0
 40
0.0
 40
0.0
 40
0.0
 40
0.5
 40
1.0
 40
1.0
 40
1.0
 40
1.0
 10
76.3207664884
 20
236.8923529412
 30
0.0
 10
76.5747965295
 20
235.8301160232
 30
0.0
 10
76.8995792557
 20
233.6423529413
 30
0.0
 10
76.5747965296
 20
231.4545898592
 30
0.0
 10
76.3207664884
 20
230.3923529412
 30
0.0
  0
SPLINE
  5
2EE
100
AcDbEntity
  8
0
100
AcDbSpline
 62
7
  6
BYLAYER
 70
0
 71
3
 72
9
 73
5
 74
0
 42
0.0000001
 43
0.0000001
 44
0.0000000001
 40
0.0
 40
0.0
 40
0.0
 40
0.0
 40
0.5
 40
1.0
 40
1.0
 40
1.0
 40
1.0
 10
76.3207664884
 20
243.3923529412
 30
0.0
 10
76.5747965295
 20
242.3301160232
 30
0.0
 10
76.8995792557
 20
240.1423529413
 30
0.0
 10
76.5747965296
 20
237.9545898592
 30
0.0
 10
76.3207664884
 20
236.8923529412
 30
0.0
  0
SPLINE
  5
2EF
100
AcDbEntity
  8
0
100
AcDbSpline
 62
7
  6
BYLAYER
 70
0
 71
3
 72
9
 73
5
 74
0
 42
0.0000001
 43
0.0000001
 44
0.0000000001
 40
0.0
 40
0.0
 40
0.0
 40
0.0
 40
0.5
 40
1.0
 40
1.0
 40
1.0
 40
1.0
 10
285.4207664884
 20
236.8923529412
 30
0.0
 10
285.1667364484
 20
237.9545898546
 30
0.0
 10
284.8419539407
 20
240.1423529411
 30
0.0
 10
285.1667364484
 20
242.3301160277
 30
0.0
 10
285.4207664884
 20
243.3923529412
 30
0.0
  0
SPLINE
  5
2F0
100
AcDbEntity
  8
0
100
AcDbSpline
 62
7
  6
BYLAYER
 70
0
 71
3
 72
9
 73
5
 74
0
 42
0.0000001
 43
0.0000001
 44
0.0000000001
 40
0.0
 40
0.0
 40
0.0
 40
0.0
 40
0.5
 40
1.0
 40
1.0
 40
1.0
 40
1.0
 10
74.1707664884
 20
236.8923529412
 30
0.0
 10
73.9167364473
 20
237.9545898592
 30
0.0
 10
73.5919537212
 20
240.1423529413
 30
0.0
 10
73.9167364473
 20
242.3301160232
 30
0.0
 10
74.1707664884
 20
243.3923529412
 30
0.0
  0
SPLINE
  5
2F1
100
AcDbEntity
  8
0
100
AcDbSpline
 62
7
  6
BYLAYER
 70
0
 71
3
 72
9
 73
5
 74
0
 42
0.0000001
 43
0.0000001
 44
0.0000000001
 40
0.0
 40
0.0
 40
0.0
 40
0.0
 40
0.5
 40
1.0
 40
1.0
 40
1.0
 40
1.0
 10
74.1707664884
 20
230.3923529412
 30
0.0
 10
73.9167364473
 20
231.4545898592
 30
0.0
 10
73.5919537212
 20
233.6423529413
 30
0.0
 10
73.9167364473
 20
235.8301160232
 30
0.0
 10
74.1707664884
 20
236.8923529412
 30
0.0
  0
SPLINE
  5
2F2
100
AcDbEntity
  8
0
100
AcDbSpline
 62
7
  6
BYLAYER
 70
0
 71
3
 72
9
 73
5
 74
0
 42
0.0000001
 43
0.0000001
 44
0.0000000001
 40
0.0
 40
0.0
 40
0.0
 40
0.0
 40
0.4614544499
 40
1.0
 40
1.0
 40
1.0
 40
1.0
 10
300.2706674458
 20
240.8423488914
 30
0.0
 10
299.833499549
 20
240.8423012206
 30
0.0
 10
298.8798809056
 20
240.5042371226
 30
0.0
 10
298.2475638878
 20
239.7507520668
 30
0.0
 10
297.9929333293
 20
239.308633289
 30
0.0
  0
SPLINE
  5
2F3
100
AcDbEntity
  8
0
100
AcDbSpline
 62
7
  6
BYLAYER
 70
0
 71
3
 72
9
 73
5
 74
0
 42
0.0000001
 43
0.0000001
 44
0.0000000001
 40
0.0
 40
0.0
 40
0.0
 40
0.0
 40
0.2370326129
 40
1.0
 40
1.0
 40
1.0
 40
1.0
 10
297.9929284947
 20
239.3086386051
 30
0.0
 10
297.894318686
 20
239.137382076
 30
0.0
 10
297.5415368834
 20
238.3787271897
 30
0.0
 10
297.4136580414
 20
237.5284499671
 30
0.0
 10
297.4136580533
 20
236.8923529412
 30
0.0
  0
SPLINE
  5
2F4
100
AcDbEntity
  8
0
100
AcDbSpline
 62
7
  6
BYLAYER
 70
0
 71
3
 72
9
 73
5
 74
0
 42
0.0000001
 43
0.0000001
 44
0.0000000001
 40
0.0
 40
0.0
 40
0.0
 40
0.0
 40
0.4966342767
 40
1.0
 40
1.0
 40
1.0
 40
1.0
 10
62.8059147573
 20
232.1255995356
 30
0.0
 10
62.5354257783
 20
232.1256263987
 30
0.0
 10
61.988079106
 20
232.2047822797
 30
0.0
 10
61.4846679622
 20
232.4302406793
 30
0.0
 10
61.2498784229
 20
232.5717855799
 30
0.0
  0
SPLINE
  5
2F5
100
AcDbEntity
  8
0
100
AcDbSpline
 62
7
  6
BYLAYER
 70
0
 71
3
 72
9
 73
5
 74
0
 42
0.0000001
 43
0.0000001
 44
0.0000000001
 40
0.0
 40
0.0
 40
0.0
 40
0.0
 40
0.5377615305
 40
1.0
 40
1.0
 40
1.0
 40
1.0
 10
62.8059126217
 20
241.6591057227
 30
0.0
 10
62.6419614711
 20
241.4209781644
 30
0.0
 10
62.2619170949
 20
241.0159224604
 30
0.0
 10
61.7193719265
 20
240.8423491238
 30
0.0
 10
61.4708642634
 20
240.8423490856
 30
0.0
  0
SPLINE
  5
2F6
100
AcDbEntity
  8
0
100
AcDbSpline
 62
7
  6
BYLAYER
 70
0
 71
3
 72
10
 73
6
 74
0
 42
0.0000001
 43
0.0000001
 44
0.0000000001
 40
0.0
 40
0.0
 40
0.0
 40
0.0
 40
0.5246458602
 40
0.7667441711
 40
1.0
 40
1.0
 40
1.0
 40
1.0
 10
65.7207681967
 20
239.8082618912
 30
0.0
 10
65.3986114486
 20
240.347143206
 30
0.0
 10
64.7538205859
 20
241.0631066491
 30
0.0
 10
63.657250914
 20
241.5727958383
 30
0.0
 10
63.0850459581
 20
241.6590896268
 30
0.0
 10
62.8059121324
 20
241.6591068679
 30
0.0
  0
SPLINE
  5
2F7
100
AcDbEntity
  8
0
100
AcDbSpline
 62
7
  6
BYLAYER
 70
0
 71
3
 72
10
 73
6
 74
0
 42
0.0000001
 43
0.0000001
 44
0.0000000001
 40
0.0
 40
0.0
 40
0.0
 40
0.0
 40
0.5649111324
 40
0.8037251648
 40
1.0
 40
1.0
 40
1.0
 40
1.0
 10
65.7207634583
 20
239.8082624187
 30
0.0
 10
65.3722232185
 20
239.6412156212
 30
0.0
 10
64.855152533
 20
239.4389420208
 30
0.0
 10
64.1820677812
 20
239.3090650573
 30
0.0
 10
63.8824015102
 20
239.2971687714
 30
0.0
 10
63.7486039861
 20
239.3086381148
 30
0.0
  0
SPLINE
  5
2F8
100
AcDbEntity
  8
0
100
AcDbSpline
 62
7
  6
BYLAYER
 70
0
 71
3
 72
11
 73
7
 74
0
 42
0.0000001
 43
0.0000001
 44
0.0000000001
 40
0.0
 40
0.0
 40
0.0
 40
0.0
 40
0.2451881216
 40
0.5000702199
 40
0.7549146984
 40
1.0
 40
1.0
 40
1.0
 40
1.0
 10
65.7207664884
 20
233.976438874
 30
0.0
 10
66.0599914449
 20
234.3657803518
 30
0.0
 10
66.6117147521
 20
235.2944084067
 30
0.0
 10
66.8921865999
 20
236.8927332761
 30
0.0
 10
66.611480791
 20
238.4907856071
 30
0.0
 10
66.0598495967
 20
239.4190886334
 30
0.0
 10
65.7207664884
 20
239.8082664863
 30
0.0
  0
SPLINE
  5
2F9
100
AcDbEntity
  8
0
100
AcDbSpline
 62
7
  6
BYLAYER
 70
0
 71
3
 72
10
 73
6
 74
0
 42
0.0000001
 43
0.0000001
 44
0.0000000001
 40
0.0
 40
0.0
 40
0.0
 40
0.0
 40
0.5614515087
 40
0.8015283958
 40
1.0
 40
1.0
 40
1.0
 40
1.0
 10
65.720768653
 20
233.9764413322
 30
0.0
 10
65.374358703
 20
234.1424685604
 30
0.0
 10
64.8588539125
 20
234.3443907587
 30
0.0
 10
64.185968306
 20
234.4752266807
 30
0.0
 10
63.8838949605
 20
234.4876704854
 30
0.0
 10
63.7485980807
 20
234.4760723824
 30
0.0
  0
SPLINE
  5
2FA
100
AcDbEntity
  8
0
100
AcDbSpline
 62
7
  6
BYLAYER
 70
0
 71
3
 72
10
 73
6
 74
0
 42
0.0000001
 43
0.0000001
 44
0.0000000001
 40
0.0
 40
0.0
 40
0.0
 40
0.0
 40
0.2332558713
 40
0.4753542689
 40
1.0
 40
1.0
 40
1.0
 40
1.0
 10
62.8059121325
 20
232.1255990145
 30
0.0
 10
63.0850458978
 20
232.125616659
 30
0.0
 10
63.6572506546
 20
232.211910389
 30
0.0
 10
64.7538203445
 20
232.721598598
 30
0.0
 10
65.398610676
 20
233.4375620008
 30
0.0
 10
65.7207673874
 20
233.9764428664
 30
0.0
  0
SPLINE
  5
2FB
100
AcDbEntity
  8
0
100
AcDbSpline
 62
7
  6
BYLAYER
 70
0
 71
3
 72
9
 73
5
 74
0
 42
0.0000001
 43
0.0000001
 44
0.0000000001
 40
0.0
 40
0.0
 40
0.0
 40
0.0
 40
0.5357632108
 40
1.0
 40
1.0
 40
1.0
 40
1.0
 10
62.8059133346
 20
232.1256013096
 30
0.0
 10
62.6425741368
 20
232.3628398162
 30
0.0
 10
62.2629832663
 20
232.7679447225
 30
0.0
 10
61.7204420758
 20
232.942357179
 30
0.0
 10
61.4708643891
 20
232.9423570633
 30
0.0
  0
SPLINE
  5
2FC
100
AcDbEntity
  8
0
100
AcDbSpline
 62
7
  6
BYLAYER
 70
0
 71
3
 72
9
 73
5
 74
0
 42
0.0000001
 43
0.0000001
 44
0.0000000001
 40
0.0
 40
0.0
 40
0.0
 40
0.0
 40
0.2370326005
 40
1.0
 40
1.0
 40
1.0
 40
1.0
 10
63.7486036397
 20
234.4760671727
 30
0.0
 10
63.8472134519
 20
234.6473236983
 30
0.0
 10
64.1999952866
 20
235.405978612
 30
0.0
 10
64.3278741393
 20
236.2562558758
 30
0.0
 10
64.3278741286
 20
236.8923529412
 30
0.0
  0
SPLINE
  5
2FD
100
AcDbEntity
  8
0
100
AcDbSpline
 62
7
  6
BYLAYER
 70
0
 71
3
 72
9
 73
5
 74
0
 42
0.0000001
 43
0.0000001
 44
0.0000000001
 40
0.0
 40
0.0
 40
0.0
 40
0.0
 40
0.4614544499
 40
1.0
 40
1.0
 40
1.0
 40
1.0
 10
61.4708655311
 20
232.942356991
 30
0.0
 10
61.9080334279
 20
232.9424046618
 30
0.0
 10
62.8616520712
 20
233.2804687597
 30
0.0
 10
63.493969089
 20
234.0339538156
 30
0.0
 10
63.7485996476
 20
234.4760725934
 30
0.0
  0
SPLINE
  5
2FE
100
AcDbEntity
  8
0
100
AcDbSpline
 62
7
  6
BYLAYER
 70
0
 71
3
 72
9
 73
5
 74
0
 42
0.0000001
 43
0.0000001
 44
0.0000000001
 40
0.0
 40
0.0
 40
0.0
 40
0.0
 40
0.5385456817
 40
1.0
 40
1.0
 40
1.0
 40
1.0
 10
63.7485996952
 20
239.3086333102
 30
0.0
 10
63.4939691825
 20
239.7507522604
 30
0.0
 10
62.8616518172
 20
240.5042366503
 30
0.0
 10
61.9080333576
 20
240.8423020381
 30
0.0
 10
61.4708655839
 20
240.8423490856
 30
0.0
  0
SPLINE
  5
2FF
100
AcDbEntity
  8
0
100
AcDbSpline
 62
7
  6
BYLAYER
 70
0
 71
3
 72
9
 73
5
 74
0
 42
0.0000001
 43
0.0000001
 44
0.0000000001
 40
0.0
 40
0.0
 40
0.0
 40
0.0
 40
0.2622645856
 40
1.0
 40
1.0
 40
1.0
 40
1.0
 10
64.3278741366
 20
236.8923529412
 30
0.0
 10
64.3278741329
 20
237.1108226806
 30
0.0
 10
64.2822946405
 20
237.9413608369
 30
0.0
 10
64.0552561974
 20
238.776071991
 30
0.0
 10
63.7486036021
 20
239.3086386797
 30
0.0
  0
SPLINE
  5
300
100
AcDbEntity
  8
0
100
AcDbSpline
 62
7
  6
BYLAYER
 70
0
 71
3
 72
9
 73
5
 74
0
 42
0.0000001
 43
0.0000001
 44
0.0000000001
 40
0.0
 40
0.0
 40
0.0
 40
0.0
 40
0.5037551864
 40
1.0
 40
1.0
 40
1.0
 40
1.0
 10
61.1716149928
 20
241.1642926321
 30
0.0
 10
61.4156202779
 20
241.3204622032
 30
0.0
 10
61.9422710254
 20
241.5707510606
 30
0.0
 10
62.5205314629
 20
241.659078158
 30
0.0
 10
62.8059148105
 20
241.6591063758
 30
0.0
  0
SPLINE
  5
301
100
AcDbEntity
  8
0
100
AcDbSpline
 62
7
  6
BYLAYER
 70
0
 71
3
 72
9
 73
5
 74
0
 42
0.0000001
 43
0.0000001
 44
0.0000000001
 40
0.0
 40
0.0
 40
0.0
 40
0.0
 40
0.5357632108
 40
1.0
 40
1.0
 40
1.0
 40
1.0
 10
298.9356196422
 20
241.6591045728
 30
0.0
 10
299.09895884
 20
241.4218660662
 30
0.0
 10
299.4785497105
 20
241.0167611598
 30
0.0
 10
300.0210909011
 20
240.8423487034
 30
0.0
 10
300.2706685878
 20
240.842348819
 30
0.0
  0
SPLINE
  5
302
100
AcDbEntity
  8
0
100
AcDbSpline
 62
7
  6
BYLAYER
 70
0
 71
3
 72
10
 73
6
 74
0
 42
0.0000001
 43
0.0000001
 44
0.0000000001
 40
0.0
 40
0.0
 40
0.0
 40
0.0
 40
0.2332560323
 40
0.4753541432
 40
1.0
 40
1.0
 40
1.0
 40
1.0
 10
298.9356208444
 20
241.6591068679
 30
0.0
 10
298.6564866634
 20
241.6590892233
 30
0.0
 10
298.0842812223
 20
241.5727997202
 30
0.0
 10
296.9877087661
 20
241.063112474
 30
0.0
 10
296.3429226353
 20
240.3471444405
 30
0.0
 10
296.0207655894
 20
239.8082630154
 30
0.0
  0
SPLINE
  5
303
100
AcDbEntity
  8
0
100
AcDbSpline
 62
7
  6
BYLAYER
 70
0
 71
3
 72
10
 73
6
 74
0
 42
0.0000001
 43
0.0000001
 44
0.0000000001
 40
0.0
 40
0.0
 40
0.0
 40
0.0
 40
0.5614515087
 40
0.8015283958
 40
1.0
 40
1.0
 40
1.0
 40
1.0
 10
296.0207643238
 20
239.8082645502
 30
0.0
 10
296.3671742738
 20
239.6422373219
 30
0.0
 10
296.8826790643
 20
239.4403151237
 30
0.0
 10
297.5555646708
 20
239.3094792017
 30
0.0
 10
297.8576380163
 20
239.297035397
 30
0.0
 10
297.9929348962
 20
239.3086334999
 30
0.0
  0
SPLINE
  5
304
100
AcDbEntity
  8
0
100
AcDbSpline
 62
7
  6
BYLAYER
 70
0
 71
3
 72
11
 73
7
 74
0
 42
0.0000001
 43
0.0000001
 44
0.0000000001
 40
0.0
 40
0.0
 40
0.0
 40
0.0
 40
0.2451828723
 40
0.5000544007
 40
0.7548946098
 40
1.0
 40
1.0
 40
1.0
 40
1.0
 10
296.0207664884
 20
239.8082655381
 30
0.0
 10
295.6815428028
 20
239.4189254541
 30
0.0
 10
295.1299463676
 20
238.4903065653
 30
0.0
 10
294.8488367664
 20
236.8920630794
 30
0.0
 10
295.1301345503
 20
235.2940310904
 30
0.0
 10
295.681649595
 20
234.3656574583
 30
0.0
 10
296.0207664884
 20
233.9764407684
 30
0.0
  0
SPLINE
  5
305
100
AcDbEntity
  8
0
100
AcDbSpline
 62
7
  6
BYLAYER
 70
0
 71
3
 72
10
 73
6
 74
0
 42
0.0000001
 43
0.0000001
 44
0.0000000001
 40
0.0
 40
0.0
 40
0.0
 40
0.0
 40
0.5649140769
 40
0.8037270286
 40
1.0
 40
1.0
 40
1.0
 40
1.0
 10
296.020769687
 20
233.9764435444
 30
0.0
 10
296.3693117139
 20
234.1434911873
 30
0.0
 10
296.8863836889
 20
234.3457650558
 30
0.0
 10
297.5594685535
 20
234.4756411838
 30
0.0
 10
297.8591327503
 20
234.4875370009
 30
0.0
 10
297.9929289907
 20
234.4760677676
 30
0.0
  0
SPLINE
  5
306
100
AcDbEntity
  8
0
100
AcDbSpline
 62
7
  6
BYLAYER
 70
0
 71
3
 72
10
 73
6
 74
0
 42
0.0000001
 43
0.0000001
 44
0.0000000001
 40
0.0
 40
0.0
 40
0.0
 40
0.0
 40
0.5246459876
 40
0.766744015
 40
1.0
 40
1.0
 40
1.0
 40
1.0
 10
296.0207647802
 20
233.9764439917
 30
0.0
 10
296.3429218608
 20
233.4375621207
 30
0.0
 10
296.9877085672
 20
232.7215940839
 30
0.0
 10
298.0842809863
 20
232.2119058768
 30
0.0
 10
298.6564866116
 20
232.1256162556
 30
0.0
 10
298.9356208444
 20
232.1255990145
 30
0.0
  0
SPLINE
  5
307
100
AcDbEntity
  8
0
100
AcDbSpline
 62
7
  6
BYLAYER
 70
0
 71
3
 72
9
 73
5
 74
0
 42
0.0000001
 43
0.0000001
 44
0.0000000001
 40
0.0
 40
0.0
 40
0.0
 40
0.0
 40
0.5377615305
 40
1.0
 40
1.0
 40
1.0
 40
1.0
 10
298.9356203551
 20
232.1256001596
 30
0.0
 10
299.0995715058
 20
232.3637277179
 30
0.0
 10
299.4796158819
 20
232.768783422
 30
0.0
 10
300.0221610503
 20
232.9423567586
 30
0.0
 10
300.2706687134
 20
232.9423567967
 30
0.0
  0
SPLINE
  5
308
100
AcDbEntity
  8
0
100
AcDbSpline
 62
7
  6
BYLAYER
 70
0
 71
3
 72
9
 73
5
 74
0
 42
0.0000001
 43
0.0000001
 44
0.0000000001
 40
0.0
 40
0.0
 40
0.0
 40
0.0
 40
0.4966343108
 40
1.0
 40
1.0
 40
1.0
 40
1.0
 10
298.93561822
 20
241.6591063462
 30
0.0
 10
299.2061058866
 20
241.6590794831
 30
0.0
 10
299.7534498393
 20
241.5799243856
 30
0.0
 10
300.2568589056
 20
241.3544681241
 30
0.0
 10
300.4916476105
 20
241.2129244879
 30
0.0
  0
ENDSEC
  0
SECTION
  2
OBJECTS
  0
DICTIONARY
  5
C
100
AcDbDictionary
280
0
281
1
  3
ACAD_GROUP
350
D
  3
ACAD_MLINESTYLE
350
17
  3
ACAD_LAYOUT
350
1A
  3
ACAD_PLOTSETTINGS
350
19
  3
ACAD_PLOTSTYLENAME
350
E
  0
DICTIONARY
  5
D
102
{ACAD_REACTORS
330
C
102
}
100
AcDbDictionary
280
0
281
1
  0
ACDBDICTIONARYWDFLT
  5
E
102
{ACAD_REACTORS
330
C
102
}
100
AcDbDictionary
281
1
  3
Normal
350
F
100
AcDbDictionaryWithDefault
340
F
  0
DICTIONARY
  5
17
102
{ACAD_REACTORS
330
C
102
}
100
AcDbDictionary
280
0
281
1
  3
Standard
350
18
  0
DICTIONARY
  5
19
102
{ACAD_REACTORS
330
C
102
}
100
AcDbDictionary
281
1
  0
DICTIONARY
  5
1A
102
{ACAD_REACTORS
330
C
102
}
100
AcDbDictionary
281
1
  3
Model
350
309
  3
Layout1
350
30A
  0
ACDBPLACEHOLDER
  5
F
102
{ACAD_REACTORS
330
E
102
}
  0
MLINESTYLE
  5
18
102
{ACAD_REACTORS
330
17
102
}
100
AcDbMlineStyle
  2
STANDARD
 70
0
  3

 62
256
 51
90.0
 52
90.0
 71
2
 49
0.5
 62
256
  6
BYLAYER
 49
-0.5
 62
256
  6
BYLAYER
  0
LAYOUT
  5
309
102
{ACAD_REACTORS
330
1A
102
}
100
AcDbPlotSettings
  1

  2
none_device
  4

  6

 40
0.0
 41
0.0
 42
0.0
 43
0.0
 44
210.0
 45
297.0
 46
0.0
 47
0.0
 48
0.0
 49
0.0
140
0.0
141
0.0
142
1.0
143
1.0
 70
1024
 72
1
 73
0
 74
0
  7

 75
0
147
1.0
148
0.0
149
0.0
100
AcDbLayout
  1
Model
 70
0
 71
0
 10
0.0
 20
0.0
 11
210.0
 21
297.0
 12
0.0
 22
0.0
 32
0.0
 14
0.0
 24
0.0
 34
0.0
 15
0.0
 25
0.0
 35
0.0
146
0.0
 13
0.0
 23
0.0
 33
0.0
 16
1.0
 26
0.0
 36
0.0
 17
0.0
 27
1.0
 37
0.0
 76
0
330
210
345
0
346
0
  0
LAYOUT
  5
30A
102
{ACAD_REACTORS
330
1A
102
}
100
AcDbPlotSettings
  1

  2
none_device
  4

  6

 40
0.0
 41
0.0
 42
0.0
 43
0.0
 44
210.0
 45
297.0
 46
0.0
 47
0.0
 48
0.0
 49
0.0
140
0.0
141
0.0
142
1.0
143
1.0
 70
0
 72
1
 73
0
 74
0
  7

 75
0
147
1.0
148
0.0
149
0.0
100
AcDbLayout
  1
Layout1
 70
0
 71
1
 10
0.0
 20
0.0
 11
210.0
 21
297.0
 12
0.0
 22
0.0
 32
0.0
 14
0.0
 24
0.0
 34
0.0
 15
0.0
 25
0.0
 35
0.0
146
0.0
 13
0.0
 23
0.0
 33
0.0
 16
1.0
 26
0.0
 36
0.0
 17
0.0
 27
1.0
 37
0.0
 76
0
330
211
345
0
346
0
  0
ENDSEC
  0
EOF
