999
DXF file: C:\Users\sesa63760\Dev\_Creo\CAD\MCADID0003710_3D-CAD\drw0001_1.dxf
999
Pro/ENGINEER 2019471 by Parametric Technology Corporation
  0
SECTION
  2
HEADER
  9
$ACADVER
  1
AC1024
  9
$DWGCODEPAGE
  3
ANSI_1252
  9
$EXTMAX
 10
38.8971117302
 20
55.011629447
 30
0.0
  9
$EXTMIN
 10
0.0
 20
0.0
 30
0.0
  9
$LIMMIN
 10
0.0
 20
0.0
  9
$LIMMAX
 10
38.8971117302
 20
55.011629447
  9
$VIEWCTR
 10
19.4485558651
 20
27.5058147235
  9
$VIEWSIZE
 40
55.011629447
  9
$CLAYER
  8
0
  9
$LTSCALE
 40
3.5859432528
  9
$CELTYPE
  6
BYLAYER
  9
$DIMSCALE
 40
1.0
  9
$DIMASZ
 40
0.4630608539
  9
$DIMEXO
 40
1.0
  9
$DIMDLI
 40
2.4775607929
  9
$DIMEXE
 40
1.0
  9
$DIMCEN
 40
0.5867907141
  9
$DIMLFAC
 40
1.0
  9
$DIMBLK
  1
_FILLED
  9
$DIMALT
 70
0
  9
$DIMALTF
 40
0.0393700787
  9
$DIMTXT
 40
0.6482851955
  9
$DIMTOL
 70
1
  9
$DIMLIM
 70
0
  9
$DIMTFAC
 40
1.0
  9
$DIMTP
 40
0.01
  9
$DIMTM
 40
0.01
  9
$DIMGAP
 40
0.625
  9
$DIMDSEP
 70
46
  9
$AUNITS
 70
0
  9
$PDMODE
 70
3
  9
$PDSIZE
 40
0.3125
  9
$HANDSEED
  5
26C
  9
$TILEMODE
 70
1
  9
$MEASUREMENT
 70
1
  9
$INSUNITS
 70
4
  0
ENDSEC
  0
SECTION
  2
CLASSES
  0
CLASS
  1
ACDBDICTIONARYWDFLT
  2
AcDbDictionaryWithDefault
  3
AutoCAD 2000
 90
0
 91
1
280
0
281
0
  0
CLASS
  1
ACDBPLACEHOLDER
  2
AcDbPlaceHolder
  3
AutoCAD 2000
 90
0
 91
1
280
0
281
0
  0
CLASS
  1
LAYOUT
  2
AcDbLayout
  3
AutoCAD 2000
 90
0
 91
0
280
0
281
0
  0
ENDSEC
  0
SECTION
  2
TABLES
  0
TABLE
  2
VPORT
  5
8
100
AcDbSymbolTable
 70
2
  0
VPORT
  5
1F4
100
AcDbSymbolTableRecord
100
AcDbViewportTableRecord
  2
*ACTIVE
 70
0
 10
0.0
 20
0.0
 11
1.0
 21
1.0
 12
19.4485558651
 22
27.5058147235
 13
0.0
 23
0.0
 14
1.0
 24
1.0
 15
0.0
 25
0.0
 16
0.0
 26
0.0
 36
1.0
 17
0.0
 27
0.0
 37
0.0
 40
55.011629447
 41
0.7070707071
 42
50.0
 43
0.0
 44
0.0
 50
0.0
 51
0.0
 71
0
 72
100
 73
1
 74
1
 75
0
 76
0
 77
0
 78
0
  0
ENDTAB
  0
TABLE
  2
LTYPE
  5
5
100
AcDbSymbolTable
 70
6
  0
LTYPE
  5
14
100
AcDbSymbolTableRecord
100
AcDbLinetypeTableRecord
  2
BYBLOCK
 70
0
  3

 72
65
 73
0
 40
0.0
  0
LTYPE
  5
15
100
AcDbSymbolTableRecord
100
AcDbLinetypeTableRecord
  2
BYLAYER
 70
0
  3

 72
65
 73
0
 40
0.0
  0
LTYPE
  5
16
100
AcDbSymbolTableRecord
100
AcDbLinetypeTableRecord
  2
CONTINUOUS
 70
64
  3
Solid line
 72
65
 73
0
 40
0.0
  0
LTYPE
  5
1F5
100
AcDbSymbolTableRecord
100
AcDbLinetypeTableRecord
  2
CENTER
 70
64
  3
____ _ ____ _ ____ _ ____ _ ____ _ ____ _ ____
 72
65
 73
4
 40
0.6
 49
0.375
 74
0
 49
-0.075
 74
0
 49
0.075
 74
0
 49
-0.075
 74
0
  0
LTYPE
  5
1F6
100
AcDbSymbolTableRecord
100
AcDbLinetypeTableRecord
  2
HIDDEN
 70
64
  3
- - - - - - - - - - - - - - - - - - - -
 72
65
 73
2
 40
0.2
 49
0.1
 74
0
 49
-0.1
 74
0
  0
LTYPE
  5
1F7
100
AcDbSymbolTableRecord
100
AcDbLinetypeTableRecord
  2
PHANTOM
 70
64
  3
_____ _ _ _____ _ _ _____ _ _ _____
 72
65
 73
6
 40
0.8
 49
0.45
 74
0
 49
-0.05
 74
0
 49
0.1
 74
0
 49
-0.05
 74
0
 49
0.1
 74
0
 49
-0.05
 74
0
  0
LTYPE
  5
1F8
100
AcDbSymbolTableRecord
100
AcDbLinetypeTableRecord
  2
DOT
 70
64
  3
. . . . . . . . . . . . . . . . . . . .
 72
65
 73
2
 40
0.2
 49
0.1
 74
0
 49
-0.1
 74
0
  0
LTYPE
  5
1F9
100
AcDbSymbolTableRecord
100
AcDbLinetypeTableRecord
  2
DASHED
 70
64
  3
- - - - - - - - - - - - - - - - - - - -
 72
65
 73
2
 40
0.2
 49
0.1
 74
0
 49
-0.1
 74
0
  0
ENDTAB
  0
TABLE
  2
LAYER
  5
2
100
AcDbSymbolTable
 70
36
  0
LAYER
  5
10
100
AcDbSymbolTableRecord
100
AcDbLayerTableRecord
  2
0
 70
0
 62
7
  6
CONTINUOUS
370
-3
390
F
  0
LAYER
  5
1FA
100
AcDbSymbolTableRecord
100
AcDbLayerTableRecord
  2
DEFAULT_1
 70
0
 62
7
  6
CENTER
370
-3
390
F
  0
LAYER
  5
1FB
100
AcDbSymbolTableRecord
100
AcDbLayerTableRecord
  2
DEFAULT_2
 70
0
 62
7
  6
HIDDEN
370
-3
390
F
  0
LAYER
  5
1FC
100
AcDbSymbolTableRecord
100
AcDbLayerTableRecord
  2
DEFAULT_3
 70
0
 62
7
  6
PHANTOM
370
-3
390
F
  0
LAYER
  5
1FD
100
AcDbSymbolTableRecord
100
AcDbLayerTableRecord
  2
00_COMPONENTS
 70
0
 62
7
  6
CONTINUOUS
370
-3
390
F
  0
LAYER
  5
1FE
100
AcDbSymbolTableRecord
100
AcDbLayerTableRecord
  2
01_1_DEFAULT_DATUMS
 70
0
 62
7
  6
CONTINUOUS
370
-3
390
F
  0
LAYER
  5
1FF
100
AcDbSymbolTableRecord
100
AcDbLayerTableRecord
  2
01_PLANES
 70
0
 62
7
  6
CONTINUOUS
370
-3
390
F
  0
LAYER
  5
200
100
AcDbSymbolTableRecord
100
AcDbLayerTableRecord
  2
02_COORD_SYS
 70
0
 62
7
  6
CONTINUOUS
370
-3
390
F
  0
LAYER
  5
201
100
AcDbSymbolTableRecord
100
AcDbLayerTableRecord
  2
03_AXES
 70
0
 62
7
  6
CONTINUOUS
370
-3
390
F
  0
LAYER
  5
202
100
AcDbSymbolTableRecord
100
AcDbLayerTableRecord
  2
04_POINTS
 70
0
 62
7
  6
CONTINUOUS
370
-3
390
F
  0
LAYER
  5
203
100
AcDbSymbolTableRecord
100
AcDbLayerTableRecord
  2
05_CURVES
 70
0
 62
7
  6
CONTINUOUS
370
-3
390
F
  0
LAYER
  5
204
100
AcDbSymbolTableRecord
100
AcDbLayerTableRecord
  2
06_SURFS
 70
0
 62
7
  6
CONTINUOUS
370
-3
390
F
  0
LAYER
  5
205
100
AcDbSymbolTableRecord
100
AcDbLayerTableRecord
  2
07_COSMETICS
 70
0
 62
7
  6
CONTINUOUS
370
-3
390
F
  0
LAYER
  5
206
100
AcDbSymbolTableRecord
100
AcDbLayerTableRecord
  2
10_NOTES
 70
0
 62
7
  6
CONTINUOUS
370
-3
390
F
  0
LAYER
  5
207
100
AcDbSymbolTableRecord
100
AcDbLayerTableRecord
  2
11_NOTES_PUB
 70
0
 62
7
  6
CONTINUOUS
370
-3
390
F
  0
LAYER
  5
208
100
AcDbSymbolTableRecord
100
AcDbLayerTableRecord
  2
13_REF_GTOL
 70
0
 62
7
  6
CONTINUOUS
370
-3
390
F
  0
LAYER
  5
209
100
AcDbSymbolTableRecord
100
AcDbLayerTableRecord
  2
16_MISC
 70
0
 62
7
  6
CONTINUOUS
370
-3
390
F
  0
LAYER
  5
20A
100
AcDbSymbolTableRecord
100
AcDbLayerTableRecord
  2
17_NO_PRINT
 70
0
 62
7
  6
CONTINUOUS
370
-3
390
F
  0
LAYER
  5
20B
100
AcDbSymbolTableRecord
100
AcDbLayerTableRecord
  2
18_DATUM_CAMS_JOINTS
 70
0
 62
7
  6
CONTINUOUS
370
-3
390
F
  0
LAYER
  5
20C
100
AcDbSymbolTableRecord
100
AcDbLayerTableRecord
  2
19_DATUM_FUNCTIONAL
 70
0
 62
7
  6
CONTINUOUS
370
-3
390
F
  0
LAYER
  5
20D
100
AcDbSymbolTableRecord
100
AcDbLayerTableRecord
  2
20_DATUM_KINEMATIC_SCHEME
 70
0
 62
7
  6
CONTINUOUS
370
-3
390
F
  0
ENDTAB
  0
TABLE
  2
STYLE
  5
3
100
AcDbSymbolTable
 70
1
  0
STYLE
  5
11
100
AcDbSymbolTableRecord
100
AcDbTextStyleTableRecord
  2
STANDARD
 70
0
 40
0.0
 41
1.0
 50
0.0
 71
0
 42
0.2
  3
ARIAL.TTF
  4

  0
STYLE
  5
20E
100
AcDbSymbolTableRecord
100
AcDbTextStyleTableRecord
  2
TEXTSTYLE_1
 70
0
 40
0.0
 41
0.8
 50
0.0
 71
0
 42
0.2
  3
gdt
  4

  0
ENDTAB
  0
TABLE
  2
VIEW
  5
6
100
AcDbSymbolTable
 70
0
  0
ENDTAB
  0
TABLE
  2
UCS
  5
7
100
AcDbSymbolTable
 70
0
  0
ENDTAB
  0
TABLE
  2
APPID
  5
9
100
AcDbSymbolTable
 70
1
  0
APPID
  5
20F
100
AcDbSymbolTableRecord
100
AcDbRegAppTableRecord
  2
ACAD
 70
0
  0
ENDTAB
  0
TABLE
  2
BLOCK_RECORD
  5
1
100
AcDbSymbolTable
 70
0
  0
BLOCK_RECORD
  5
210
100
AcDbSymbolTableRecord
100
AcDbBlockTableRecord
  2
*Model_Space
  0
BLOCK_RECORD
  5
211
100
AcDbSymbolTableRecord
100
AcDbBlockTableRecord
  2
*Paper_Space
  0
BLOCK_RECORD
  5
212
100
AcDbSymbolTableRecord
100
AcDbBlockTableRecord
  2
_FILLED
  0
ENDTAB
  0
TABLE
  2
DIMSTYLE
  5
A
100
AcDbSymbolTable
 70
1
100
AcDbDimStyleTable
 71
0
  0
DIMSTYLE
105
213
100
AcDbSymbolTableRecord
100
AcDbDimStyleTableRecord
  2
STANDARD
 70
0
  3

  4

 40
1.0
 41
0.4630608539
 42
1.0
 43
0.38
 44
1.0
 45
0.0
 46
0.0
 47
0.01
 48
0.01
140
0.6482851955
141
0.09
142
0.0
143
25.4
144
1.0
145
0.0
146
1.0
147
0.625
 71
1
 72
0
 73
0
 74
0
 75
0
 76
0
 77
1
 78
8
 79
2
170
0
171
1
172
0
173
0
174
0
175
0
176
0
177
0
178
0
270
2
179
2
271
2
272
2
273
2
274
2
275
0
280
0
281
0
282
0
283
1
284
8
285
0
286
0
287
3
288
0
340
11
278
46
341
212
342
212
343
212
344
212
  0
ENDTAB
  0
ENDSEC
  0
SECTION
  2
BLOCKS
  0
BLOCK
  5
20
100
AcDbEntity
  8
0
100
AcDbBlockBegin
  2
*Model_Space
 70
0
 10
0.0
 20
0.0
 30
0.0
  3
*Model_Space
  1

  0
ENDBLK
  5
21
100
AcDbEntity
  8
0
100
AcDbBlockEnd
  0
BLOCK
  5
1C
100
AcDbEntity
  8
0
100
AcDbBlockBegin
  2
*Paper_Space
 70
0
 10
0.0
 20
0.0
 30
0.0
  3
*Paper_Space
  1

  0
ENDBLK
  5
1D
100
AcDbEntity
  8
0
100
AcDbBlockEnd
  0
BLOCK
  5
214
100
AcDbEntity
  8
0
100
AcDbBlockBegin
  2
_FILLED
 70
64
 10
0.0
 20
0.0
  3
_FILLED
  1

  0
SOLID
  5
215
100
AcDbEntity
  8
0
  6
BYBLOCK
 62
0
100
AcDbTrace
 10
0.0
 20
0.0
 11
-1.0
 21
0.25
 12
-1.0
 22
-0.25
 13
-1.0
 23
-0.25
  0
ENDBLK
  5
216
100
AcDbEntity
  8
0
  6
BYBLOCK
 62
0
100
AcDbBlockEnd
  0
ENDSEC
  0
SECTION
  2
ENTITIES
  0
LINE
  5
217
100
AcDbEntity
  8
0
100
AcDbLine
 62
7
  6
BYLAYER
 10
5.6717050326
 20
43.9088542775
 11
4.823180428
 21
43.4189612928
  0
LINE
  5
218
100
AcDbEntity
  8
0
100
AcDbLine
 62
7
  6
BYLAYER
 10
5.5731770703
 20
43.3446748743
 11
6.421701675
 21
43.834567859
  0
LINE
  5
219
100
AcDbEntity
  8
0
100
AcDbLine
 62
7
  6
BYLAYER
 10
7.2122906316
 20
39.3626041789
 11
5.8687933409
 21
38.5869402866
  0
LINE
  5
21A
100
AcDbEntity
  8
0
100
AcDbLine
 62
7
  6
BYLAYER
 10
4.9681595882
 20
16.9851296162
 11
14.8676957403
 21
11.2697590529
  0
LINE
  5
21B
100
AcDbEntity
  8
0
100
AcDbLine
 62
7
  6
BYLAYER
 10
4.5125124826
 20
42.7322823804
 11
4.5125124826
 21
17.9922591414
  0
LINE
  5
21C
100
AcDbEntity
  8
0
100
AcDbLine
 62
7
  6
BYLAYER
 10
14.4120486347
 20
12.2768885781
 11
4.5125124826
 21
17.9922591414
  0
LINE
  5
21D
100
AcDbEntity
  8
0
100
AcDbLine
 62
7
  6
BYLAYER
 10
15.9676770768
 20
12.3585232996
 11
15.2605641861
 21
12.7667658818
  0
LINE
  5
21E
100
AcDbEntity
  8
0
100
AcDbLine
 62
7
  6
BYLAYER
 10
17.0283328427
 20
12.9708895363
 11
15.2605732393
 21
13.9914829303
  0
LINE
  5
21F
100
AcDbEntity
  8
0
100
AcDbLine
 62
7
  6
BYLAYER
 10
14.1999086516
 20
39.3439195592
 11
13.3513840469
 21
38.8540265746
  0
LINE
  5
220
100
AcDbEntity
  8
0
100
AcDbLine
 62
7
  6
BYLAYER
 10
15.967653522
 20
14.6446600341
 11
15.6140986665
 21
14.8487804073
  0
LINE
  5
221
100
AcDbEntity
  8
0
100
AcDbLine
 62
7
  6
BYLAYER
 10
15.6140986665
 20
15.8285833079
 11
15.7555206087
 21
15.7469351586
  0
LINE
  5
222
100
AcDbEntity
  8
0
100
AcDbLine
 62
7
  6
BYLAYER
 10
14.4120486347
 20
37.0169118171
 11
15.2605732393
 21
37.5068048018
  0
LINE
  5
223
100
AcDbEntity
  8
0
100
AcDbLine
 62
7
  6
BYLAYER
 10
17.2404374895
 20
16.7675448603
 11
15.2605732393
 21
17.9105941589
  0
LINE
  5
224
100
AcDbEntity
  8
0
100
AcDbLine
 62
7
  6
BYLAYER
 10
11.7122704857
 20
31.5683639136
 11
10.3687731949
 21
30.7927000213
  0
LINE
  5
225
100
AcDbEntity
  8
0
100
AcDbLine
 62
7
  6
BYLAYER
 10
7.2122906316
 20
27.9315703391
 11
5.8687933409
 21
27.1559064467
  0
LINE
  5
226
100
AcDbEntity
  8
0
100
AcDbLine
 62
7
  6
BYLAYER
 10
14.4120486347
 20
12.2768885781
 11
14.4120486347
 21
37.0169118171
  0
LINE
  5
227
100
AcDbEntity
  8
0
100
AcDbLine
 62
7
  6
BYLAYER
 10
15.2605732393
 20
37.5068048018
 11
15.2605732393
 21
12.7667815627
  0
LINE
  5
228
100
AcDbEntity
  8
0
100
AcDbLine
 62
7
  6
BYLAYER
 10
15.6140986622
 20
15.8285833103
 11
15.6140986622
 21
14.8487804094
  0
LINE
  5
229
100
AcDbEntity
  8
0
100
AcDbLine
 62
7
  6
BYLAYER
 10
15.9676535248
 20
14.6446600321
 11
15.9676535248
 21
13.5832591724
  0
LINE
  5
22A
100
AcDbEntity
  8
0
100
AcDbLine
 62
7
  6
BYLAYER
 10
16.816185195
 20
13.9098204019
 11
16.816185195
 21
13.093370267
  0
LINE
  5
22B
100
AcDbEntity
  8
0
100
AcDbLine
 62
7
  6
BYLAYER
 10
17.0283328323
 20
11.9910866297
 11
17.0283328323
 21
12.9708895303
  0
LINE
  5
22C
100
AcDbEntity
  8
0
100
AcDbLine
 62
7
  6
BYLAYER
 10
26.9984487134
 20
22.4013016382
 11
24.3114464124
 21
23.9526080447
  0
LINE
  5
22D
100
AcDbEntity
  8
0
100
AcDbLine
 62
7
  6
BYLAYER
 10
24.3114464124
 20
24.9324109453
 11
27.8469950467
 21
22.8912071678
  0
LINE
  5
22E
100
AcDbEntity
  8
0
100
AcDbLine
 62
7
  6
BYLAYER
 10
29.2612027349
 20
23.7076954835
 11
25.7256541007
 21
25.748899261
  0
LINE
  5
22F
100
AcDbEntity
  8
0
100
AcDbLine
 62
7
  6
BYLAYER
 10
11.7122704857
 20
20.1373300738
 11
10.3687731949
 21
19.3616661814
  0
LINE
  5
230
100
AcDbEntity
  8
0
100
AcDbLine
 62
7
  6
BYLAYER
 10
24.3114464203
 20
24.9324109449
 11
24.3114464203
 21
23.9526080443
  0
LINE
  5
231
100
AcDbEntity
  8
0
100
AcDbLine
 62
7
  6
BYLAYER
 10
29.3597000655
 20
28.5175964068
 11
15.2605732393
 21
20.3775103282
  0
LINE
  5
232
100
AcDbEntity
  8
0
100
AcDbLine
 62
7
  6
BYLAYER
 10
15.2605732393
 20
19.8702157326
 11
30.1096967064
 21
28.4433099891
  0
LINE
  5
233
100
AcDbEntity
  8
0
100
AcDbLine
 62
7
  6
BYLAYER
 10
15.2605732393
 20
19.7069180743
 11
24.3114464124
 21
24.9324109453
  0
LINE
  5
234
100
AcDbEntity
  8
0
100
AcDbLine
 62
7
  6
BYLAYER
 10
25.7256541007
 20
25.748899261
 11
30.2511186486
 21
28.3616618399
  0
LINE
  5
235
100
AcDbEntity
  8
0
100
AcDbLine
 62
7
  6
BYLAYER
 10
30.2511186486
 20
27.3818589393
 11
26.574200434
 21
25.25900189
  0
LINE
  5
236
100
AcDbEntity
  8
0
100
AcDbLine
 62
7
  6
BYLAYER
 10
24.3114464124
 20
23.9526080447
 11
15.2605732393
 21
18.7271151738
  0
LINE
  5
237
100
AcDbEntity
  8
0
100
AcDbLine
 62
7
  6
BYLAYER
 10
30.1096967071
 20
28.4433099887
 11
30.2511186529
 21
28.3616618374
  0
LINE
  5
238
100
AcDbEntity
  8
0
100
AcDbLine
 62
7
  6
BYLAYER
 10
33.7866672786
 20
26.3204580648
 11
33.9280892244
 21
26.2388099135
  0
LINE
  5
239
100
AcDbEntity
  8
0
100
AcDbLine
 62
7
  6
BYLAYER
 10
29.8975637903
 20
25.7080237547
 11
27.8470260477
 21
24.5241523038
  0
LINE
  5
23A
100
AcDbEntity
  8
0
100
AcDbLine
 62
7
  6
BYLAYER
 10
25.5842720262
 20
23.2177584585
 11
15.8262608023
 21
17.5840016806
  0
LINE
  5
23B
100
AcDbEntity
  8
0
100
AcDbLine
 62
7
  6
BYLAYER
 10
13.3513840469
 20
38.8540265746
 11
5.5731770703
 21
43.3446748743
  0
LINE
  5
23C
100
AcDbEntity
  8
0
100
AcDbLine
 62
7
  6
BYLAYER
 10
6.421701675
 20
43.834567859
 11
14.1999086516
 21
39.3439195592
  0
LINE
  5
23D
100
AcDbEntity
  8
0
100
AcDbLine
 62
7
  6
BYLAYER
 10
33.7866672829
 20
26.3204580624
 11
29.2612027349
 21
23.7076954835
  0
LINE
  5
23E
100
AcDbEntity
  8
0
100
AcDbLine
 62
7
  6
BYLAYER
 10
27.8469950467
 20
22.8912071678
 11
17.2404374895
 21
16.7675448603
  0
LINE
  5
23F
100
AcDbEntity
  8
0
100
AcDbLine
 62
7
  6
BYLAYER
 10
15.2605732393
 20
15.6244765257
 11
15.6140986665
 21
15.8285833079
  0
LINE
  5
240
100
AcDbEntity
  8
0
100
AcDbLine
 62
7
  6
BYLAYER
 10
33.9280892251
 20
26.2388099131
 11
15.7555206087
 21
15.7469351586
  0
LINE
  5
241
100
AcDbEntity
  8
0
100
AcDbLine
 62
7
  6
BYLAYER
 10
15.6140986665
 20
14.8487804073
 11
15.2605732393
 21
14.6446736251
  0
LINE
  5
242
100
AcDbEntity
  8
0
100
AcDbLine
 62
7
  6
BYLAYER
 10
29.8975637903
 20
27.1777351651
 11
29.8975637903
 21
25.7080237547
  0
LINE
  5
243
100
AcDbEntity
  8
0
100
AcDbLine
 62
7
  6
BYLAYER
 10
30.2511186529
 20
28.3616618374
 11
30.2511186529
 21
27.3818589365
  0
LINE
  5
244
100
AcDbEntity
  8
0
100
AcDbLine
 62
7
  6
BYLAYER
 10
16.816185195
 20
13.9098204019
 11
34.9887538114
 21
24.4016951564
  0
LINE
  5
245
100
AcDbEntity
  8
0
100
AcDbLine
 62
7
  6
BYLAYER
 10
15.9676770768
 20
12.3585232996
 11
17.0283328427
 21
12.9708895363
  0
LINE
  5
246
100
AcDbEntity
  8
0
100
AcDbLine
 62
7
  6
BYLAYER
 10
17.0283328323
 20
12.3992983321
 11
34.9887538114
 21
22.7686903222
  0
LINE
  5
247
100
AcDbEntity
  8
0
100
AcDbLine
 62
7
  6
BYLAYER
 10
15.9676770765
 20
11.3787203989
 11
17.0283328323
 21
11.9910866297
  0
LINE
  5
248
100
AcDbEntity
  8
0
100
AcDbLine
 62
7
  6
BYLAYER
 10
34.9887538114
 20
24.4016951564
 11
34.9887538114
 21
22.7686903222
  0
SPLINE
  5
249
100
AcDbEntity
  8
0
100
AcDbSpline
 62
7
  6
BYLAYER
 70
0
 71
3
 72
14
 73
10
 74
0
 42
0.0000001
 43
0.0000001
 44
0.0000000001
 40
0.0
 40
0.0
 40
0.0
 40
0.0
 40
0.108046144
 40
0.2181359093
 40
0.3321085861
 40
0.4514831362
 40
0.5774302379
 40
0.7107534897
 40
1.0
 40
1.0
 40
1.0
 40
1.0
 10
29.3597055786
 20
28.5175868579
 30
0.0
 10
29.3842978096
 20
28.5317851052
 30
0.0
 10
29.4365073679
 20
28.5562510851
 30
0.0
 10
29.521001275
 20
28.5795865198
 30
0.0
 10
29.6110570058
 20
28.5896465659
 30
0.0
 10
29.7057288906
 20
28.5863613242
 30
0.0
 10
29.8041354015
 20
28.569859419
 30
0.0
 10
29.9427647323
 20
28.5294203494
 30
0.0
 10
30.0438614401
 20
28.4813191379
 30
0.0
 10
30.1096967071
 20
28.4433099887
 30
0.0
  0
SPLINE
  5
24A
100
AcDbEntity
  8
0
100
AcDbSpline
 62
7
  6
BYLAYER
 70
0
 71
3
 72
13
 73
9
 74
0
 42
0.0000001
 43
0.0000001
 44
0.0000000001
 40
0.0
 40
0.0
 40
0.0
 40
0.0
 40
0.1081033366
 40
0.2182377598
 40
0.332238321
 40
0.4516627248
 40
0.7106932938
 40
1.0
 40
1.0
 40
1.0
 40
1.0
 10
15.4676880549
 20
12.3089997363
 30
0.0
 10
15.4512915749
 20
12.3184660362
 30
0.0
 10
15.4197790475
 20
12.340478783
 30
0.0
 10
15.3781265393
 20
12.3814598816
 30
0.0
 10
15.3422954356
 20
12.4300958954
 30
0.0
 10
15.3016748457
 20
12.5064778348
 30
0.0
 10
15.2682305783
 20
12.6197935431
 30
0.0
 10
15.2605732393
 20
12.7161131896
 30
0.0
 10
15.2605732393
 20
12.7667815627
 30
0.0
  0
SPLINE
  5
24B
100
AcDbEntity
  8
0
100
AcDbSpline
 62
7
  6
BYLAYER
 70
0
 71
3
 72
15
 73
11
 74
0
 42
0.0000001
 43
0.0000001
 44
0.0000000001
 40
0.0
 40
0.0
 40
0.0
 40
0.0
 40
0.1141465952
 40
0.2373352439
 40
0.366975646
 40
0.4999989181
 40
0.6330223406
 40
0.7626631822
 40
0.8858525235
 40
1.0
 40
1.0
 40
1.0
 40
1.0
 10
14.1999086516
 20
39.3439195592
 30
0.0
 10
14.272514362
 20
39.3020015811
 30
0.0
 10
14.4159334458
 20
39.2014558044
 30
0.0
 10
14.613282257
 20
39.0168443155
 30
0.0
 10
14.7951271285
 20
38.7985881996
 30
0.0
 10
14.9546618011
 20
38.5549351349
 30
0.0
 10
15.0859055862
 20
38.2949478591
 30
0.0
 10
15.1840002146
 20
38.0283371608
 30
0.0
 10
15.2452060515
 20
37.7651212909
 30
0.0
 10
15.2605732393
 20
37.5906428278
 30
0.0
 10
15.2605732393
 20
37.5068048018
 30
0.0
  0
SPLINE
  5
24C
100
AcDbEntity
  8
0
100
AcDbSpline
 62
7
  6
BYLAYER
 70
0
 71
3
 72
24
 73
20
 74
0
 42
0.0000001
 43
0.0000001
 44
0.0000000001
 40
0.0
 40
0.0
 40
0.0
 40
0.0
 40
0.0213327387
 40
0.0428940312
 40
0.0874721313
 40
0.1352515371
 40
0.1871552036
 40
0.2435975103
 40
0.3045497932
 40
0.3696405588
 40
0.4382429646
 40
0.5095340881
 40
0.5825621528
 40
0.6562974232
 40
0.7296817886
 40
0.801664128
 40
0.871256188
 40
0.9376319943
 40
1.0
 40
1.0
 40
1.0
 40
1.0
 10
7.0437954315
 20
36.5517648183
 30
0.0
 10
7.0702085341
 20
36.5670140716
 30
0.0
 10
7.1253477516
 20
36.5943117811
 30
0.0
 10
7.2437993497
 20
36.6352735111
 30
0.0
 10
7.4065659635
 20
36.6592439914
 30
0.0
 10
7.6136053796
 20
36.6439320704
 30
0.0
 10
7.8303929622
 20
36.5863768568
 30
0.0
 10
8.0525329196
 20
36.4881872462
 30
0.0
 10
8.2756421279
 20
36.3516832514
 30
0.0
 10
8.4951984175
 20
36.1798185732
 30
0.0
 10
8.7066156977
 20
35.9761982045
 30
0.0
 10
8.9054569271
 20
35.745157047
 30
0.0
 10
9.0875230708
 20
35.4916217067
 30
0.0
 10
9.248904728
 20
35.2209650633
 30
0.0
 10
9.3861637959
 20
34.9389681829
 30
0.0
 10
9.4964108601
 20
34.6516733803
 30
0.0
 10
9.5772751088
 20
34.3651025335
 30
0.0
 10
9.626951576
 20
34.0854515129
 30
0.0
 10
9.639069177
 20
33.9012689819
 30
0.0
 10
9.639069177
 20
33.8121025317
 30
0.0
  0
SPLINE
  5
24D
100
AcDbEntity
  8
0
100
AcDbSpline
 62
7
  6
BYLAYER
 70
0
 71
3
 72
15
 73
11
 74
0
 42
0.0000001
 43
0.0000001
 44
0.0000000001
 40
0.0
 40
0.0
 40
0.0
 40
0.0
 40
0.1080101195
 40
0.218056829
 40
0.3319979719
 40
0.4513551129
 40
0.5772607239
 40
0.7104922321
 40
0.8514582493
 40
1.0
 40
1.0
 40
1.0
 40
1.0
 10
5.8687995631
 20
38.586929433
 30
0.0
 10
5.7950174946
 20
38.5443407236
 30
0.0
 10
5.6531751958
 20
38.4453504097
 30
0.0
 10
5.4657307189
 20
38.2609037097
 30
0.0
 10
5.3045550377
 20
38.0419557324
 30
0.0
 10
5.1710655145
 20
37.7910358472
 30
0.0
 10
5.0663641097
 20
37.5106468456
 30
0.0
 10
4.9911999181
 20
37.2034823004
 30
0.0
 10
4.9462695369
 20
36.87256404
 30
0.0
 10
4.9367895048
 20
36.6440638183
 30
0.0
 10
4.9367895048
 20
36.5269035493
 30
0.0
  0
SPLINE
  5
24E
100
AcDbEntity
  8
0
100
AcDbSpline
 62
7
  6
BYLAYER
 70
0
 71
3
 72
24
 73
20
 74
0
 42
0.0000001
 43
0.0000001
 44
0.0000000001
 40
0.0
 40
0.0
 40
0.0
 40
0.0
 40
0.0213327387
 40
0.0428940312
 40
0.0874721313
 40
0.1352515371
 40
0.1871552036
 40
0.2435975103
 40
0.3045497932
 40
0.3696405588
 40
0.4382429646
 40
0.5095340881
 40
0.5825621528
 40
0.6562974232
 40
0.7296817886
 40
0.801664128
 40
0.871256188
 40
0.9376319943
 40
1.0
 40
1.0
 40
1.0
 40
1.0
 10
7.0437954315
 20
25.1207309785
 30
0.0
 10
7.0702085341
 20
25.1359802318
 30
0.0
 10
7.1253477516
 20
25.1632779413
 30
0.0
 10
7.2437993497
 20
25.2042396713
 30
0.0
 10
7.4065659635
 20
25.2282101516
 30
0.0
 10
7.6136053796
 20
25.2128982306
 30
0.0
 10
7.8303929622
 20
25.155343017
 30
0.0
 10
8.0525329196
 20
25.0571534064
 30
0.0
 10
8.2756421279
 20
24.9206494116
 30
0.0
 10
8.4951984175
 20
24.7487847334
 30
0.0
 10
8.7066156977
 20
24.5451643647
 30
0.0
 10
8.9054569271
 20
24.3141232072
 30
0.0
 10
9.0875230708
 20
24.0605878669
 30
0.0
 10
9.248904728
 20
23.7899312235
 30
0.0
 10
9.3861637959
 20
23.507934343
 30
0.0
 10
9.4964108601
 20
23.2206395405
 30
0.0
 10
9.5772751088
 20
22.9340686937
 30
0.0
 10
9.626951576
 20
22.654417673
 30
0.0
 10
9.639069177
 20
22.470235142
 30
0.0
 10
9.639069177
 20
22.3810686919
 30
0.0
  0
SPLINE
  5
24F
100
AcDbEntity
  8
0
100
AcDbSpline
 62
7
  6
BYLAYER
 70
0
 71
3
 72
15
 73
11
 74
0
 42
0.0000001
 43
0.0000001
 44
0.0000000001
 40
0.0
 40
0.0
 40
0.0
 40
0.0
 40
0.1080101195
 40
0.218056829
 40
0.3319979719
 40
0.4513551129
 40
0.5772607239
 40
0.7104922321
 40
0.8514582493
 40
1.0
 40
1.0
 40
1.0
 40
1.0
 10
5.8687995631
 20
27.1558955932
 30
0.0
 10
5.7950174946
 20
27.1133068838
 30
0.0
 10
5.6531751958
 20
27.0143165699
 30
0.0
 10
5.4657307189
 20
26.8298698699
 30
0.0
 10
5.3045550377
 20
26.6109218926
 30
0.0
 10
5.1710655145
 20
26.3600020074
 30
0.0
 10
5.0663641097
 20
26.0796130058
 30
0.0
 10
4.9911999181
 20
25.7724484606
 30
0.0
 10
4.9462695369
 20
25.4415302002
 30
0.0
 10
4.9367895048
 20
25.2130299785
 30
0.0
 10
4.9367895048
 20
25.0958697094
 30
0.0
  0
SPLINE
  5
250
100
AcDbEntity
  8
0
100
AcDbSpline
 62
7
  6
BYLAYER
 70
0
 71
3
 72
15
 73
11
 74
0
 42
0.0000001
 43
0.0000001
 44
0.0000000001
 40
0.0
 40
0.0
 40
0.0
 40
0.0
 40
0.1080113886
 40
0.2180657705
 40
0.3320018687
 40
0.4513381785
 40
0.5772450168
 40
0.7105257348
 40
0.8515199124
 40
1.0
 40
1.0
 40
1.0
 40
1.0
 10
14.867703826
 20
11.2697730581
 30
0.0
 10
14.9037720913
 20
11.2489495046
 30
0.0
 10
14.9803453018
 20
11.2130671211
 30
0.0
 10
15.1042685606
 20
11.1788432607
 30
0.0
 10
15.2363478493
 20
11.1640897955
 30
0.0
 10
15.3752017405
 20
11.1689093043
 30
0.0
 10
15.5195151345
 20
11.1931128502
 30
0.0
 10
15.6679570082
 20
11.2363993935
 30
0.0
 10
15.819041983
 20
11.298274484
 30
0.0
 10
15.9180952955
 20
11.3500945152
 30
0.0
 10
15.9676770765
 20
11.3787203989
 30
0.0
  0
SPLINE
  5
251
100
AcDbEntity
  8
0
100
AcDbSpline
 62
7
  6
BYLAYER
 70
0
 71
3
 72
15
 73
11
 74
0
 42
0.0000001
 43
0.0000001
 44
0.0000000001
 40
0.0
 40
0.0
 40
0.0
 40
0.0
 40
0.1141465953
 40
0.237335244
 40
0.3669756461
 40
0.4999989181
 40
0.6330223406
 40
0.7626631822
 40
0.8858525235
 40
1.0
 40
1.0
 40
1.0
 40
1.0
 10
33.9280892244
 20
26.2388099135
 30
0.0
 10
34.0006949347
 20
26.1968919353
 30
0.0
 10
34.1441140184
 20
26.0963461585
 30
0.0
 10
34.3414628295
 20
25.9117346696
 30
0.0
 10
34.5233077009
 20
25.6934785538
 30
0.0
 10
34.6828423734
 20
25.4498254891
 30
0.0
 10
34.8140861584
 20
25.1898382134
 30
0.0
 10
34.9121807867
 20
24.9232275153
 30
0.0
 10
34.9733866236
 20
24.6600116454
 30
0.0
 10
34.9887538114
 20
24.4855331824
 30
0.0
 10
34.9887538114
 20
24.4016951564
 30
0.0
  0
SPLINE
  5
252
100
AcDbEntity
  8
0
100
AcDbSpline
 62
7
  6
BYLAYER
 70
0
 71
3
 72
15
 73
11
 74
0
 42
0.0000001
 43
0.0000001
 44
0.0000000001
 40
0.0
 40
0.0
 40
0.0
 40
0.0
 40
0.1080106356
 40
0.2180643786
 40
0.3320000531
 40
0.4513362045
 40
0.5772431688
 40
0.710524282
 40
0.8515191002
 40
1.0
 40
1.0
 40
1.0
 40
1.0
 10
4.9681676739
 20
16.9851436214
 30
0.0
 10
4.932098228
 20
17.0059678565
 30
0.0
 10
4.86273342
 20
17.0543414766
 30
0.0
 10
4.7711288615
 20
17.1445522968
 30
0.0
 10
4.6923087483
 20
17.2515629371
 30
0.0
 10
4.6270526599
 20
17.3742281829
 30
0.0
 10
4.5758546145
 20
17.5113145518
 30
0.0
 10
4.5391194223
 20
17.6615186798
 30
0.0
 10
4.5171616251
 20
17.8233068222
 30
0.0
 10
4.5125124826
 20
17.9350045312
 30
0.0
 10
4.5125124826
 20
17.9922591414
 30
0.0
  0
SPLINE
  5
253
100
AcDbEntity
  8
0
100
AcDbSpline
 62
7
  6
BYLAYER
 70
0
 71
3
 72
14
 73
10
 74
0
 42
0.0000001
 43
0.0000001
 44
0.0000000001
 40
0.0
 40
0.0
 40
0.0
 40
0.0
 40
0.1080456362
 40
0.2181349707
 40
0.332107362
 40
0.4514818058
 40
0.577428993
 40
0.7107525123
 40
1.0
 40
1.0
 40
1.0
 40
1.0
 10
4.8231859411
 20
43.4189517439
 30
0.0
 10
4.7985931667
 20
43.4047531829
 30
0.0
 10
4.751299045
 20
43.3717707736
 30
0.0
 10
4.6888415765
 20
43.3102631702
 30
0.0
 10
4.6351003898
 20
43.2373006669
 30
0.0
 10
4.5906088617
 20
43.1536673627
 30
0.0
 10
4.5556963997
 20
43.0601910455
 30
0.0
 10
4.5214031649
 20
42.9199105997
 30
0.0
 10
4.5125124826
 20
42.8083042622
 30
0.0
 10
4.5125124826
 20
42.7322823804
 30
0.0
  0
SPLINE
  5
254
100
AcDbEntity
  8
0
100
AcDbSpline
 62
7
  6
BYLAYER
 70
0
 71
3
 72
14
 73
10
 74
0
 42
0.0000001
 43
0.0000001
 44
0.0000000001
 40
0.0
 40
0.0
 40
0.0
 40
0.0
 40
0.108046144
 40
0.2181359093
 40
0.3321085861
 40
0.4514831362
 40
0.5774302378
 40
0.7107534897
 40
1.0
 40
1.0
 40
1.0
 40
1.0
 10
5.6717105457
 20
43.9088447285
 30
0.0
 10
5.6963027768
 20
43.9230429759
 30
0.0
 10
5.7485123351
 20
43.9475089557
 30
0.0
 10
5.8330062423
 20
43.9708443905
 30
0.0
 10
5.9230619731
 20
43.9809044366
 30
0.0
 10
6.017733858
 20
43.9776191948
 30
0.0
 10
6.1161403691
 20
43.9611172896
 30
0.0
 10
6.2547697
 20
43.9206782199
 30
0.0
 10
6.3558664079
 20
43.8725770082
 30
0.0
 10
6.421701675
 20
43.834567859
 30
0.0
  0
SPLINE
  5
255
100
AcDbEntity
  8
0
100
AcDbSpline
 62
7
  6
BYLAYER
 70
0
 71
3
 72
25
 73
21
 74
0
 42
0.0000001
 43
0.0000001
 44
0.0000000001
 40
0.0
 40
0.0
 40
0.0
 40
0.0
 40
0.0623767856
 40
0.1287264436
 40
0.1983140364
 40
0.2702913375
 40
0.3436668769
 40
0.4173985217
 40
0.4904233833
 40
0.5617103304
 40
0.6303082122
 40
0.6953963118
 40
0.7563437902
 40
0.8127808274
 40
0.8646815212
 40
0.9124569417
 40
0.9351015406
 40
0.9571073214
 40
0.9786677557
 40
1.0
 40
1.0
 40
1.0
 40
1.0
 10
4.9367895048
 20
25.0958697094
 30
0.0
 10
4.9367895048
 20
24.9092014705
 30
0.0
 10
4.9621010002
 20
24.5237207473
 30
0.0
 10
5.0661411637
 20
23.9384333194
 30
0.0
 10
5.235378379
 20
23.3386950839
 30
0.0
 10
5.4660624135
 20
22.7373592279
 30
0.0
 10
5.7533738196
 20
22.1471448528
 30
0.0
 10
6.0911568606
 20
21.5806556676
 30
0.0
 10
6.4722093451
 20
21.0499664245
 30
0.0
 10
6.888408671
 20
20.5663888939
 30
0.0
 10
7.3309215304
 20
20.1402025664
 30
0.0
 10
7.7904441483
 20
19.780448143
 30
0.0
 10
8.2574222402
 20
19.4947557361
 30
0.0
 10
8.7224159515
 20
19.2892742329
 30
0.0
 10
9.175997145
 20
19.1687212725
 30
0.0
 10
9.5438814398
 20
19.1416906315
 30
0.0
 10
9.8197950978
 20
19.1676124964
 30
0.0
 10
10.0140642344
 20
19.2090155246
 30
0.0
 10
10.1980664408
 20
19.2726484037
 30
0.0
 10
10.3134779968
 20
19.3297629646
 30
0.0
 10
10.3687669728
 20
19.361677035
 30
0.0
  0
SPLINE
  5
256
100
AcDbEntity
  8
0
100
AcDbSpline
 62
7
  6
BYLAYER
 70
0
 71
3
 72
15
 73
11
 74
0
 42
0.0000001
 43
0.0000001
 44
0.0000000001
 40
0.0
 40
0.0
 40
0.0
 40
0.0
 40
0.1484801912
 40
0.2894731701
 40
0.4227527596
 40
0.5486603696
 40
0.66799818
 40
0.7819356069
 40
0.8919900075
 40
1.0
 40
1.0
 40
1.0
 40
1.0
 10
9.639069177
 20
22.3810686919
 30
0.0
 10
9.639069177
 20
22.3251155666
 30
0.0
 10
9.6345262337
 20
22.2159573635
 30
0.0
 10
9.613068464
 20
22.0578475264
 30
0.0
 10
9.5771680853
 20
21.91105818
 30
0.0
 10
9.5271349421
 20
21.7770865492
 30
0.0
 10
9.4633614948
 20
21.6572075853
 30
0.0
 10
9.3863328648
 20
21.5526269488
 30
0.0
 10
9.2968094827
 20
21.4644659268
 30
0.0
 10
9.2290206036
 20
21.4171924791
 30
0.0
 10
9.1937711043
 20
21.3968416497
 30
0.0
  0
SPLINE
  5
257
100
AcDbEntity
  8
0
100
AcDbSpline
 62
7
  6
BYLAYER
 70
0
 71
3
 72
25
 73
21
 74
0
 42
0.0000001
 43
0.0000001
 44
0.0000000001
 40
0.0
 40
0.0
 40
0.0
 40
0.0
 40
0.0623767856
 40
0.1287264436
 40
0.1983140364
 40
0.2702913375
 40
0.3436668769
 40
0.4173985217
 40
0.4904233833
 40
0.5617103304
 40
0.6303082122
 40
0.6953963118
 40
0.7563437902
 40
0.8127808274
 40
0.8646815212
 40
0.9124569417
 40
0.9351015406
 40
0.9571073214
 40
0.9786677557
 40
1.0
 40
1.0
 40
1.0
 40
1.0
 10
4.9367895048
 20
36.5269035493
 30
0.0
 10
4.9367895048
 20
36.3402353103
 30
0.0
 10
4.9621010002
 20
35.9547545871
 30
0.0
 10
5.0661411637
 20
35.3694671593
 30
0.0
 10
5.235378379
 20
34.7697289237
 30
0.0
 10
5.4660624135
 20
34.1683930677
 30
0.0
 10
5.7533738196
 20
33.5781786926
 30
0.0
 10
6.0911568606
 20
33.0116895074
 30
0.0
 10
6.4722093451
 20
32.4810002643
 30
0.0
 10
6.888408671
 20
31.9974227338
 30
0.0
 10
7.3309215304
 20
31.5712364062
 30
0.0
 10
7.7904441483
 20
31.2114819828
 30
0.0
 10
8.2574222402
 20
30.9257895759
 30
0.0
 10
8.7224159515
 20
30.7203080727
 30
0.0
 10
9.175997145
 20
30.5997551123
 30
0.0
 10
9.5438814398
 20
30.5727244713
 30
0.0
 10
9.8197950978
 20
30.5986463362
 30
0.0
 10
10.0140642344
 20
30.6400493644
 30
0.0
 10
10.1980664408
 20
30.7036822435
 30
0.0
 10
10.3134779968
 20
30.7607968044
 30
0.0
 10
10.3687669728
 20
30.7927108748
 30
0.0
  0
SPLINE
  5
258
100
AcDbEntity
  8
0
100
AcDbSpline
 62
7
  6
BYLAYER
 70
0
 71
3
 72
15
 73
11
 74
0
 42
0.0000001
 43
0.0000001
 44
0.0000000001
 40
0.0
 40
0.0
 40
0.0
 40
0.0
 40
0.1484801912
 40
0.2894731701
 40
0.4227527596
 40
0.5486603696
 40
0.66799818
 40
0.7819356069
 40
0.8919900075
 40
1.0
 40
1.0
 40
1.0
 40
1.0
 10
9.639069177
 20
33.8121025317
 30
0.0
 10
9.639069177
 20
33.7561494064
 30
0.0
 10
9.6345262337
 20
33.6469912033
 30
0.0
 10
9.613068464
 20
33.4888813663
 30
0.0
 10
9.5771680853
 20
33.3420920198
 30
0.0
 10
9.5271349421
 20
33.208120389
 30
0.0
 10
9.4633614948
 20
33.0882414251
 30
0.0
 10
9.3863328648
 20
32.9836607886
 30
0.0
 10
9.2968094827
 20
32.8954997666
 30
0.0
 10
9.2290206036
 20
32.8482263189
 30
0.0
 10
9.1937711043
 20
32.8278754895
 30
0.0
  0
SPLINE
  5
259
100
AcDbEntity
  8
0
100
AcDbSpline
 62
7
  6
BYLAYER
 70
0
 71
3
 72
25
 73
21
 74
0
 42
0.0000001
 43
0.0000001
 44
0.0000000001
 40
0.0
 40
0.0
 40
0.0
 40
0.0
 40
0.021332354
 40
0.0428929612
 40
0.0648989873
 40
0.0875438512
 40
0.1353199077
 40
0.1872211289
 40
0.2436584405
 40
0.3046058558
 40
0.3696934553
 40
0.4382903867
 40
0.5095761423
 40
0.5825998792
 40
0.6563307589
 40
0.7297061423
 40
0.801683751
 40
0.8712717998
 40
0.9376226586
 40
1.0
 40
1.0
 40
1.0
 40
1.0
 10
7.2122969129
 20
27.9315593657
 30
0.0
 10
7.2675861483
 20
27.9634736425
 30
0.0
 10
7.3829979544
 20
28.0205896538
 30
0.0
 10
7.567002172
 20
28.0842218355
 30
0.0
 10
7.7612734043
 20
28.125624517
 30
0.0
 10
8.0371905054
 20
28.1515468256
 30
0.0
 10
8.4050790112
 20
28.1245129391
 30
0.0
 10
8.8586636907
 20
28.0039567231
 30
0.0
 10
9.3236584402
 20
27.7984720011
 30
0.0
 10
9.7906344571
 20
27.5127779265
 30
0.0
 10
10.2501523134
 20
27.1530248508
 30
0.0
 10
10.692658932
 20
26.7268435125
 30
0.0
 10
11.1088516748
 20
26.2432732434
 30
0.0
 10
11.4898988646
 20
25.7125916108
 30
0.0
 10
11.8276803177
 20
25.1461086718
 30
0.0
 10
12.1149929803
 20
24.5558969312
 30
0.0
 10
12.3456789918
 20
23.9545599041
 30
0.0
 10
12.5149199079
 20
23.3548165623
 30
0.0
 10
12.6189612534
 20
22.769522614
 30
0.0
 10
12.6442743218
 20
22.3840367123
 30
0.0
 10
12.6442743218
 20
22.1973668111
 30
0.0
  0
SPLINE
  5
25A
100
AcDbEntity
  8
0
100
AcDbSpline
 62
7
  6
BYLAYER
 70
0
 71
3
 72
13
 73
9
 74
0
 42
0.0000001
 43
0.0000001
 44
0.0000000001
 40
0.0
 40
0.0
 40
0.0
 40
0.0
 40
0.2893052466
 40
0.5483352362
 40
0.6677598057
 40
0.78176081
 40
0.8918958892
 40
1.0
 40
1.0
 40
1.0
 40
1.0
 10
15.9676770765
 20
12.3585232995
 30
0.0
 10
15.9237988752
 20
12.3331903593
 30
0.0
 10
15.8365586514
 20
12.2916639667
 30
0.0
 10
15.7217071408
 20
12.2639709226
 30
0.0
 10
15.6352515939
 20
12.2609582196
 30
0.0
 10
15.5752181453
 20
12.2676702
 30
0.0
 10
15.51890297
 20
12.2832505951
 30
0.0
 10
15.4840840018
 20
12.2995337442
 30
0.0
 10
15.4676880549
 20
12.3089997363
 30
0.0
  0
SPLINE
  5
25B
100
AcDbEntity
  8
0
100
AcDbSpline
 62
7
  6
BYLAYER
 70
0
 71
3
 72
15
 73
11
 74
0
 42
0.0000001
 43
0.0000001
 44
0.0000000001
 40
0.0
 40
0.0
 40
0.0
 40
0.0
 40
0.1484808998
 40
0.289475718
 40
0.4227568312
 40
0.5486637955
 40
0.6679999469
 40
0.7819356214
 40
0.8919893644
 40
1.0
 40
1.0
 40
1.0
 40
1.0
 10
14.4120486347
 20
12.2768885781
 30
0.0
 10
14.4120486347
 20
12.2196339679
 30
0.0
 10
14.4166977771
 20
12.1079362589
 30
0.0
 10
14.4386555744
 20
11.9461481165
 30
0.0
 10
14.4753907666
 20
11.7959439885
 30
0.0
 10
14.526588812
 20
11.6588576196
 30
0.0
 10
14.5918449004
 20
11.5361923738
 30
0.0
 10
14.6706650136
 20
11.4291817335
 30
0.0
 10
14.762269572
 20
11.3389709134
 30
0.0
 10
14.83163438
 20
11.2905972932
 30
0.0
 10
14.867703826
 20
11.2697730581
 30
0.0
  0
SPLINE
  5
25C
100
AcDbEntity
  8
0
100
AcDbSpline
 62
7
  6
BYLAYER
 70
0
 71
3
 72
14
 73
10
 74
0
 42
0.0000001
 43
0.0000001
 44
0.0000000001
 40
0.0
 40
0.0
 40
0.0
 40
0.0
 40
0.2892465103
 40
0.4225697622
 40
0.5485168638
 40
0.6678914139
 40
0.7818640907
 40
0.891953856
 40
1.0
 40
1.0
 40
1.0
 40
1.0
 10
5.5731770703
 20
43.3446748743
 30
0.0
 10
5.5073418033
 20
43.3826840236
 30
0.0
 10
5.4062450953
 20
43.4307852352
 30
0.0
 10
5.2676157644
 20
43.4712243049
 30
0.0
 10
5.1692092534
 20
43.4877262102
 30
0.0
 10
5.0745373685
 20
43.4910114519
 30
0.0
 10
4.9844816376
 20
43.4809514059
 30
0.0
 10
4.8999877305
 20
43.4576159711
 30
0.0
 10
4.8477781721
 20
43.4331499912
 30
0.0
 10
4.8231859411
 20
43.4189517439
 30
0.0
  0
SPLINE
  5
25D
100
AcDbEntity
  8
0
100
AcDbSpline
 62
7
  6
BYLAYER
 70
0
 71
3
 72
15
 73
11
 74
0
 42
0.0000001
 43
0.0000001
 44
0.0000000001
 40
0.0
 40
0.0
 40
0.0
 40
0.0
 40
0.1141474765
 40
0.2373368178
 40
0.3669776594
 40
0.5000010819
 40
0.633024354
 40
0.7626647561
 40
0.8858534048
 40
1.0
 40
1.0
 40
1.0
 40
1.0
 10
14.4120486347
 20
37.0169118171
 30
0.0
 10
14.4120486347
 20
37.1007498431
 30
0.0
 10
14.3966814469
 20
37.2752283062
 30
0.0
 10
14.3354756099
 20
37.5384441762
 30
0.0
 10
14.2373809815
 20
37.8050548744
 30
0.0
 10
14.1061371965
 20
38.0650421502
 30
0.0
 10
13.9466025238
 20
38.3086952149
 30
0.0
 10
13.7647576524
 20
38.5269513308
 30
0.0
 10
13.5674088411
 20
38.7115628197
 30
0.0
 10
13.4239897573
 20
38.8121085965
 30
0.0
 10
13.3513840469
 20
38.8540265746
 30
0.0
  0
SPLINE
  5
25E
100
AcDbEntity
  8
0
100
AcDbSpline
 62
7
  6
BYLAYER
 70
0
 71
3
 72
15
 73
11
 74
0
 42
0.0000001
 43
0.0000001
 44
0.0000000001
 40
0.0
 40
0.0
 40
0.0
 40
0.0
 40
0.1485419923
 40
0.2895062058
 40
0.4227364241
 40
0.5486419886
 40
0.6679996623
 40
0.7819410318
 40
0.8919885903
 40
1.0
 40
1.0
 40
1.0
 40
1.0
 10
12.6442743218
 20
22.1973668111
 30
0.0
 10
12.6442743218
 20
22.0802063323
 30
0.0
 10
12.6347952766
 20
21.851707236
 30
0.0
 10
12.5898642982
 20
21.5207913063
 30
0.0
 10
12.5147018705
 20
21.2136287863
 30
0.0
 10
12.410000138
 20
20.9332406811
 30
0.0
 10
12.2765135823
 20
20.6823183885
 30
0.0
 10
12.1153354935
 20
20.4633706165
 30
0.0
 10
11.9278920689
 20
20.2789200778
 30
0.0
 10
11.7860471336
 20
20.1799303289
 30
0.0
 10
11.7122642043
 20
20.1373410472
 30
0.0
  0
SPLINE
  5
25F
100
AcDbEntity
  8
0
100
AcDbSpline
 62
7
  6
BYLAYER
 70
0
 71
3
 72
15
 73
11
 74
0
 42
0.0000001
 43
0.0000001
 44
0.0000000001
 40
0.0
 40
0.0
 40
0.0
 40
0.0
 40
0.1485419923
 40
0.2895062058
 40
0.4227364241
 40
0.5486419886
 40
0.6679996623
 40
0.7819410318
 40
0.8919885903
 40
1.0
 40
1.0
 40
1.0
 40
1.0
 10
12.6442743218
 20
33.6284006509
 30
0.0
 10
12.6442743218
 20
33.5112401721
 30
0.0
 10
12.6347952766
 20
33.2827410759
 30
0.0
 10
12.5898642982
 20
32.9518251461
 30
0.0
 10
12.5147018705
 20
32.6446626261
 30
0.0
 10
12.410000138
 20
32.3642745209
 30
0.0
 10
12.2765135823
 20
32.1133522283
 30
0.0
 10
12.1153354935
 20
31.8944044563
 30
0.0
 10
11.9278920689
 20
31.7099539176
 30
0.0
 10
11.7860471336
 20
31.6109641687
 30
0.0
 10
11.7122642043
 20
31.568374887
 30
0.0
  0
SPLINE
  5
260
100
AcDbEntity
  8
0
100
AcDbSpline
 62
7
  6
BYLAYER
 70
0
 71
3
 72
25
 73
21
 74
0
 42
0.0000001
 43
0.0000001
 44
0.0000000001
 40
0.0
 40
0.0
 40
0.0
 40
0.0
 40
0.0623767856
 40
0.1287264436
 40
0.1983140364
 40
0.2702913375
 40
0.3436668769
 40
0.4173985217
 40
0.4904233833
 40
0.5617103304
 40
0.6303082122
 40
0.6953963118
 40
0.7563437902
 40
0.8127808274
 40
0.8646815212
 40
0.9124569417
 40
0.9351015406
 40
0.9571073214
 40
0.9786677557
 40
1.0
 40
1.0
 40
1.0
 40
1.0
 10
11.3007770311
 20
21.4217029188
 30
0.0
 10
11.3007770311
 20
21.6083711577
 30
0.0
 10
11.2754655356
 20
21.9938518809
 30
0.0
 10
11.1714253722
 20
22.5791393087
 30
0.0
 10
11.0021881569
 20
23.1788775443
 30
0.0
 10
10.7715041223
 20
23.7802134003
 30
0.0
 10
10.4841927163
 20
24.3704277754
 30
0.0
 10
10.1464096753
 20
24.9369169606
 30
0.0
 10
9.7653571907
 20
25.4676062037
 30
0.0
 10
9.3491578648
 20
25.9511837343
 30
0.0
 10
8.9066450054
 20
26.3773700618
 30
0.0
 10
8.4471223876
 20
26.7371244852
 30
0.0
 10
7.9801442956
 20
27.0228168921
 30
0.0
 10
7.5151505843
 20
27.2282983953
 30
0.0
 10
7.0615693908
 20
27.3488513557
 30
0.0
 10
6.6936850961
 20
27.3758819967
 30
0.0
 10
6.4177714381
 20
27.3499601318
 30
0.0
 10
6.2235023015
 20
27.3085571036
 30
0.0
 10
6.0395000951
 20
27.2449242245
 30
0.0
 10
5.924088539
 20
27.1878096636
 30
0.0
 10
5.8687995631
 20
27.1558955932
 30
0.0
  0
SPLINE
  5
261
100
AcDbEntity
  8
0
100
AcDbSpline
 62
7
  6
BYLAYER
 70
0
 71
3
 72
15
 73
11
 74
0
 42
0.0000001
 43
0.0000001
 44
0.0000000001
 40
0.0
 40
0.0
 40
0.0
 40
0.0
 40
0.1484801912
 40
0.2894731701
 40
0.4227527596
 40
0.5486603696
 40
0.66799818
 40
0.7819356069
 40
0.8919900075
 40
1.0
 40
1.0
 40
1.0
 40
1.0
 10
6.5984973589
 20
24.1365039363
 30
0.0
 10
6.5984973589
 20
24.1924570616
 30
0.0
 10
6.6030403021
 20
24.3016152647
 30
0.0
 10
6.6244980719
 20
24.4597251017
 30
0.0
 10
6.6603984505
 20
24.6065144482
 30
0.0
 10
6.7104315938
 20
24.740486079
 30
0.0
 10
6.7742050411
 20
24.8603650429
 30
0.0
 10
6.8512336711
 20
24.9649456794
 30
0.0
 10
6.9407570532
 20
25.0531067014
 30
0.0
 10
7.0085459323
 20
25.1003801491
 30
0.0
 10
7.0437954315
 20
25.1207309785
 30
0.0
  0
SPLINE
  5
262
100
AcDbEntity
  8
0
100
AcDbSpline
 62
7
  6
BYLAYER
 70
0
 71
3
 72
25
 73
21
 74
0
 42
0.0000001
 43
0.0000001
 44
0.0000000001
 40
0.0
 40
0.0
 40
0.0
 40
0.0
 40
0.021332354
 40
0.0428929612
 40
0.0648989873
 40
0.0875438512
 40
0.1353199077
 40
0.1872211289
 40
0.2436584405
 40
0.3046058558
 40
0.3696934553
 40
0.4382903867
 40
0.5095761423
 40
0.5825998792
 40
0.6563307589
 40
0.7297061423
 40
0.801683751
 40
0.8712717998
 40
0.9376226586
 40
1.0
 40
1.0
 40
1.0
 40
1.0
 10
7.2122969129
 20
39.3625932056
 30
0.0
 10
7.2675861483
 20
39.3945074823
 30
0.0
 10
7.3829979544
 20
39.4516234936
 30
0.0
 10
7.567002172
 20
39.5152556753
 30
0.0
 10
7.7612734043
 20
39.5566583568
 30
0.0
 10
8.0371905054
 20
39.5825806655
 30
0.0
 10
8.4050790112
 20
39.5555467789
 30
0.0
 10
8.8586636907
 20
39.4349905629
 30
0.0
 10
9.3236584402
 20
39.2295058409
 30
0.0
 10
9.7906344571
 20
38.9438117663
 30
0.0
 10
10.2501523134
 20
38.5840586906
 30
0.0
 10
10.692658932
 20
38.1578773523
 30
0.0
 10
11.1088516748
 20
37.6743070833
 30
0.0
 10
11.4898988646
 20
37.1436254507
 30
0.0
 10
11.8276803177
 20
36.5771425117
 30
0.0
 10
12.1149929803
 20
35.986930771
 30
0.0
 10
12.3456789918
 20
35.3855937439
 30
0.0
 10
12.5149199079
 20
34.7858504021
 30
0.0
 10
12.6189612534
 20
34.2005564538
 30
0.0
 10
12.6442743218
 20
33.8150705521
 30
0.0
 10
12.6442743218
 20
33.6284006509
 30
0.0
  0
SPLINE
  5
263
100
AcDbEntity
  8
0
100
AcDbSpline
 62
7
  6
BYLAYER
 70
0
 71
3
 72
25
 73
21
 74
0
 42
0.0000001
 43
0.0000001
 44
0.0000000001
 40
0.0
 40
0.0
 40
0.0
 40
0.0
 40
0.0623767856
 40
0.1287264436
 40
0.1983140364
 40
0.2702913375
 40
0.3436668769
 40
0.4173985217
 40
0.4904233833
 40
0.5617103304
 40
0.6303082122
 40
0.6953963118
 40
0.7563437902
 40
0.8127808274
 40
0.8646815212
 40
0.9124569417
 40
0.9351015406
 40
0.9571073214
 40
0.9786677557
 40
1.0
 40
1.0
 40
1.0
 40
1.0
 10
11.3007770311
 20
32.8527367586
 30
0.0
 10
11.3007770311
 20
33.0394049975
 30
0.0
 10
11.2754655356
 20
33.4248857207
 30
0.0
 10
11.1714253722
 20
34.0101731486
 30
0.0
 10
11.0021881569
 20
34.6099113842
 30
0.0
 10
10.7715041223
 20
35.2112472401
 30
0.0
 10
10.4841927163
 20
35.8014616152
 30
0.0
 10
10.1464096753
 20
36.3679508004
 30
0.0
 10
9.7653571907
 20
36.8986400435
 30
0.0
 10
9.3491578648
 20
37.3822175741
 30
0.0
 10
8.9066450054
 20
37.8084039016
 30
0.0
 10
8.4471223876
 20
38.1681583251
 30
0.0
 10
7.9801442956
 20
38.4538507319
 30
0.0
 10
7.5151505843
 20
38.6593322351
 30
0.0
 10
7.0615693908
 20
38.7798851955
 30
0.0
 10
6.6936850961
 20
38.8069158365
 30
0.0
 10
6.4177714381
 20
38.7809939716
 30
0.0
 10
6.2235023015
 20
38.7395909434
 30
0.0
 10
6.0395000951
 20
38.6759580643
 30
0.0
 10
5.924088539
 20
38.6188435034
 30
0.0
 10
5.8687995631
 20
38.586929433
 30
0.0
  0
SPLINE
  5
264
100
AcDbEntity
  8
0
100
AcDbSpline
 62
7
  6
BYLAYER
 70
0
 71
3
 72
15
 73
11
 74
0
 42
0.0000001
 43
0.0000001
 44
0.0000000001
 40
0.0
 40
0.0
 40
0.0
 40
0.0
 40
0.1141474765
 40
0.2373368178
 40
0.3669776594
 40
0.5000010819
 40
0.6330243539
 40
0.762664756
 40
0.8858534047
 40
1.0
 40
1.0
 40
1.0
 40
1.0
 10
16.816185195
 20
13.9098204019
 30
0.0
 10
16.816185195
 20
13.9936584279
 30
0.0
 10
16.8008180072
 20
14.1681368909
 30
0.0
 10
16.7396121703
 20
14.4313527608
 30
0.0
 10
16.641517542
 20
14.6979634589
 30
0.0
 10
16.510273757
 20
14.9579507346
 30
0.0
 10
16.3507390845
 20
15.2016037993
 30
0.0
 10
16.1688942131
 20
15.4198599151
 30
0.0
 10
15.971545402
 20
15.604471404
 30
0.0
 10
15.8281263183
 20
15.7050171808
 30
0.0
 10
15.755520608
 20
15.746935159
 30
0.0
  0
SPLINE
  5
265
100
AcDbEntity
  8
0
100
AcDbSpline
 62
7
  6
BYLAYER
 70
0
 71
3
 72
15
 73
11
 74
0
 42
0.0000001
 43
0.0000001
 44
0.0000000001
 40
0.0
 40
0.0
 40
0.0
 40
0.0
 40
0.1484801912
 40
0.2894731701
 40
0.4227527596
 40
0.5486603696
 40
0.66799818
 40
0.7819356069
 40
0.8919900075
 40
1.0
 40
1.0
 40
1.0
 40
1.0
 10
6.5984973589
 20
35.5675377761
 30
0.0
 10
6.5984973589
 20
35.6234909014
 30
0.0
 10
6.6030403021
 20
35.7326491046
 30
0.0
 10
6.6244980719
 20
35.8907589416
 30
0.0
 10
6.6603984505
 20
36.0375482881
 30
0.0
 10
6.7104315938
 20
36.1715199188
 30
0.0
 10
6.7742050411
 20
36.2913988827
 30
0.0
 10
6.8512336711
 20
36.3959795192
 30
0.0
 10
6.9407570532
 20
36.4841405413
 30
0.0
 10
7.0085459323
 20
36.5314139889
 30
0.0
 10
7.0437954315
 20
36.5517648183
 30
0.0
  0
SPLINE
  5
266
100
AcDbEntity
  8
0
100
AcDbSpline
 62
7
  6
BYLAYER
 70
0
 71
3
 72
24
 73
20
 74
0
 42
0.0000001
 43
0.0000001
 44
0.0000000001
 40
0.0
 40
0.0
 40
0.0
 40
0.0
 40
0.0213327387
 40
0.0428940312
 40
0.0874721313
 40
0.1352515371
 40
0.1871552036
 40
0.2435975103
 40
0.3045497932
 40
0.3696405588
 40
0.4382429646
 40
0.5095340881
 40
0.5825621528
 40
0.6562974232
 40
0.7296817886
 40
0.801664128
 40
0.871256188
 40
0.9376319943
 40
1.0
 40
1.0
 40
1.0
 40
1.0
 10
9.1937711043
 20
21.3968416497
 30
0.0
 10
9.1673580018
 20
21.3815923964
 30
0.0
 10
9.1122187842
 20
21.3542946869
 30
0.0
 10
8.9937671861
 20
21.3133329569
 30
0.0
 10
8.8310005724
 20
21.2893624766
 30
0.0
 10
8.6239611563
 20
21.3046743976
 30
0.0
 10
8.4071735736
 20
21.3622296112
 30
0.0
 10
8.1850336162
 20
21.4604192218
 30
0.0
 10
7.9619244079
 20
21.5969232166
 30
0.0
 10
7.7423681183
 20
21.7687878948
 30
0.0
 10
7.5309508382
 20
21.9724082635
 30
0.0
 10
7.3321096088
 20
22.203449421
 30
0.0
 10
7.150043465
 20
22.4569847613
 30
0.0
 10
6.9886618078
 20
22.7276414047
 30
0.0
 10
6.8514027399
 20
23.0096382852
 30
0.0
 10
6.7411556757
 20
23.2969330877
 30
0.0
 10
6.6602914271
 20
23.5835039345
 30
0.0
 10
6.6106149598
 20
23.8631549552
 30
0.0
 10
6.5984973589
 20
24.0473374862
 30
0.0
 10
6.5984973589
 20
24.1365039363
 30
0.0
  0
SPLINE
  5
267
100
AcDbEntity
  8
0
100
AcDbSpline
 62
7
  6
BYLAYER
 70
0
 71
3
 72
15
 73
11
 74
0
 42
0.0000001
 43
0.0000001
 44
0.0000000001
 40
0.0
 40
0.0
 40
0.0
 40
0.0
 40
0.1080101195
 40
0.218056829
 40
0.3319979719
 40
0.4513551129
 40
0.5772607239
 40
0.7104922321
 40
0.8514582493
 40
1.0
 40
1.0
 40
1.0
 40
1.0
 10
10.3687669728
 20
19.361677035
 30
0.0
 10
10.4425490413
 20
19.4042657444
 30
0.0
 10
10.58439134
 20
19.5032560583
 30
0.0
 10
10.771835817
 20
19.6877027583
 30
0.0
 10
10.9330114982
 20
19.9066507356
 30
0.0
 10
11.0665010214
 20
20.1575706208
 30
0.0
 10
11.1712024262
 20
20.4379596224
 30
0.0
 10
11.2463666178
 20
20.7451241676
 30
0.0
 10
11.2912969989
 20
21.076042428
 30
0.0
 10
11.3007770311
 20
21.3045426497
 30
0.0
 10
11.3007770311
 20
21.4217029188
 30
0.0
  0
SPLINE
  5
268
100
AcDbEntity
  8
0
100
AcDbSpline
 62
7
  6
BYLAYER
 70
0
 71
3
 72
15
 73
11
 74
0
 42
0.0000001
 43
0.0000001
 44
0.0000000001
 40
0.0
 40
0.0
 40
0.0
 40
0.0
 40
0.1080101195
 40
0.218056829
 40
0.3319979719
 40
0.4513551129
 40
0.5772607239
 40
0.7104922321
 40
0.8514582493
 40
1.0
 40
1.0
 40
1.0
 40
1.0
 10
10.3687669728
 20
30.7927108748
 30
0.0
 10
10.4425490413
 20
30.8352995842
 30
0.0
 10
10.58439134
 20
30.9342898981
 30
0.0
 10
10.771835817
 20
31.1187365981
 30
0.0
 10
10.9330114982
 20
31.3376845754
 30
0.0
 10
11.0665010214
 20
31.5886044606
 30
0.0
 10
11.1712024262
 20
31.8689934622
 30
0.0
 10
11.2463666178
 20
32.1761580074
 30
0.0
 10
11.2912969989
 20
32.5070762678
 30
0.0
 10
11.3007770311
 20
32.7355764895
 30
0.0
 10
11.3007770311
 20
32.8527367586
 30
0.0
  0
SPLINE
  5
269
100
AcDbEntity
  8
0
100
AcDbSpline
 62
7
  6
BYLAYER
 70
0
 71
3
 72
24
 73
20
 74
0
 42
0.0000001
 43
0.0000001
 44
0.0000000001
 40
0.0
 40
0.0
 40
0.0
 40
0.0
 40
0.0213327387
 40
0.0428940312
 40
0.0874721313
 40
0.1352515371
 40
0.1871552036
 40
0.2435975103
 40
0.3045497932
 40
0.3696405588
 40
0.4382429646
 40
0.5095340881
 40
0.5825621528
 40
0.6562974232
 40
0.7296817886
 40
0.801664128
 40
0.871256188
 40
0.9376319943
 40
1.0
 40
1.0
 40
1.0
 40
1.0
 10
9.1937711043
 20
32.8278754895
 30
0.0
 10
9.1673580018
 20
32.8126262362
 30
0.0
 10
9.1122187842
 20
32.7853285267
 30
0.0
 10
8.9937671861
 20
32.7443667967
 30
0.0
 10
8.8310005724
 20
32.7203963164
 30
0.0
 10
8.6239611563
 20
32.7357082374
 30
0.0
 10
8.4071735736
 20
32.793263451
 30
0.0
 10
8.1850336162
 20
32.8914530617
 30
0.0
 10
7.9619244079
 20
33.0279570564
 30
0.0
 10
7.7423681183
 20
33.1998217346
 30
0.0
 10
7.5309508382
 20
33.4034421033
 30
0.0
 10
7.3321096088
 20
33.6344832608
 30
0.0
 10
7.150043465
 20
33.8880186011
 30
0.0
 10
6.9886618078
 20
34.1586752445
 30
0.0
 10
6.8514027399
 20
34.440672125
 30
0.0
 10
6.7411556757
 20
34.7279669275
 30
0.0
 10
6.6602914271
 20
35.0145377743
 30
0.0
 10
6.6106149598
 20
35.294188795
 30
0.0
 10
6.5984973589
 20
35.478371326
 30
0.0
 10
6.5984973589
 20
35.5675377761
 30
0.0
  0
ENDSEC
  0
SECTION
  2
OBJECTS
  0
DICTIONARY
  5
C
100
AcDbDictionary
280
0
281
1
  3
ACAD_GROUP
350
D
  3
ACAD_MLINESTYLE
350
17
  3
ACAD_LAYOUT
350
1A
  3
ACAD_PLOTSETTINGS
350
19
  3
ACAD_PLOTSTYLENAME
350
E
  0
DICTIONARY
  5
D
102
{ACAD_REACTORS
330
C
102
}
100
AcDbDictionary
280
0
281
1
  0
ACDBDICTIONARYWDFLT
  5
E
102
{ACAD_REACTORS
330
C
102
}
100
AcDbDictionary
281
1
  3
Normal
350
F
100
AcDbDictionaryWithDefault
340
F
  0
DICTIONARY
  5
17
102
{ACAD_REACTORS
330
C
102
}
100
AcDbDictionary
280
0
281
1
  3
Standard
350
18
  0
DICTIONARY
  5
19
102
{ACAD_REACTORS
330
C
102
}
100
AcDbDictionary
281
1
  0
DICTIONARY
  5
1A
102
{ACAD_REACTORS
330
C
102
}
100
AcDbDictionary
281
1
  3
Model
350
26A
  3
Layout1
350
26B
  0
ACDBPLACEHOLDER
  5
F
102
{ACAD_REACTORS
330
E
102
}
  0
MLINESTYLE
  5
18
102
{ACAD_REACTORS
330
17
102
}
100
AcDbMlineStyle
  2
STANDARD
 70
0
  3

 62
256
 51
90.0
 52
90.0
 71
2
 49
0.5
 62
256
  6
BYLAYER
 49
-0.5
 62
256
  6
BYLAYER
  0
LAYOUT
  5
26A
102
{ACAD_REACTORS
330
1A
102
}
100
AcDbPlotSettings
  1

  2
none_device
  4

  6

 40
0.0
 41
0.0
 42
0.0
 43
0.0
 44
210.0
 45
297.0
 46
0.0
 47
0.0
 48
0.0
 49
0.0
140
0.0
141
0.0
142
1.0
143
1.0
 70
1024
 72
1
 73
0
 74
0
  7

 75
0
147
1.0
148
0.0
149
0.0
100
AcDbLayout
  1
Model
 70
0
 71
0
 10
0.0
 20
0.0
 11
210.0
 21
297.0
 12
0.0
 22
0.0
 32
0.0
 14
0.0
 24
0.0
 34
0.0
 15
0.0
 25
0.0
 35
0.0
146
0.0
 13
0.0
 23
0.0
 33
0.0
 16
1.0
 26
0.0
 36
0.0
 17
0.0
 27
1.0
 37
0.0
 76
0
330
210
345
0
346
0
  0
LAYOUT
  5
26B
102
{ACAD_REACTORS
330
1A
102
}
100
AcDbPlotSettings
  1

  2
none_device
  4

  6

 40
0.0
 41
0.0
 42
0.0
 43
0.0
 44
210.0
 45
297.0
 46
0.0
 47
0.0
 48
0.0
 49
0.0
140
0.0
141
0.0
142
1.0
143
1.0
 70
0
 72
1
 73
0
 74
0
  7

 75
0
147
1.0
148
0.0
149
0.0
100
AcDbLayout
  1
Layout1
 70
0
 71
1
 10
0.0
 20
0.0
 11
210.0
 21
297.0
 12
0.0
 22
0.0
 32
0.0
 14
0.0
 24
0.0
 34
0.0
 15
0.0
 25
0.0
 35
0.0
146
0.0
 13
0.0
 23
0.0
 33
0.0
 16
1.0
 26
0.0
 36
0.0
 17
0.0
 27
1.0
 37
0.0
 76
0
330
211
345
0
346
0
  0
ENDSEC
  0
EOF
