999
DXF file: C:\Users\sesa63760\Dev\_Creo\CAD\MCADID0004837_3D-CAD\drw0001_4.dxf
999
Pro/ENGINEER 2019471 by Parametric Technology Corporation
  0
SECTION
  2
HEADER
  9
$ACADVER
  1
AC1024
  9
$DWGCODEPAGE
  3
ANSI_1252
  9
$EXTMAX
 10
61.0669083072
 20
86.3660560345
 30
0.0
  9
$EXTMIN
 10
0.0
 20
0.0
 30
0.0
  9
$LIMMIN
 10
0.0
 20
0.0
  9
$LIMMAX
 10
61.0669083072
 20
86.3660560345
  9
$VIEWCTR
 10
30.5334541536
 20
43.1830280172
  9
$VIEWSIZE
 40
86.3660560345
  9
$CLAYER
  8
0
  9
$LTSCALE
 40
5.6297873563
  9
$CELTYPE
  6
BYLAYER
  9
$DIMSCALE
 40
1.0
  9
$DIMASZ
 40
0.7269870037
  9
$DIMEXO
 40
1.0
  9
$DIMDLI
 40
3.8896712644
  9
$DIMEXE
 40
1.0
  9
$DIMCEN
 40
0.921237931
  9
$DIMLFAC
 40
1.0
  9
$DIMBLK
  1
_FILLED
  9
$DIMALT
 70
0
  9
$DIMALTF
 40
0.0393700787
  9
$DIMTXT
 40
1.0177818051
  9
$DIMTOL
 70
1
  9
$DIMLIM
 70
0
  9
$DIMTFAC
 40
1.0
  9
$DIMTP
 40
0.01
  9
$DIMTM
 40
0.01
  9
$DIMGAP
 40
0.625
  9
$DIMDSEP
 70
46
  9
$AUNITS
 70
0
  9
$PDMODE
 70
3
  9
$PDSIZE
 40
0.3125
  9
$HANDSEED
  5
2EF
  9
$TILEMODE
 70
1
  9
$MEASUREMENT
 70
1
  9
$INSUNITS
 70
4
  0
ENDSEC
  0
SECTION
  2
CLASSES
  0
CLASS
  1
ACDBDICTIONARYWDFLT
  2
AcDbDictionaryWithDefault
  3
AutoCAD 2000
 90
0
 91
1
280
0
281
0
  0
CLASS
  1
ACDBPLACEHOLDER
  2
AcDbPlaceHolder
  3
AutoCAD 2000
 90
0
 91
1
280
0
281
0
  0
CLASS
  1
LAYOUT
  2
AcDbLayout
  3
AutoCAD 2000
 90
0
 91
0
280
0
281
0
  0
ENDSEC
  0
SECTION
  2
TABLES
  0
TABLE
  2
VPORT
  5
8
100
AcDbSymbolTable
 70
2
  0
VPORT
  5
1F4
100
AcDbSymbolTableRecord
100
AcDbViewportTableRecord
  2
*ACTIVE
 70
0
 10
0.0
 20
0.0
 11
1.0
 21
1.0
 12
30.5334541536
 22
43.1830280172
 13
0.0
 23
0.0
 14
1.0
 24
1.0
 15
0.0
 25
0.0
 16
0.0
 26
0.0
 36
1.0
 17
0.0
 27
0.0
 37
0.0
 40
86.3660560345
 41
0.7070707071
 42
50.0
 43
0.0
 44
0.0
 50
0.0
 51
0.0
 71
0
 72
100
 73
1
 74
1
 75
0
 76
0
 77
0
 78
0
  0
ENDTAB
  0
TABLE
  2
LTYPE
  5
5
100
AcDbSymbolTable
 70
6
  0
LTYPE
  5
14
100
AcDbSymbolTableRecord
100
AcDbLinetypeTableRecord
  2
BYBLOCK
 70
0
  3

 72
65
 73
0
 40
0.0
  0
LTYPE
  5
15
100
AcDbSymbolTableRecord
100
AcDbLinetypeTableRecord
  2
BYLAYER
 70
0
  3

 72
65
 73
0
 40
0.0
  0
LTYPE
  5
16
100
AcDbSymbolTableRecord
100
AcDbLinetypeTableRecord
  2
CONTINUOUS
 70
64
  3
Solid line
 72
65
 73
0
 40
0.0
  0
LTYPE
  5
1F5
100
AcDbSymbolTableRecord
100
AcDbLinetypeTableRecord
  2
CENTER
 70
64
  3
____ _ ____ _ ____ _ ____ _ ____ _ ____ _ ____
 72
65
 73
4
 40
0.6
 49
0.375
 74
0
 49
-0.075
 74
0
 49
0.075
 74
0
 49
-0.075
 74
0
  0
LTYPE
  5
1F6
100
AcDbSymbolTableRecord
100
AcDbLinetypeTableRecord
  2
HIDDEN
 70
64
  3
- - - - - - - - - - - - - - - - - - - -
 72
65
 73
2
 40
0.2
 49
0.1
 74
0
 49
-0.1
 74
0
  0
LTYPE
  5
1F7
100
AcDbSymbolTableRecord
100
AcDbLinetypeTableRecord
  2
PHANTOM
 70
64
  3
_____ _ _ _____ _ _ _____ _ _ _____
 72
65
 73
6
 40
0.8
 49
0.45
 74
0
 49
-0.05
 74
0
 49
0.1
 74
0
 49
-0.05
 74
0
 49
0.1
 74
0
 49
-0.05
 74
0
  0
LTYPE
  5
1F8
100
AcDbSymbolTableRecord
100
AcDbLinetypeTableRecord
  2
DOT
 70
64
  3
. . . . . . . . . . . . . . . . . . . .
 72
65
 73
2
 40
0.2
 49
0.1
 74
0
 49
-0.1
 74
0
  0
LTYPE
  5
1F9
100
AcDbSymbolTableRecord
100
AcDbLinetypeTableRecord
  2
DASHED
 70
64
  3
- - - - - - - - - - - - - - - - - - - -
 72
65
 73
2
 40
0.2
 49
0.1
 74
0
 49
-0.1
 74
0
  0
ENDTAB
  0
TABLE
  2
LAYER
  5
2
100
AcDbSymbolTable
 70
36
  0
LAYER
  5
10
100
AcDbSymbolTableRecord
100
AcDbLayerTableRecord
  2
0
 70
0
 62
7
  6
CONTINUOUS
370
-3
390
F
  0
LAYER
  5
1FA
100
AcDbSymbolTableRecord
100
AcDbLayerTableRecord
  2
DEFAULT_1
 70
0
 62
7
  6
CENTER
370
-3
390
F
  0
LAYER
  5
1FB
100
AcDbSymbolTableRecord
100
AcDbLayerTableRecord
  2
DEFAULT_2
 70
0
 62
7
  6
HIDDEN
370
-3
390
F
  0
LAYER
  5
1FC
100
AcDbSymbolTableRecord
100
AcDbLayerTableRecord
  2
DEFAULT_3
 70
0
 62
7
  6
PHANTOM
370
-3
390
F
  0
LAYER
  5
1FD
100
AcDbSymbolTableRecord
100
AcDbLayerTableRecord
  2
00_COMPONENTS
 70
0
 62
7
  6
CONTINUOUS
370
-3
390
F
  0
LAYER
  5
1FE
100
AcDbSymbolTableRecord
100
AcDbLayerTableRecord
  2
01_1_DEFAULT_DATUMS
 70
0
 62
7
  6
CONTINUOUS
370
-3
390
F
  0
LAYER
  5
1FF
100
AcDbSymbolTableRecord
100
AcDbLayerTableRecord
  2
01_PLANES
 70
0
 62
7
  6
CONTINUOUS
370
-3
390
F
  0
LAYER
  5
200
100
AcDbSymbolTableRecord
100
AcDbLayerTableRecord
  2
02_COORD_SYS
 70
0
 62
7
  6
CONTINUOUS
370
-3
390
F
  0
LAYER
  5
201
100
AcDbSymbolTableRecord
100
AcDbLayerTableRecord
  2
03_AXES
 70
0
 62
7
  6
CONTINUOUS
370
-3
390
F
  0
LAYER
  5
202
100
AcDbSymbolTableRecord
100
AcDbLayerTableRecord
  2
04_POINTS
 70
0
 62
7
  6
CONTINUOUS
370
-3
390
F
  0
LAYER
  5
203
100
AcDbSymbolTableRecord
100
AcDbLayerTableRecord
  2
05_CURVES
 70
0
 62
7
  6
CONTINUOUS
370
-3
390
F
  0
LAYER
  5
204
100
AcDbSymbolTableRecord
100
AcDbLayerTableRecord
  2
06_SURFS
 70
0
 62
7
  6
CONTINUOUS
370
-3
390
F
  0
LAYER
  5
205
100
AcDbSymbolTableRecord
100
AcDbLayerTableRecord
  2
07_COSMETICS
 70
0
 62
7
  6
CONTINUOUS
370
-3
390
F
  0
LAYER
  5
206
100
AcDbSymbolTableRecord
100
AcDbLayerTableRecord
  2
10_NOTES
 70
0
 62
7
  6
CONTINUOUS
370
-3
390
F
  0
LAYER
  5
207
100
AcDbSymbolTableRecord
100
AcDbLayerTableRecord
  2
11_NOTES_PUB
 70
0
 62
7
  6
CONTINUOUS
370
-3
390
F
  0
LAYER
  5
208
100
AcDbSymbolTableRecord
100
AcDbLayerTableRecord
  2
13_REF_GTOL
 70
0
 62
7
  6
CONTINUOUS
370
-3
390
F
  0
LAYER
  5
209
100
AcDbSymbolTableRecord
100
AcDbLayerTableRecord
  2
16_MISC
 70
0
 62
7
  6
CONTINUOUS
370
-3
390
F
  0
LAYER
  5
20A
100
AcDbSymbolTableRecord
100
AcDbLayerTableRecord
  2
17_NO_PRINT
 70
0
 62
7
  6
CONTINUOUS
370
-3
390
F
  0
LAYER
  5
20B
100
AcDbSymbolTableRecord
100
AcDbLayerTableRecord
  2
18_DATUM_CAMS_JOINTS
 70
0
 62
7
  6
CONTINUOUS
370
-3
390
F
  0
LAYER
  5
20C
100
AcDbSymbolTableRecord
100
AcDbLayerTableRecord
  2
19_DATUM_FUNCTIONAL
 70
0
 62
7
  6
CONTINUOUS
370
-3
390
F
  0
LAYER
  5
20D
100
AcDbSymbolTableRecord
100
AcDbLayerTableRecord
  2
20_DATUM_KINEMATIC_SCHEME
 70
0
 62
7
  6
CONTINUOUS
370
-3
390
F
  0
ENDTAB
  0
TABLE
  2
STYLE
  5
3
100
AcDbSymbolTable
 70
1
  0
STYLE
  5
11
100
AcDbSymbolTableRecord
100
AcDbTextStyleTableRecord
  2
STANDARD
 70
0
 40
0.0
 41
1.0
 50
0.0
 71
0
 42
0.2
  3
ARIAL.TTF
  4

  0
STYLE
  5
20E
100
AcDbSymbolTableRecord
100
AcDbTextStyleTableRecord
  2
TEXTSTYLE_1
 70
0
 40
0.0
 41
0.8
 50
0.0
 71
0
 42
0.2
  3
gdt
  4

  0
ENDTAB
  0
TABLE
  2
VIEW
  5
6
100
AcDbSymbolTable
 70
0
  0
ENDTAB
  0
TABLE
  2
UCS
  5
7
100
AcDbSymbolTable
 70
0
  0
ENDTAB
  0
TABLE
  2
APPID
  5
9
100
AcDbSymbolTable
 70
1
  0
APPID
  5
20F
100
AcDbSymbolTableRecord
100
AcDbRegAppTableRecord
  2
ACAD
 70
0
  0
ENDTAB
  0
TABLE
  2
BLOCK_RECORD
  5
1
100
AcDbSymbolTable
 70
0
  0
BLOCK_RECORD
  5
210
100
AcDbSymbolTableRecord
100
AcDbBlockTableRecord
  2
*Model_Space
  0
BLOCK_RECORD
  5
211
100
AcDbSymbolTableRecord
100
AcDbBlockTableRecord
  2
*Paper_Space
  0
BLOCK_RECORD
  5
212
100
AcDbSymbolTableRecord
100
AcDbBlockTableRecord
  2
_FILLED
  0
ENDTAB
  0
TABLE
  2
DIMSTYLE
  5
A
100
AcDbSymbolTable
 70
1
100
AcDbDimStyleTable
 71
0
  0
DIMSTYLE
105
213
100
AcDbSymbolTableRecord
100
AcDbDimStyleTableRecord
  2
STANDARD
 70
0
  3

  4

 40
1.0
 41
0.7269870037
 42
1.0
 43
0.38
 44
1.0
 45
0.0
 46
0.0
 47
0.01
 48
0.01
140
1.0177818051
141
0.09
142
0.0
143
25.4
144
1.0
145
0.0
146
1.0
147
0.625
 71
1
 72
0
 73
0
 74
0
 75
0
 76
0
 77
1
 78
8
 79
2
170
0
171
1
172
0
173
0
174
0
175
0
176
0
177
0
178
0
270
2
179
2
271
2
272
2
273
2
274
2
275
0
280
0
281
0
282
0
283
1
284
8
285
0
286
0
287
3
288
0
340
11
278
46
341
212
342
212
343
212
344
212
  0
ENDTAB
  0
ENDSEC
  0
SECTION
  2
BLOCKS
  0
BLOCK
  5
20
100
AcDbEntity
  8
0
100
AcDbBlockBegin
  2
*Model_Space
 70
0
 10
0.0
 20
0.0
 30
0.0
  3
*Model_Space
  1

  0
ENDBLK
  5
21
100
AcDbEntity
  8
0
100
AcDbBlockEnd
  0
BLOCK
  5
1C
100
AcDbEntity
  8
0
100
AcDbBlockBegin
  2
*Paper_Space
 70
0
 10
0.0
 20
0.0
 30
0.0
  3
*Paper_Space
  1

  0
ENDBLK
  5
1D
100
AcDbEntity
  8
0
100
AcDbBlockEnd
  0
BLOCK
  5
214
100
AcDbEntity
  8
0
100
AcDbBlockBegin
  2
_FILLED
 70
64
 10
0.0
 20
0.0
  3
_FILLED
  1

  0
SOLID
  5
215
100
AcDbEntity
  8
0
  6
BYBLOCK
 62
0
100
AcDbTrace
 10
0.0
 20
0.0
 11
-1.0
 21
0.25
 12
-1.0
 22
-0.25
 13
-1.0
 23
-0.25
  0
ENDBLK
  5
216
100
AcDbEntity
  8
0
  6
BYBLOCK
 62
0
100
AcDbBlockEnd
  0
ENDSEC
  0
SECTION
  2
ENTITIES
  0
LINE
  5
217
100
AcDbEntity
  8
0
100
AcDbLine
 62
7
  6
BYLAYER
 10
19.5287565529
 20
64.6655878877
 11
18.732770406
 21
63.286899439
  0
LINE
  5
218
100
AcDbEntity
  8
0
100
AcDbLine
 62
7
  6
BYLAYER
 10
18.3199859844
 20
63.5973235042
 11
19.1276059473
 21
64.995999725
  0
LINE
  5
219
100
AcDbEntity
  8
0
100
AcDbLine
 62
7
  6
BYLAYER
 10
21.3116118014
 20
64.2074043586
 11
21.0547320558
 21
63.8833676335
  0
LINE
  5
21A
100
AcDbEntity
  8
0
100
AcDbLine
 62
7
  6
BYLAYER
 10
18.3200341325
 20
63.5973065996
 11
18.185227384
 21
63.213352084
  0
LINE
  5
21B
100
AcDbEntity
  8
0
100
AcDbLine
 62
7
  6
BYLAYER
 10
19.2797608375
 20
65.3804940596
 11
19.1275771756
 21
64.9960125575
  0
LINE
  5
21C
100
AcDbEntity
  8
0
100
AcDbLine
 62
7
  6
BYLAYER
 10
20.2349031585
 20
63.4886696861
 11
20.5679870375
 21
64.0655878877
  0
LINE
  5
21D
100
AcDbEntity
  8
0
100
AcDbLine
 62
7
  6
BYLAYER
 10
21.0547120689
 20
63.8833834781
 11
20.8766000518
 21
63.5748640258
  0
LINE
  5
21E
100
AcDbEntity
  8
0
100
AcDbLine
 62
7
  6
BYLAYER
 10
40.4116534196
 20
26.8060401511
 11
40.9702339907
 21
26.9111869748
  0
LINE
  5
21F
100
AcDbEntity
  8
0
100
AcDbLine
 62
7
  6
BYLAYER
 10
38.3874919771
 20
26.745660299
 11
38.7965543177
 21
26.806106099
  0
LINE
  5
220
100
AcDbEntity
  8
0
100
AcDbLine
 62
7
  6
BYLAYER
 10
40.4116512768
 20
26.8060506644
 11
38.796550562
 21
26.8061423497
  0
LINE
  5
221
100
AcDbEntity
  8
0
100
AcDbLine
 62
7
  6
BYLAYER
 10
38.8821210256
 20
27.31875
 11
41.1928195924
 21
27.31875
  0
LINE
  5
222
100
AcDbEntity
  8
0
100
AcDbLine
 62
7
  6
BYLAYER
 10
41.1928195924
 20
28.51875
 11
38.8821210256
 21
28.51875
  0
LINE
  5
223
100
AcDbEntity
  8
0
100
AcDbLine
 62
7
  6
BYLAYER
 10
38.7965525411
 20
29.0313717254
 11
40.4116530078
 21
29.0314532504
  0
LINE
  5
224
100
AcDbEntity
  8
0
100
AcDbLine
 62
7
  6
BYLAYER
 10
38.3874919771
 20
29.091839701
 11
38.7965558856
 21
29.0313936782
  0
LINE
  5
225
100
AcDbEntity
  8
0
100
AcDbLine
 62
7
  6
BYLAYER
 10
40.4116409697
 20
29.0313936782
 11
40.9702339907
 21
28.9263130252
  0
LINE
  5
226
100
AcDbEntity
  8
0
100
AcDbLine
 62
7
  6
BYLAYER
 10
50.3050448055
 20
59.9683629537
 11
50.7310494508
 21
60.0986056442
  0
LINE
  5
227
100
AcDbEntity
  8
0
100
AcDbLine
 62
7
  6
BYLAYER
 10
42.3475316052
 20
55.8691370463
 11
41.9215269598
 21
55.7388943558
  0
LINE
  5
228
100
AcDbEntity
  8
0
100
AcDbLine
 62
7
  6
BYLAYER
 10
18.1845227806
 20
52.6261545898
 11
18.3199683273
 21
52.2401702985
  0
LINE
  5
229
100
AcDbEntity
  8
0
100
AcDbLine
 62
7
  6
BYLAYER
 10
19.2797608375
 20
50.4570059404
 11
19.1275766746
 21
50.8414886883
  0
LINE
  5
22A
100
AcDbEntity
  8
0
100
AcDbLine
 62
7
  6
BYLAYER
 10
19.1276003899
 20
50.8414980753
 11
18.3199683385
 21
52.2401703005
  0
LINE
  5
22B
100
AcDbEntity
  8
0
100
AcDbLine
 62
7
  6
BYLAYER
 10
18.731314232
 20
52.5531227283
 11
19.5287565529
 21
51.1719121123
  0
LINE
  5
22C
100
AcDbEntity
  8
0
100
AcDbLine
 62
7
  6
BYLAYER
 10
20.5679870375
 20
51.7719121123
 11
20.2327345502
 21
52.3525864537
  0
LINE
  5
22D
100
AcDbEntity
  8
0
100
AcDbLine
 62
7
  6
BYLAYER
 10
20.8741142222
 20
52.2669209751
 11
21.0547035167
 21
51.9541097422
  0
LINE
  5
22E
100
AcDbEntity
  8
0
100
AcDbLine
 62
7
  6
BYLAYER
 10
28.6923136091
 20
64.6246903163
 11
28.6923136091
 21
51.2226880175
  0
LINE
  5
22F
100
AcDbEntity
  8
0
100
AcDbLine
 62
7
  6
BYLAYER
 10
28.9423136091
 20
51.1892969224
 11
28.9423136091
 21
64.6582709447
  0
LINE
  5
230
100
AcDbEntity
  8
0
100
AcDbLine
 62
7
  6
BYLAYER
 10
39.6942782942
 20
40.2847754038
 11
53.0322285217
 21
40.2847754038
  0
LINE
  5
231
100
AcDbEntity
  8
0
100
AcDbLine
 62
7
  6
BYLAYER
 10
53.0658091501
 20
40.5347754038
 11
39.6621174574
 21
40.5347754038
  0
LINE
  5
232
100
AcDbEntity
  8
0
100
AcDbLine
 62
7
  6
BYLAYER
 10
21.3116118014
 20
51.6300956414
 11
21.0547330328
 21
51.9541311201
  0
LINE
  5
233
100
AcDbEntity
  8
0
100
AcDbLine
 62
7
  6
BYLAYER
 10
48.7471860197
 20
61.6831451859
 11
49.0509955194
 21
62.0089409872
  0
LINE
  5
234
100
AcDbEntity
  8
0
100
AcDbLine
 62
7
  6
BYLAYER
 10
42.2360972181
 20
55.1940426859
 11
42.5618930194
 21
55.4978521856
  0
LINE
  5
235
100
AcDbEntity
  8
0
100
AcDbLine
 62
7
  6
BYLAYER
 10
50.4164791925
 20
60.6434573141
 11
50.0906833912
 21
60.3396478144
  0
LINE
  5
236
100
AcDbEntity
  8
0
100
AcDbLine
 62
7
  6
BYLAYER
 10
31.8262882053
 20
65.0456536616
 11
31.8262882053
 21
50.8041006421
  0
LINE
  5
237
100
AcDbEntity
  8
0
100
AcDbLine
 62
7
  6
BYLAYER
 10
32.8262882053
 20
50.6705362617
 11
32.8262882053
 21
65.1799761752
  0
LINE
  5
238
100
AcDbEntity
  8
0
100
AcDbLine
 62
7
  6
BYLAYER
 10
43.905390391
 20
54.1543548141
 11
43.6015808912
 21
53.8285590128
  0
LINE
  5
239
100
AcDbEntity
  8
0
100
AcDbLine
 62
7
  6
BYLAYER
 10
39.2911133113
 20
43.41875
 11
53.453191867
 21
43.41875
  0
LINE
  5
23A
100
AcDbEntity
  8
0
100
AcDbLine
 62
7
  6
BYLAYER
 10
53.5875143806
 20
44.41875
 11
39.1624699638
 21
44.41875
  0
LINE
  5
23B
100
AcDbEntity
  8
0
100
AcDbLine
 62
7
  6
BYLAYER
 10
50.2471895136
 20
23.3528370789
 11
49.8768904888
 21
23.784052499
  0
LINE
  5
23C
100
AcDbEntity
  8
0
100
AcDbLine
 62
7
  6
BYLAYER
 10
51.3116118014
 20
21.6300956414
 11
51.0547330328
 21
21.9541311201
  0
LINE
  5
23D
100
AcDbEntity
  8
0
100
AcDbLine
 62
7
  6
BYLAYER
 10
49.1276003899
 20
20.8414980753
 11
48.3199683385
 21
22.2401703005
  0
LINE
  5
23E
100
AcDbEntity
  8
0
100
AcDbLine
 62
7
  6
BYLAYER
 10
48.3734072695
 20
23.1730357717
 11
49.5287565529
 21
21.1719121123
  0
LINE
  5
23F
100
AcDbEntity
  8
0
100
AcDbLine
 62
7
  6
BYLAYER
 10
50.5679870375
 20
21.7719121123
 11
49.4126377541
 21
23.7730357717
  0
LINE
  5
240
100
AcDbEntity
  8
0
100
AcDbLine
 62
7
  6
BYLAYER
 10
50.2472325558
 20
23.3528740405
 11
51.0547035167
 21
21.9541097422
  0
LINE
  5
241
100
AcDbEntity
  8
0
100
AcDbLine
 62
7
  6
BYLAYER
 10
44.1464325611
 20
53.5139887545
 11
44.2766752516
 21
53.9399933999
  0
LINE
  5
242
100
AcDbEntity
  8
0
100
AcDbLine
 62
7
  6
BYLAYER
 10
15.6643445559
 20
52.9627606331
 11
36.170660239
 21
50.2238472829
  0
LINE
  5
243
100
AcDbEntity
  8
0
100
AcDbLine
 62
7
  6
BYLAYER
 10
49.2797608375
 20
20.4570059404
 11
49.1275766746
 21
20.8414886883
  0
LINE
  5
244
100
AcDbEntity
  8
0
100
AcDbLine
 62
7
  6
BYLAYER
 10
48.1317401369
 20
22.7764894735
 11
48.3199683273
 21
22.2401702985
  0
LINE
  5
245
100
AcDbEntity
  8
0
100
AcDbLine
 62
7
  6
BYLAYER
 10
41.3671544512
 20
27.2807904334
 11
38.7489743018
 21
47.6330294027
  0
LINE
  5
246
100
AcDbEntity
  8
0
100
AcDbLine
 62
7
  6
BYLAYER
 10
46.5406496196
 20
62.389260768
 11
46.6408584636
 21
62.8233129583
  0
LINE
  5
247
100
AcDbEntity
  8
0
100
AcDbLine
 62
7
  6
BYLAYER
 10
48.5061438495
 20
62.3235112455
 11
48.375901159
 21
61.8975066001
  0
LINE
  5
248
100
AcDbEntity
  8
0
100
AcDbLine
 62
7
  6
BYLAYER
 10
51.2308511636
 20
58.2333202583
 11
50.7967989734
 21
58.1331114143
  0
LINE
  5
249
100
AcDbEntity
  8
0
100
AcDbLine
 62
7
  6
BYLAYER
 10
46.1119267911
 20
53.448239232
 11
46.0117179471
 21
53.0141870417
  0
LINE
  5
24A
100
AcDbEntity
  8
0
100
AcDbLine
 62
7
  6
BYLAYER
 10
41.421725247
 20
57.6041797417
 11
41.8557774373
 21
57.7043885857
  0
LINE
  5
24B
100
AcDbEntity
  8
0
100
AcDbLine
 62
7
  6
BYLAYER
 10
10.4116512768
 20
56.8060506644
 11
8.796550562
 21
56.8061423497
  0
LINE
  5
24C
100
AcDbEntity
  8
0
100
AcDbLine
 62
7
  6
BYLAYER
 10
8.3874919771
 20
59.091839701
 11
8.7965558856
 21
59.0313936782
  0
LINE
  5
24D
100
AcDbEntity
  8
0
100
AcDbLine
 62
7
  6
BYLAYER
 10
10.4116409697
 20
59.0313936782
 11
10.9702339907
 21
58.9263130252
  0
LINE
  5
24E
100
AcDbEntity
  8
0
100
AcDbLine
 62
7
  6
BYLAYER
 10
8.8821210256
 20
57.31875
 11
11.1928195924
 21
57.31875
  0
LINE
  5
24F
100
AcDbEntity
  8
0
100
AcDbLine
 62
7
  6
BYLAYER
 10
11.1928195924
 20
58.51875
 11
8.8821210256
 21
58.51875
  0
LINE
  5
250
100
AcDbEntity
  8
0
100
AcDbLine
 62
7
  6
BYLAYER
 10
8.7965525411
 20
59.0313717254
 11
10.4116530078
 21
59.0314532504
  0
LINE
  5
251
100
AcDbEntity
  8
0
100
AcDbLine
 62
7
  6
BYLAYER
 10
10.4116534196
 20
56.8060401511
 11
10.9702339907
 21
56.9111869748
  0
LINE
  5
252
100
AcDbEntity
  8
0
100
AcDbLine
 62
7
  6
BYLAYER
 10
8.3874919771
 20
56.745660299
 11
8.7965543177
 21
56.806106099
  0
LINE
  5
253
100
AcDbEntity
  8
0
100
AcDbLine
 62
7
  6
BYLAYER
 10
41.8557774373
 20
58.1331114143
 11
41.421725247
 21
58.2333202583
  0
LINE
  5
254
100
AcDbEntity
  8
0
100
AcDbLine
 62
7
  6
BYLAYER
 10
50.7967989734
 20
57.7043885857
 11
51.2308511636
 21
57.6041797417
  0
LINE
  5
255
100
AcDbEntity
  8
0
100
AcDbLine
 62
7
  6
BYLAYER
 10
50.7310494508
 20
55.7388943558
 11
50.3050448055
 21
55.8691370463
  0
LINE
  5
256
100
AcDbEntity
  8
0
100
AcDbLine
 62
7
  6
BYLAYER
 10
44.2766752516
 20
61.8975066001
 11
44.1464325611
 21
62.3235112455
  0
LINE
  5
257
100
AcDbEntity
  8
0
100
AcDbLine
 62
7
  6
BYLAYER
 10
46.6408584636
 20
53.0141870417
 11
46.5406496196
 21
53.448239232
  0
LINE
  5
258
100
AcDbEntity
  8
0
100
AcDbLine
 62
7
  6
BYLAYER
 10
46.0117179471
 20
62.8233129583
 11
46.1119267911
 21
62.389260768
  0
LINE
  5
259
100
AcDbEntity
  8
0
100
AcDbLine
 62
7
  6
BYLAYER
 10
41.9215269598
 20
60.0986056442
 11
42.3475316052
 21
59.9683629537
  0
LINE
  5
25A
100
AcDbEntity
  8
0
100
AcDbLine
 62
7
  6
BYLAYER
 10
42.5618930194
 20
60.3396478144
 11
42.2360972181
 21
60.6434573141
  0
LINE
  5
25B
100
AcDbEntity
  8
0
100
AcDbLine
 62
7
  6
BYLAYER
 10
49.0509955194
 20
53.8285590128
 11
48.7471860197
 21
54.1543548141
  0
LINE
  5
25C
100
AcDbEntity
  8
0
100
AcDbLine
 62
7
  6
BYLAYER
 10
48.375901159
 20
53.9399933999
 11
48.5061438495
 21
53.5139887545
  0
LINE
  5
25D
100
AcDbEntity
  8
0
100
AcDbLine
 62
7
  6
BYLAYER
 10
54.3262882053
 20
49.91875
 11
54.3262882053
 21
57.91875
  0
LINE
  5
25E
100
AcDbEntity
  8
0
100
AcDbLine
 62
7
  6
BYLAYER
 10
51.2817832012
 20
27.2531154561
 11
54.3262882053
 21
49.91875
  0
LINE
  5
25F
100
AcDbEntity
  8
0
100
AcDbLine
 62
7
  6
BYLAYER
 10
38.3262882053
 20
65.91875
 11
15.6606536614
 21
62.8742449959
  0
LINE
  5
260
100
AcDbEntity
  8
0
100
AcDbLine
 62
7
  6
BYLAYER
 10
46.3262882053
 20
65.91875
 11
38.3262882053
 21
65.91875
  0
LINE
  5
261
100
AcDbEntity
  8
0
100
AcDbLine
 62
7
  6
BYLAYER
 10
50.0906833912
 20
55.4978521856
 11
50.4164791925
 21
55.1940426859
  0
LINE
  5
262
100
AcDbEntity
  8
0
100
AcDbLine
 62
7
  6
BYLAYER
 10
43.6015808912
 20
62.0089409872
 11
43.905390391
 21
61.6831451859
  0
ARC
  5
263
100
AcDbEntity
  8
0
100
AcDbCircle
 62
7
  6
BYLAYER
 10
8.8821210256
 20
56.81875
 40
0.5
100
AcDbArc
 50
90.0
 51
188.4302418584
  0
ARC
  5
264
100
AcDbEntity
  8
0
100
AcDbCircle
 62
7
  6
BYLAYER
 10
11.1928195924
 20
56.81875
 40
0.5
100
AcDbArc
 50
65.5599527926
 51
90.0
  0
ARC
  5
265
100
AcDbEntity
  8
0
100
AcDbCircle
 62
7
  6
BYLAYER
 10
10.4788528701
 20
56.81875
 40
0.5
100
AcDbArc
 50
10.615147605
 51
90.0
  0
ARC
  5
266
100
AcDbEntity
  8
0
100
AcDbCircle
 62
7
  6
BYLAYER
 10
8.8821210256
 20
59.01875
 40
0.5
100
AcDbArc
 50
171.5944182904
 51
270.0
  0
ARC
  5
267
100
AcDbEntity
  8
0
100
AcDbCircle
 62
7
  6
BYLAYER
 10
10.4788528701
 20
59.01875
 40
0.5
100
AcDbArc
 50
270.0
 51
349.2026577628
  0
ARC
  5
268
100
AcDbEntity
  8
0
100
AcDbCircle
 62
7
  6
BYLAYER
 10
11.1928195924
 20
59.01875
 40
0.5
100
AcDbArc
 50
270.0
 51
294.3351048123
  0
ARC
  5
269
100
AcDbEntity
  8
0
100
AcDbCircle
 62
7
  6
BYLAYER
 10
19.095743851
 20
50.9219121123
 40
0.5
100
AcDbArc
 50
291.5697473387
 51
29.9999999999
  0
ARC
  5
26A
100
AcDbEntity
  8
0
100
AcDbCircle
 62
7
  6
BYLAYER
 10
21.0009997394
 20
52.0219121123
 40
0.5
100
AcDbArc
 50
209.9999999998
 51
308.430252058
  0
ARC
  5
26B
100
AcDbEntity
  8
0
100
AcDbCircle
 62
7
  6
BYLAYER
 10
16.3262882053
 20
57.91875
 40
9.525
100
AcDbArc
 50
41.7167954027
 51
318.3268830489
  0
ARC
  5
26C
100
AcDbEntity
  8
0
100
AcDbCircle
 62
7
  6
BYLAYER
 10
16.3262882053
 20
57.91875
 40
8.025
100
AcDbArc
 50
188.4071181672
 51
291.5928811597
  0
ARC
  5
26D
100
AcDbEntity
  8
0
100
AcDbCircle
 62
7
  6
BYLAYER
 10
16.3262882053
 20
57.91875
 40
8.025
100
AcDbArc
 50
46.9050357699
 51
51.5928818013
  0
ARC
  5
26E
100
AcDbEntity
  8
0
100
AcDbCircle
 62
7
  6
BYLAYER
 10
16.3262882053
 20
57.91875
 40
8.025
100
AcDbArc
 50
308.4071188027
 51
313.1335319321
  0
ARC
  5
26F
100
AcDbEntity
  8
0
100
AcDbCircle
 62
7
  6
BYLAYER
 10
16.3262882053
 20
57.91875
 40
8.025
100
AcDbArc
 50
68.4071184434
 51
171.5944182907
  0
ARC
  5
270
100
AcDbEntity
  8
0
100
AcDbCircle
 62
7
  6
BYLAYER
 10
16.3262882053
 20
57.91875
 40
7.6114942529
100
AcDbArc
 50
308.4053075641
 51
310.887174247
  0
ARC
  5
271
100
AcDbEntity
  8
0
100
AcDbCircle
 62
7
  6
BYLAYER
 10
16.3262882053
 20
57.91875
 40
7.6114942529
100
AcDbArc
 50
49.14954764
 51
51.5946102841
  0
ARC
  5
272
100
AcDbEntity
  8
0
100
AcDbCircle
 62
7
  6
BYLAYER
 10
16.3262882053
 20
57.91875
 40
7.6114942529
100
AcDbArc
 50
188.4053075637
 51
291.5946102841
  0
ARC
  5
273
100
AcDbEntity
  8
0
100
AcDbCircle
 62
7
  6
BYLAYER
 10
16.3262882053
 20
57.91875
 40
7.6114942529
100
AcDbArc
 50
68.4053447242
 51
171.5945854459
  0
ARC
  5
274
100
AcDbEntity
  8
0
100
AcDbCircle
 62
7
  6
BYLAYER
 10
16.3262882053
 20
57.91875
 40
6.7279624849
100
AcDbArc
 50
174.8835625291
 51
185.1164374709
  0
ARC
  5
275
100
AcDbEntity
  8
0
100
AcDbCircle
 62
7
  6
BYLAYER
 10
16.3262882053
 20
57.91875
 40
6.0183908046
100
AcDbArc
 50
190.6543223469
 51
289.3462165255
  0
ARC
  5
276
100
AcDbEntity
  8
0
100
AcDbCircle
 62
7
  6
BYLAYER
 10
16.3262882053
 20
57.91875
 40
6.0183908046
100
AcDbArc
 50
70.6537834745
 51
169.3456379797
  0
ARC
  5
277
100
AcDbEntity
  8
0
100
AcDbCircle
 62
7
  6
BYLAYER
 10
16.3262882053
 20
57.91875
 40
5.45
100
AcDbArc
 50
74.4114930593
 51
169.3593848189
  0
ARC
  5
278
100
AcDbEntity
  8
0
100
AcDbCircle
 62
7
  6
BYLAYER
 10
16.3262882053
 20
57.91875
 40
5.45
100
AcDbArc
 50
190.6573286681
 51
285.6282595621
  0
ARC
  5
279
100
AcDbEntity
  8
0
100
AcDbCircle
 62
7
  6
BYLAYER
 10
16.3262882053
 20
57.91875
 40
5.0
100
AcDbArc
 50
97.6503220188
 51
262.3923502307
  0
ARC
  5
27A
100
AcDbEntity
  8
0
100
AcDbCircle
 62
7
  6
BYLAYER
 10
16.3262882053
 20
57.91875
 40
2.1
100
AcDbArc
 50
129.0616836845
 51
231.0520598987
  0
ARC
  5
27B
100
AcDbEntity
  8
0
100
AcDbCircle
 62
7
  6
BYLAYER
 10
16.3262882053
 20
57.91875
 40
2.1
100
AcDbArc
 50
53.9828761738
 51
125.9382052286
  0
ARC
  5
27C
100
AcDbEntity
  8
0
100
AcDbCircle
 62
7
  6
BYLAYER
 10
16.3262882053
 20
57.91875
 40
2.1
100
AcDbArc
 50
309.0616836845
 51
51.0520598987
  0
ARC
  5
27D
100
AcDbEntity
  8
0
100
AcDbCircle
 62
7
  6
BYLAYER
 10
16.3262882053
 20
57.91875
 40
2.1
100
AcDbArc
 50
233.9828761738
 51
305.9382052286
  0
CIRCLE
  5
27E
100
AcDbEntity
  8
0
100
AcDbCircle
 62
7
  6
BYLAYER
 10
16.3262882053
 20
57.91875
 40
2.05
  0
CIRCLE
  5
27F
100
AcDbEntity
  8
0
100
AcDbCircle
 62
7
  6
BYLAYER
 10
16.3262882053
 20
57.91875
 40
1.3
  0
ARC
  5
280
100
AcDbEntity
  8
0
100
AcDbCircle
 62
7
  6
BYLAYER
 10
21.0009997394
 20
63.8155878877
 40
0.5
100
AcDbArc
 50
51.5697576361
 51
150.0000000005
  0
ARC
  5
281
100
AcDbEntity
  8
0
100
AcDbCircle
 62
7
  6
BYLAYER
 10
19.095743851
 20
64.9155878877
 40
0.5
100
AcDbArc
 50
330.0000000004
 51
68.4302462916
  0
ARC
  5
282
100
AcDbEntity
  8
0
100
AcDbCircle
 62
7
  6
BYLAYER
 10
38.8821210256
 20
26.81875
 40
0.5
100
AcDbArc
 50
90.0
 51
188.4302418584
  0
ARC
  5
283
100
AcDbEntity
  8
0
100
AcDbCircle
 62
7
  6
BYLAYER
 10
38.8821210256
 20
29.01875
 40
0.5
100
AcDbArc
 50
171.5944182904
 51
270.0
  0
ARC
  5
284
100
AcDbEntity
  8
0
100
AcDbCircle
 62
7
  6
BYLAYER
 10
40.4788528701
 20
29.01875
 40
0.5
100
AcDbArc
 50
270.0
 51
349.2026577628
  0
ARC
  5
285
100
AcDbEntity
  8
0
100
AcDbCircle
 62
7
  6
BYLAYER
 10
41.1928195924
 20
26.81875
 40
0.5
100
AcDbArc
 50
69.3168642588
 51
90.0
  0
ARC
  5
286
100
AcDbEntity
  8
0
100
AcDbCircle
 62
7
  6
BYLAYER
 10
41.1928195924
 20
29.01875
 40
0.5
100
AcDbArc
 50
270.0
 51
271.7279519689
  0
ARC
  5
287
100
AcDbEntity
  8
0
100
AcDbCircle
 62
7
  6
BYLAYER
 10
40.4788528701
 20
26.81875
 40
0.5
100
AcDbArc
 50
10.615147605
 51
90.0
  0
ARC
  5
288
100
AcDbEntity
  8
0
100
AcDbCircle
 62
7
  6
BYLAYER
 10
49.095743851
 20
20.9219121123
 40
0.5
100
AcDbArc
 50
291.5697473387
 51
29.9999999998
  0
ARC
  5
289
100
AcDbEntity
  8
0
100
AcDbCircle
 62
7
  6
BYLAYER
 10
47.9403945676
 20
22.9230357717
 40
0.5
100
AcDbArc
 50
29.9999999999
 51
54.4812037211
  0
ARC
  5
28A
100
AcDbEntity
  8
0
100
AcDbCircle
 62
7
  6
BYLAYER
 10
51.0009997394
 20
22.0219121123
 40
0.5
100
AcDbArc
 50
209.9999999998
 51
308.430252058
  0
ARC
  5
28B
100
AcDbEntity
  8
0
100
AcDbCircle
 62
7
  6
BYLAYER
 10
50.2026338171
 20
23.4047224527
 40
0.5
100
AcDbArc
 50
130.6124746052
 51
209.9999999998
  0
ARC
  5
28C
100
AcDbEntity
  8
0
100
AcDbCircle
 62
7
  6
BYLAYER
 10
48.2973779288
 20
22.3047224527
 40
0.5
100
AcDbArc
 50
30.0000000005
 51
109.2314057616
  0
ARC
  5
28D
100
AcDbEntity
  8
0
100
AcDbCircle
 62
7
  6
BYLAYER
 10
46.3262882053
 20
27.91875
 40
9.525
100
AcDbArc
 50
128.19341495
 51
51.5104656074
  0
ARC
  5
28E
100
AcDbEntity
  8
0
100
AcDbCircle
 62
7
  6
BYLAYER
 10
46.3262882053
 20
27.91875
 40
8.025
100
AcDbArc
 50
188.4071181672
 51
291.5928811597
  0
ARC
  5
28F
100
AcDbEntity
  8
0
100
AcDbCircle
 62
7
  6
BYLAYER
 10
46.3262882053
 20
27.91875
 40
8.025
100
AcDbArc
 50
308.4071188027
 51
43.9522481034
  0
ARC
  5
290
100
AcDbEntity
  8
0
100
AcDbCircle
 62
7
  6
BYLAYER
 10
46.3262882053
 20
27.91875
 40
8.025
100
AcDbArc
 50
136.1166587682
 51
171.5944182907
  0
ARC
  5
291
100
AcDbEntity
  8
0
100
AcDbCircle
 62
7
  6
BYLAYER
 10
46.3262882053
 20
27.91875
 40
7.6114942529
100
AcDbArc
 50
308.4053075641
 51
41.6425588159
  0
ARC
  5
292
100
AcDbEntity
  8
0
100
AcDbCircle
 62
7
  6
BYLAYER
 10
46.3262882053
 20
27.91875
 40
7.6114942529
100
AcDbArc
 50
188.4053075637
 51
291.5946102841
  0
ARC
  5
293
100
AcDbEntity
  8
0
100
AcDbCircle
 62
7
  6
BYLAYER
 10
46.3262882053
 20
27.91875
 40
7.6114942529
100
AcDbArc
 50
138.4684746658
 51
171.5945854459
  0
ARC
  5
294
100
AcDbEntity
  8
0
100
AcDbCircle
 62
7
  6
BYLAYER
 10
46.3262882053
 20
27.91875
 40
6.7279624849
100
AcDbArc
 50
174.8835625291
 51
185.1164374709
  0
ARC
  5
295
100
AcDbEntity
  8
0
100
AcDbCircle
 62
7
  6
BYLAYER
 10
46.3262882053
 20
27.91875
 40
6.0183908046
100
AcDbArc
 50
310.6537834745
 51
25.2715368109
  0
ARC
  5
296
100
AcDbEntity
  8
0
100
AcDbCircle
 62
7
  6
BYLAYER
 10
46.3262882053
 20
27.91875
 40
6.0183908046
100
AcDbArc
 50
190.6543223469
 51
289.3462165255
  0
ARC
  5
297
100
AcDbEntity
  8
0
100
AcDbCircle
 62
7
  6
BYLAYER
 10
46.3262882053
 20
27.91875
 40
6.0183908046
100
AcDbArc
 50
153.2952340152
 51
169.3456379797
  0
ARC
  5
298
100
AcDbEntity
  8
0
100
AcDbCircle
 62
7
  6
BYLAYER
 10
46.3262882053
 20
27.91875
 40
5.45
100
AcDbArc
 50
310.6575739674
 51
14.6026704073
  0
ARC
  5
299
100
AcDbEntity
  8
0
100
AcDbCircle
 62
7
  6
BYLAYER
 10
46.3262882053
 20
27.91875
 40
5.45
100
AcDbArc
 50
165.4594978165
 51
169.3593848189
  0
ARC
  5
29A
100
AcDbEntity
  8
0
100
AcDbCircle
 62
7
  6
BYLAYER
 10
46.3262882053
 20
27.91875
 40
5.45
100
AcDbArc
 50
190.6573286681
 51
289.3567486413
  0
ARC
  5
29B
100
AcDbEntity
  8
0
100
AcDbCircle
 62
7
  6
BYLAYER
 10
46.3262882053
 20
27.91875
 40
5.0
100
AcDbArc
 50
187.330460263
 51
352.3496779813
  0
ARC
  5
29C
100
AcDbEntity
  8
0
100
AcDbCircle
 62
7
  6
BYLAYER
 10
46.3262882053
 20
27.91875
 40
2.1
100
AcDbArc
 50
296.6971880198
 51
349.207096353
  0
ARC
  5
29D
100
AcDbEntity
  8
0
100
AcDbCircle
 62
7
  6
BYLAYER
 10
46.3262882053
 20
27.91875
 40
2.1
100
AcDbArc
 50
246.4303063289
 51
293.6062044155
  0
ARC
  5
29E
100
AcDbEntity
  8
0
100
AcDbCircle
 62
7
  6
BYLAYER
 10
46.3262882053
 20
27.91875
 40
2.1
100
AcDbArc
 50
191.1050815303
 51
243.3302654528
  0
ARC
  5
29F
100
AcDbEntity
  8
0
100
AcDbCircle
 62
7
  6
BYLAYER
 10
46.3262882053
 20
27.91875
 40
2.1
100
AcDbArc
 50
171.3538918817
 51
188.6577988399
  0
ARC
  5
2A0
100
AcDbEntity
  8
0
100
AcDbCircle
 62
7
  6
BYLAYER
 10
46.3262882053
 20
27.91875
 40
2.1
100
AcDbArc
 50
116.6971880198
 51
169.207096353
  0
ARC
  5
2A1
100
AcDbEntity
  8
0
100
AcDbCircle
 62
7
  6
BYLAYER
 10
46.3262882053
 20
27.91875
 40
2.1
100
AcDbArc
 50
66.430306329
 51
113.6062044155
  0
ARC
  5
2A2
100
AcDbEntity
  8
0
100
AcDbCircle
 62
7
  6
BYLAYER
 10
46.3262882053
 20
27.91875
 40
2.1
100
AcDbArc
 50
11.1050815303
 51
63.3302654528
  0
ARC
  5
2A3
100
AcDbEntity
  8
0
100
AcDbCircle
 62
7
  6
BYLAYER
 10
46.3262882053
 20
27.91875
 40
2.1
100
AcDbArc
 50
351.3538918817
 51
8.6577988399
  0
CIRCLE
  5
2A4
100
AcDbEntity
  8
0
100
AcDbCircle
 62
7
  6
BYLAYER
 10
46.3262882053
 20
27.91875
 40
2.05
  0
CIRCLE
  5
2A5
100
AcDbEntity
  8
0
100
AcDbCircle
 62
7
  6
BYLAYER
 10
46.3262882053
 20
27.91875
 40
1.3
  0
ARC
  5
2A6
100
AcDbEntity
  8
0
100
AcDbCircle
 62
7
  6
BYLAYER
 10
35.7734940493
 20
47.2502536627
 40
3.0
100
AcDbArc
 50
7.3304602634
 51
82.3923502299
  0
ARC
  5
2A7
100
AcDbEntity
  8
0
100
AcDbCircle
 62
7
  6
BYLAYER
 10
42.4406967261
 20
54.9746365754
 40
0.3
100
AcDbArc
 50
132.9999999995
 51
217.1512163785
  0
ARC
  5
2A8
100
AcDbEntity
  8
0
100
AcDbCircle
 62
7
  6
BYLAYER
 10
43.3821747808
 20
54.0331585208
 40
0.3
100
AcDbArc
 50
232.8487836214
 51
317.0000000004
  0
ARC
  5
2A9
100
AcDbEntity
  8
0
100
AcDbCircle
 62
7
  6
BYLAYER
 10
43.3821747808
 20
61.8043414792
 40
0.3
100
AcDbArc
 50
42.9999999995
 51
127.1512163785
  0
ARC
  5
2AA
100
AcDbEntity
  8
0
100
AcDbCircle
 62
7
  6
BYLAYER
 10
42.4406967261
 20
60.8628634246
 40
0.3
100
AcDbArc
 50
142.8487836214
 51
227.0000000004
  0
ARC
  5
2AB
100
AcDbEntity
  8
0
100
AcDbCircle
 62
7
  6
BYLAYER
 10
41.8338154484
 20
59.8117142174
 40
0.3
100
AcDbArc
 50
73.0
 51
157.1512163766
  0
ARC
  5
2AC
100
AcDbEntity
  8
0
100
AcDbCircle
 62
7
  6
BYLAYER
 10
41.4892105633
 20
58.5256312777
 40
0.3
100
AcDbArc
 50
172.8487836219
 51
257.0
  0
ARC
  5
2AD
100
AcDbEntity
  8
0
100
AcDbCircle
 62
7
  6
BYLAYER
 10
41.4892105633
 20
57.3118687223
 40
0.3
100
AcDbArc
 50
103.0000000001
 51
187.1512163781
  0
ARC
  5
2AE
100
AcDbEntity
  8
0
100
AcDbCircle
 62
7
  6
BYLAYER
 10
41.8338154484
 20
56.0257857826
 40
0.3
100
AcDbArc
 50
202.8487836233
 51
287.0000000002
  0
ARC
  5
2AF
100
AcDbEntity
  8
0
100
AcDbCircle
 62
7
  6
BYLAYER
 10
42.4118533802
 20
60.17875
 40
0.22
100
AcDbArc
 50
252.9999999998
 51
47.0000000002
  0
ARC
  5
2B0
100
AcDbEntity
  8
0
100
AcDbCircle
 62
7
  6
BYLAYER
 10
41.8062882053
 20
57.91875
 40
0.22
100
AcDbArc
 50
282.9999999999
 51
77.0
  0
ARC
  5
2B1
100
AcDbEntity
  8
0
100
AcDbCircle
 62
7
  6
BYLAYER
 10
42.4118533802
 20
55.65875
 40
0.22
100
AcDbArc
 50
313.0000000001
 51
107.0
  0
ARC
  5
2B2
100
AcDbEntity
  8
0
100
AcDbCircle
 62
7
  6
BYLAYER
 10
44.4333239879
 20
53.4262772431
 40
0.3
100
AcDbArc
 50
163.0
 51
247.1512163766
  0
ARC
  5
2B3
100
AcDbEntity
  8
0
100
AcDbCircle
 62
7
  6
BYLAYER
 10
45.7194069276
 20
53.081672358
 40
0.3
100
AcDbArc
 50
262.8487836219
 51
347.0
  0
ARC
  5
2B4
100
AcDbEntity
  8
0
100
AcDbCircle
 62
7
  6
BYLAYER
 10
46.933169483
 20
53.081672358
 40
0.3
100
AcDbArc
 50
193.0000000001
 51
277.1512163781
  0
ARC
  5
2B5
100
AcDbEntity
  8
0
100
AcDbCircle
 62
7
  6
BYLAYER
 10
48.2192524228
 20
53.4262772431
 40
0.3
100
AcDbArc
 50
292.8487836233
 51
17.0000000002
  0
ARC
  5
2B6
100
AcDbEntity
  8
0
100
AcDbCircle
 62
7
  6
BYLAYER
 10
49.2704016299
 20
54.0331585208
 40
0.3
100
AcDbArc
 50
222.9999999995
 51
307.1512163785
  0
ARC
  5
2B7
100
AcDbEntity
  8
0
100
AcDbCircle
 62
7
  6
BYLAYER
 10
50.2118796845
 20
54.9746365754
 40
0.3
100
AcDbArc
 50
322.8487836214
 51
47.0000000004
  0
ARC
  5
2B8
100
AcDbEntity
  8
0
100
AcDbCircle
 62
7
  6
BYLAYER
 10
44.0662882053
 20
54.0043151749
 40
0.22
100
AcDbArc
 50
342.9999999998
 51
137.0000000002
  0
ARC
  5
2B9
100
AcDbEntity
  8
0
100
AcDbCircle
 62
7
  6
BYLAYER
 10
46.3262882053
 20
53.39875
 40
0.22
100
AcDbArc
 50
12.9999999999
 51
167.0
  0
ARC
  5
2BA
100
AcDbEntity
  8
0
100
AcDbCircle
 62
7
  6
BYLAYER
 10
48.5862882053
 20
54.0043151749
 40
0.22
100
AcDbArc
 50
43.0000000001
 51
197.0
  0
ARC
  5
2BB
100
AcDbEntity
  8
0
100
AcDbCircle
 62
7
  6
BYLAYER
 10
46.3262882053
 20
57.91875
 40
8.0
100
AcDbArc
 50
0.0
 51
90.0
  0
ARC
  5
2BC
100
AcDbEntity
  8
0
100
AcDbCircle
 62
7
  6
BYLAYER
 10
46.3262882053
 20
57.91875
 40
5.175
100
AcDbArc
 50
67.1512163775
 51
82.8487836224
  0
ARC
  5
2BD
100
AcDbEntity
  8
0
100
AcDbCircle
 62
7
  6
BYLAYER
 10
46.3262882053
 20
57.91875
 40
5.175
100
AcDbArc
 50
97.1512163776
 51
112.8487836225
  0
ARC
  5
2BE
100
AcDbEntity
  8
0
100
AcDbCircle
 62
7
  6
BYLAYER
 10
46.3262882053
 20
57.91875
 40
5.175
100
AcDbArc
 50
127.1512163776
 51
142.8487836224
  0
ARC
  5
2BF
100
AcDbEntity
  8
0
100
AcDbCircle
 62
7
  6
BYLAYER
 10
46.3262882053
 20
57.91875
 40
5.175
100
AcDbArc
 50
157.1512163775
 51
172.8487836224
  0
ARC
  5
2C0
100
AcDbEntity
  8
0
100
AcDbCircle
 62
7
  6
BYLAYER
 10
46.3262882053
 20
57.91875
 40
5.175
100
AcDbArc
 50
187.1512163776
 51
202.8487836225
  0
ARC
  5
2C1
100
AcDbEntity
  8
0
100
AcDbCircle
 62
7
  6
BYLAYER
 10
46.3262882053
 20
57.91875
 40
5.175
100
AcDbArc
 50
217.1512163776
 51
232.8487836224
  0
ARC
  5
2C2
100
AcDbEntity
  8
0
100
AcDbCircle
 62
7
  6
BYLAYER
 10
46.3262882053
 20
57.91875
 40
5.175
100
AcDbArc
 50
247.1512163775
 51
262.8487836224
  0
ARC
  5
2C3
100
AcDbEntity
  8
0
100
AcDbCircle
 62
7
  6
BYLAYER
 10
46.3262882053
 20
57.91875
 40
5.175
100
AcDbArc
 50
277.1512163776
 51
292.8487836225
  0
ARC
  5
2C4
100
AcDbEntity
  8
0
100
AcDbCircle
 62
7
  6
BYLAYER
 10
46.3262882053
 20
57.91875
 40
5.175
100
AcDbArc
 50
307.1512163776
 51
322.8487836224
  0
ARC
  5
2C5
100
AcDbEntity
  8
0
100
AcDbCircle
 62
7
  6
BYLAYER
 10
46.3262882053
 20
57.91875
 40
5.175
100
AcDbArc
 50
337.1512163775
 51
352.8487836224
  0
ARC
  5
2C6
100
AcDbEntity
  8
0
100
AcDbCircle
 62
7
  6
BYLAYER
 10
46.3262882053
 20
57.91875
 40
5.175
100
AcDbArc
 50
7.1512163776
 51
22.8487836225
  0
ARC
  5
2C7
100
AcDbEntity
  8
0
100
AcDbCircle
 62
7
  6
BYLAYER
 10
46.3262882053
 20
57.91875
 40
5.175
100
AcDbArc
 50
37.1512163776
 51
52.8487836224
  0
CIRCLE
  5
2C8
100
AcDbEntity
  8
0
100
AcDbCircle
 62
7
  6
BYLAYER
 10
46.3262882053
 20
57.91875
 40
2.0
  0
CIRCLE
  5
2C9
100
AcDbEntity
  8
0
100
AcDbCircle
 62
7
  6
BYLAYER
 10
46.3262882053
 20
57.91875
 40
1.6
  0
CIRCLE
  5
2CA
100
AcDbEntity
  8
0
100
AcDbCircle
 62
7
  6
BYLAYER
 10
46.3262882053
 20
57.91875
 40
1.3979274058
  0
ARC
  5
2CB
100
AcDbEntity
  8
0
100
AcDbCircle
 62
7
  6
BYLAYER
 10
46.933169483
 20
62.755827642
 40
0.3
100
AcDbArc
 50
82.8487836219
 51
167.0
  0
ARC
  5
2CC
100
AcDbEntity
  8
0
100
AcDbCircle
 62
7
  6
BYLAYER
 10
45.7194069276
 20
62.755827642
 40
0.3
100
AcDbArc
 50
13.0000000001
 51
97.1512163781
  0
ARC
  5
2CD
100
AcDbEntity
  8
0
100
AcDbCircle
 62
7
  6
BYLAYER
 10
44.4333239879
 20
62.4112227569
 40
0.3
100
AcDbArc
 50
112.8487836233
 51
197.0000000002
  0
ARC
  5
2CE
100
AcDbEntity
  8
0
100
AcDbCircle
 62
7
  6
BYLAYER
 10
46.3262882053
 20
62.43875
 40
0.22
100
AcDbArc
 50
192.9999999999
 51
347.0
  0
ARC
  5
2CF
100
AcDbEntity
  8
0
100
AcDbCircle
 62
7
  6
BYLAYER
 10
44.0662882053
 20
61.8331848251
 40
0.22
100
AcDbArc
 50
223.0000000001
 51
17.0
  0
ARC
  5
2D0
100
AcDbEntity
  8
0
100
AcDbCircle
 62
7
  6
BYLAYER
 10
50.8187609622
 20
56.0257857826
 40
0.3
100
AcDbArc
 50
253.0
 51
337.1512163766
  0
ARC
  5
2D1
100
AcDbEntity
  8
0
100
AcDbCircle
 62
7
  6
BYLAYER
 10
51.1633658473
 20
57.3118687223
 40
0.3
100
AcDbArc
 50
352.8487836219
 51
77.0
  0
ARC
  5
2D2
100
AcDbEntity
  8
0
100
AcDbCircle
 62
7
  6
BYLAYER
 10
51.1633658473
 20
58.5256312777
 40
0.3
100
AcDbArc
 50
283.0000000001
 51
7.1512163781
  0
ARC
  5
2D3
100
AcDbEntity
  8
0
100
AcDbCircle
 62
7
  6
BYLAYER
 10
50.2407230304
 20
55.65875
 40
0.22
100
AcDbArc
 50
72.9999999998
 51
227.0000000002
  0
ARC
  5
2D4
100
AcDbEntity
  8
0
100
AcDbCircle
 62
7
  6
BYLAYER
 10
50.8462882053
 20
57.91875
 40
0.22
100
AcDbArc
 50
102.9999999999
 51
257.0
  0
ARC
  5
2D5
100
AcDbEntity
  8
0
100
AcDbCircle
 62
7
  6
BYLAYER
 10
48.2192524228
 20
62.4112227569
 40
0.3
100
AcDbArc
 50
343.0
 51
67.1512163766
  0
ARC
  5
2D6
100
AcDbEntity
  8
0
100
AcDbCircle
 62
7
  6
BYLAYER
 10
50.8187609622
 20
59.8117142174
 40
0.3
100
AcDbArc
 50
22.8487836233
 51
107.0000000002
  0
ARC
  5
2D7
100
AcDbEntity
  8
0
100
AcDbCircle
 62
7
  6
BYLAYER
 10
50.2118796845
 20
60.8628634246
 40
0.3
100
AcDbArc
 50
312.9999999995
 51
37.1512163785
  0
ARC
  5
2D8
100
AcDbEntity
  8
0
100
AcDbCircle
 62
7
  6
BYLAYER
 10
49.2704016299
 20
61.8043414792
 40
0.3
100
AcDbArc
 50
52.8487836214
 51
137.0000000004
  0
ARC
  5
2D9
100
AcDbEntity
  8
0
100
AcDbCircle
 62
7
  6
BYLAYER
 10
50.2407230304
 20
60.17875
 40
0.22
100
AcDbArc
 50
133.0000000001
 51
287.0
  0
ARC
  5
2DA
100
AcDbEntity
  8
0
100
AcDbCircle
 62
7
  6
BYLAYER
 10
48.5862882053
 20
61.8331848251
 40
0.22
100
AcDbArc
 50
162.9999999998
 51
317.0000000002
  0
SPLINE
  5
2DB
100
AcDbEntity
  8
0
100
AcDbSpline
 62
7
  6
BYLAYER
 70
0
 71
3
 72
18
 73
14
 74
0
 42
0.0000001
 43
0.0000001
 44
0.0000000001
 40
0.0
 40
0.0
 40
0.0
 40
0.0
 40
0.0138803951
 40
0.0334139993
 40
0.0604761985
 40
0.0955760288
 40
0.1386929022
 40
0.189617372
 40
0.2479421379
 40
0.3131727756
 40
0.4619346148
 40
0.6303116775
 40
1.0
 40
1.0
 40
1.0
 40
1.0
 10
18.7307316437
 20
52.5540717632
 30
0.0
 10
18.7317701793
 20
52.5518767364
 30
0.0
 10
18.7319117708
 20
52.5456135852
 30
0.0
 10
18.7276262116
 20
52.5358467187
 30
0.0
 10
18.719596235
 20
52.5239638229
 30
0.0
 10
18.7075227925
 20
52.5100207993
 30
0.0
 10
18.6915410192
 20
52.4940345409
 30
0.0
 10
18.671729204
 20
52.476187658
 30
0.0
 10
18.6482801703
 20
52.4566370322
 30
0.0
 10
18.6107682418
 20
52.4272595648
 30
0.0
 10
18.5565430436
 20
52.3880471122
 30
0.0
 10
18.4567031837
 20
52.3211659487
 30
0.0
 10
18.3761469679
 20
52.2723387367
 30
0.0
 10
18.3200216609
 20
52.2402008631
 30
0.0
  0
SPLINE
  5
2DC
100
AcDbEntity
  8
0
100
AcDbSpline
 62
7
  6
BYLAYER
 70
0
 71
3
 72
19
 73
15
 74
0
 42
0.0000001
 43
0.0000001
 44
0.0000000001
 40
0.0
 40
0.0
 40
0.0
 40
0.0
 40
0.0166730234
 40
0.0378174039
 40
0.0656905368
 40
0.1011270739
 40
0.1442794056
 40
0.1950367322
 40
0.2530624698
 40
0.3178863946
 40
0.465637515
 40
0.6328437667
 40
0.8133610887
 40
1.0
 40
1.0
 40
1.0
 40
1.0
 10
8.8821214884
 20
58.51875
 30
0.0
 10
8.8791650085
 20
58.5187500018
 30
0.0
 10
8.8724595536
 20
58.5210276265
 30
0.0
 10
8.863999778
 20
58.5292995093
 30
0.0
 10
8.8558819978
 20
58.5419606674
 30
0.0
 10
8.8480563484
 20
58.5591885007
 30
0.0
 10
8.8405131597
 20
58.5808692429
 30
0.0
 10
8.8333560159
 20
58.6068581422
 30
0.0
 10
8.8266478348
 20
58.6369120698
 30
0.0
 10
8.8180281118
 20
58.6841244673
 30
0.0
 10
8.8092005204
 20
58.7509255143
 30
0.0
 10
8.8016908029
 20
58.8384842978
 30
0.0
 10
8.7972325364
 20
58.9331538085
 30
0.0
 10
8.7964083209
 20
58.9982677445
 30
0.0
 10
8.7965512737
 20
59.0313624647
 30
0.0
  0
SPLINE
  5
2DD
100
AcDbEntity
  8
0
100
AcDbSpline
 62
7
  6
BYLAYER
 70
0
 71
3
 72
17
 73
13
 74
0
 42
0.0000001
 43
0.0000001
 44
0.0000000001
 40
0.0
 40
0.0
 40
0.0
 40
0.0
 40
0.3718825125
 40
0.5410519132
 40
0.6902332189
 40
0.7554999128
 40
0.8137446409
 40
0.8644531606
 40
0.907227692
 40
0.9418662741
 40
0.9683684817
 40
1.0
 40
1.0
 40
1.0
 40
1.0
 10
10.4116352786
 20
59.0313947487
 30
0.0
 10
10.4114138189
 20
58.9663089895
 30
0.0
 10
10.4134487866
 20
58.8715696183
 30
0.0
 10
10.4215562817
 20
58.7510237395
 30
0.0
 10
10.42848803
 20
58.6842195152
 30
0.0
 10
10.435265825
 20
58.6369676547
 30
0.0
 10
10.4405244047
 20
58.6069356862
 30
0.0
 10
10.4461595351
 20
58.5809479579
 30
0.0
 10
10.4520063997
 20
58.5593700247
 30
0.0
 10
10.4582837055
 20
58.5420277546
 30
0.0
 10
10.4650777233
 20
58.5279867575
 30
0.0
 10
10.4733110501
 20
58.5187500352
 30
0.0
 10
10.4788471354
 20
58.51875
 30
0.0
  0
SPLINE
  5
2DE
100
AcDbEntity
  8
0
100
AcDbSpline
 62
7
  6
BYLAYER
 70
0
 71
3
 72
19
 73
15
 74
0
 42
0.0000001
 43
0.0000001
 44
0.0000000001
 40
0.0
 40
0.0
 40
0.0
 40
0.0
 40
0.1866372187
 40
0.3671229877
 40
0.5342976109
 40
0.682047241
 40
0.7468771747
 40
0.8049147957
 40
0.8556794139
 40
0.8988441894
 40
0.9342926232
 40
0.962172963
 40
0.9833248941
 40
1.0
 40
1.0
 40
1.0
 40
1.0
 10
21.054731928
 20
63.88336742
 30
0.0
 10
21.0261413738
 20
63.900039667
 30
0.0
 10
20.9693431482
 20
63.9318856402
 30
0.0
 10
20.8851350745
 20
63.9753601808
 30
0.0
 10
20.8055575879
 20
64.0126321567
 30
0.0
 10
20.7432947027
 20
64.0383906333
 30
0.0
 10
20.6980928131
 20
64.0545348017
 30
0.0
 10
20.668706252
 20
64.0637570254
 30
0.0
 10
20.6426139282
 20
64.070555814
 30
0.0
 10
20.6200600112
 20
64.0748670444
 30
0.0
 10
20.6012208964
 20
64.0767070743
 30
0.0
 10
20.5861915948
 20
64.0760053661
 30
0.0
 10
20.5747943863
 20
64.0728164702
 30
0.0
 10
20.5694655153
 20
64.0681485011
 30
0.0
 10
20.567987007
 20
64.065587652
 30
0.0
  0
SPLINE
  5
2DF
100
AcDbEntity
  8
0
100
AcDbSpline
 62
7
  6
BYLAYER
 70
0
 71
3
 72
19
 73
15
 74
0
 42
0.0000001
 43
0.0000001
 44
0.0000000001
 40
0.0
 40
0.0
 40
0.0
 40
0.0
 40
0.0166732739
 40
0.0378177037
 40
0.0656859583
 40
0.1011111254
 40
0.1442512833
 40
0.1949972942
 40
0.2530082545
 40
0.3178254665
 40
0.4655673348
 40
0.6327764828
 40
0.8133362784
 40
1.0
 40
1.0
 40
1.0
 40
1.0
 10
8.8821194746
 20
57.3187499563
 30
0.0
 10
8.8791627986
 20
57.3187499539
 30
0.0
 10
8.8724571349
 20
57.3164713936
 30
0.0
 10
8.8639977803
 20
57.3081996861
 30
0.0
 10
8.8558804847
 20
57.2955407047
 30
0.0
 10
8.8480557859
 20
57.2783169077
 30
0.0
 10
8.8405143667
 20
57.2566408305
 30
0.0
 10
8.8333584342
 20
57.2306572434
 30
0.0
 10
8.8266490542
 20
57.2006079203
 30
0.0
 10
8.8180303364
 20
57.1533983569
 30
0.0
 10
8.8092003983
 20
57.0865965296
 30
0.0
 10
8.8016887929
 20
56.9990268937
 30
0.0
 10
8.7972311646
 20
56.9043400193
 30
0.0
 10
8.796407394
 20
56.8392108095
 30
0.0
 10
8.7965507126
 20
56.8061099943
 30
0.0
  0
SPLINE
  5
2E0
100
AcDbEntity
  8
0
100
AcDbSpline
 62
7
  6
BYLAYER
 70
0
 71
3
 72
17
 73
13
 74
0
 42
0.0000001
 43
0.0000001
 44
0.0000000001
 40
0.0
 40
0.0
 40
0.0
 40
0.0
 40
0.0144508356
 40
0.0349029977
 40
0.0628778298
 40
0.0987581781
 40
0.1424837831
 40
0.1938321704
 40
0.3176516533
 40
0.4659879981
 40
0.6333629097
 40
1.0
 40
1.0
 40
1.0
 40
1.0
 10
18.7311587085
 20
63.284497682
 30
0.0
 10
18.7319476
 20
63.2868938121
 30
0.0
 10
18.7314673843
 20
63.2933303503
 30
0.0
 10
18.726693808
 20
63.3032652156
 30
0.0
 10
18.7181664441
 20
63.3153287941
 30
0.0
 10
18.7057048919
 20
63.3294022861
 30
0.0
 10
18.6894164759
 20
63.345461467
 30
0.0
 10
18.6608893295
 20
63.3709011877
 30
0.0
 10
18.616633587
 20
63.4060455474
 30
0.0
 10
18.5543932108
 20
63.4509433863
 30
0.0
 10
18.455353835
 20
63.5171562584
 30
0.0
 10
18.3755710134
 20
63.5654937437
 30
0.0
 10
18.3200341325
 20
63.5973065996
 30
0.0
  0
SPLINE
  5
2E1
100
AcDbEntity
  8
0
100
AcDbSpline
 62
7
  6
BYLAYER
 70
0
 71
3
 72
19
 73
15
 74
0
 42
0.0000001
 43
0.0000001
 44
0.0000000001
 40
0.0
 40
0.0
 40
0.0
 40
0.0
 40
0.0166732703
 40
0.0378177003
 40
0.0656859583
 40
0.1011111316
 40
0.1442512986
 40
0.1949973212
 40
0.253008293
 40
0.3178255136
 40
0.4655673956
 40
0.6327765596
 40
0.8133363248
 40
1.0
 40
1.0
 40
1.0
 40
1.0
 10
19.5287571649
 20
64.665589053
 30
0.0
 10
19.5302355013
 20
64.6681496125
 30
0.0
 10
19.5316150406
 20
64.6750961737
 30
0.0
 10
19.528681202
 20
64.6865580519
 30
0.0
 10
19.5217768387
 20
64.699917337
 30
0.0
 10
19.5107729262
 20
64.7153056357
 30
0.0
 10
19.4957715828
 20
64.7326747498
 30
0.0
 10
19.4768470814
 20
64.7518637818
 30
0.0
 10
19.4541782688
 20
64.772698956
 30
0.0
 10
19.4176029009
 20
64.8037677851
 30
0.0
 10
19.364165708
 20
64.8448156435
 30
0.0
 10
19.2920840118
 20
64.8951058751
 30
0.0
 10
19.2123114012
 20
64.9463095851
 30
0.0
 10
19.1563195065
 20
64.9795872837
 30
0.0
 10
19.1275816814
 20
64.9960135804
 30
0.0
  0
SPLINE
  5
2E2
100
AcDbEntity
  8
0
100
AcDbSpline
 62
7
  6
BYLAYER
 70
0
 71
3
 72
17
 73
13
 74
0
 42
0.0000001
 43
0.0000001
 44
0.0000000001
 40
0.0
 40
0.0
 40
0.0
 40
0.0
 40
0.0316338075
 40
0.0581372848
 40
0.0927768742
 40
0.135552412
 40
0.1862620313
 40
0.244507994
 40
0.3097757958
 40
0.4589588378
 40
0.6281283016
 40
1.0
 40
1.0
 40
1.0
 40
1.0
 10
10.4788505272
 20
57.31875
 30
0.0
 10
10.4733133463
 20
57.3187499879
 30
0.0
 10
10.4650782232
 20
57.3095119615
 30
0.0
 10
10.458282506
 20
57.2954686572
 30
0.0
 10
10.4520047741
 20
57.2781234555
 30
0.0
 10
10.4461579585
 20
57.2565420342
 30
0.0
 10
10.4405231463
 20
57.2305502229
 30
0.0
 10
10.4352651619
 20
57.2005136542
 30
0.0
 10
10.4284886814
 20
57.1532548167
 30
0.0
 10
10.4215604949
 20
57.0864413086
 30
0.0
 10
10.4134478656
 20
56.965882061
 30
0.0
 10
10.4114308564
 20
56.8711321835
 30
0.0
 10
10.4116534196
 20
56.8060401511
 30
0.0
  0
SPLINE
  5
2E3
100
AcDbEntity
  8
0
100
AcDbSpline
 62
7
  6
BYLAYER
 70
0
 71
3
 72
19
 73
15
 74
0
 42
0.0000001
 43
0.0000001
 44
0.0000000001
 40
0.0
 40
0.0
 40
0.0
 40
0.0
 40
0.0166732739
 40
0.0378177037
 40
0.0656859583
 40
0.1011111254
 40
0.1442512833
 40
0.1949972942
 40
0.2530082545
 40
0.3178254665
 40
0.4655673348
 40
0.6327764828
 40
0.8133362784
 40
1.0
 40
1.0
 40
1.0
 40
1.0
 10
20.5679878509
 20
51.771910791
 30
0.0
 10
20.5694661909
 20
51.7693502357
 30
0.0
 10
20.5747923138
 20
51.7646822407
 30
0.0
 10
20.5861855
 20
51.7614920785
 30
0.0
 10
20.6012071473
 20
51.760791785
 30
0.0
 10
20.6200357425
 20
51.7626272955
 30
0.0
 10
20.6425784855
 20
51.7669342735
 30
0.0
 10
20.6686588983
 20
51.7737288477
 30
0.0
 10
20.6980370655
 20
51.7829430158
 30
0.0
 10
20.7432311055
 20
51.7990837689
 30
0.0
 10
20.805498154
 20
51.8248377319
 30
0.0
 10
20.885091486
 20
51.8621173087
 30
0.0
 10
20.9693215388
 20
51.9056003266
 30
0.0
 10
21.0261369743
 20
51.9374515251
 30
0.0
 10
21.0547314619
 20
51.9541260503
 30
0.0
  0
SPLINE
  5
2E4
100
AcDbEntity
  8
0
100
AcDbSpline
 62
7
  6
BYLAYER
 70
0
 71
3
 72
19
 73
15
 74
0
 42
0.0000001
 43
0.0000001
 44
0.0000000001
 40
0.0
 40
0.0
 40
0.0
 40
0.0
 40
0.0166730629
 40
0.0378174567
 40
0.065690567
 40
0.1011270452
 40
0.1442792917
 40
0.1950365163
 40
0.2530621393
 40
0.3178859547
 40
0.4656368905
 40
0.6328430958
 40
0.8133606341
 40
1.0
 40
1.0
 40
1.0
 40
1.0
 10
19.5287564399
 20
51.1719123081
 30
0.0
 10
19.5302346685
 20
51.169351937
 30
0.0
 10
19.5316149165
 20
51.1624060878
 30
0.0
 10
19.5286812051
 20
51.1509438528
 30
0.0
 10
19.5217753142
 20
51.1375831792
 30
0.0
 10
19.510768551
 20
51.1221921841
 30
0.0
 10
19.4957642694
 20
51.1048193752
 30
0.0
 10
19.4768360329
 20
51.0856268323
 30
0.0
 10
19.4541629367
 20
51.064790599
 30
0.0
 10
19.4175860934
 20
51.0337197628
 30
0.0
 10
19.3641490942
 20
50.9926746043
 30
0.0
 10
19.2920764448
 20
50.9423920771
 30
0.0
 10
19.2123201601
 20
50.8911964927
 30
0.0
 10
19.1563425792
 20
50.8579255563
 30
0.0
 10
19.1276104453
 20
50.8415020559
 30
0.0
  0
SPLINE
  5
2E5
100
AcDbEntity
  8
0
100
AcDbSpline
 62
7
  6
BYLAYER
 70
0
 71
3
 72
17
 73
13
 74
0
 42
0.0000001
 43
0.0000001
 44
0.0000000001
 40
0.0
 40
0.0
 40
0.0
 40
0.0
 40
0.0316349752
 40
0.0581327611
 40
0.0927596356
 40
0.1355213053
 40
0.1862175007
 40
0.244446135
 40
0.3097050102
 40
0.458875113
 40
0.6280468639
 40
1.0
 40
1.0
 40
1.0
 40
1.0
 10
48.7303916665
 20
22.5547205725
 30
0.0
 10
48.7331599377
 20
22.5499255328
 30
0.0
 10
48.7292779034
 20
22.5381770704
 30
0.0
 10
48.7205179795
 20
22.5252729606
 30
0.0
 10
48.7086414605
 20
22.5111688395
 30
0.0
 10
48.6928819469
 20
22.4953209053
 30
0.0
 10
48.6731984005
 20
22.4774517393
 30
0.0
 10
48.6498245014
 20
22.4578846663
 30
0.0
 10
48.6122954356
 20
22.4283936551
 30
0.0
 10
48.5579088451
 20
22.3889897177
 30
0.0
 10
48.4575577361
 20
22.3216868381
 30
0.0
 10
48.3765149574
 20
22.2725494509
 30
0.0
 10
48.3200216609
 20
22.2402008631
 30
0.0
  0
SPLINE
  5
2E6
100
AcDbEntity
  8
0
100
AcDbSpline
 62
7
  6
BYLAYER
 70
0
 71
3
 72
19
 73
15
 74
0
 42
0.0000001
 43
0.0000001
 44
0.0000000001
 40
0.0
 40
0.0
 40
0.0
 40
0.0
 40
0.0166730234
 40
0.0378174039
 40
0.0656905368
 40
0.1011270739
 40
0.1442794056
 40
0.1950367322
 40
0.2530624698
 40
0.3178863946
 40
0.465637515
 40
0.6328437667
 40
0.8133610887
 40
1.0
 40
1.0
 40
1.0
 40
1.0
 10
38.8821214884
 20
28.51875
 30
0.0
 10
38.8791650085
 20
28.5187500018
 30
0.0
 10
38.8724595536
 20
28.5210276265
 30
0.0
 10
38.863999778
 20
28.5292995093
 30
0.0
 10
38.8558819978
 20
28.5419606674
 30
0.0
 10
38.8480563484
 20
28.5591885007
 30
0.0
 10
38.8405131597
 20
28.5808692429
 30
0.0
 10
38.8333560159
 20
28.6068581422
 30
0.0
 10
38.8266478348
 20
28.6369120698
 30
0.0
 10
38.8180281118
 20
28.6841244673
 30
0.0
 10
38.8092005204
 20
28.7509255143
 30
0.0
 10
38.8016908029
 20
28.8384842978
 30
0.0
 10
38.7972325364
 20
28.9331538085
 30
0.0
 10
38.7964083209
 20
28.9982677445
 30
0.0
 10
38.7965512737
 20
29.0313624647
 30
0.0
  0
SPLINE
  5
2E7
100
AcDbEntity
  8
0
100
AcDbSpline
 62
7
  6
BYLAYER
 70
0
 71
3
 72
17
 73
13
 74
0
 42
0.0000001
 43
0.0000001
 44
0.0000000001
 40
0.0
 40
0.0
 40
0.0
 40
0.0
 40
0.3718825125
 40
0.5410519132
 40
0.6902332189
 40
0.7554999128
 40
0.8137446409
 40
0.8644531606
 40
0.907227692
 40
0.9418662741
 40
0.9683684817
 40
1.0
 40
1.0
 40
1.0
 40
1.0
 10
40.4116352786
 20
29.0313947487
 30
0.0
 10
40.4114138189
 20
28.9663089895
 30
0.0
 10
40.4134487866
 20
28.8715696183
 30
0.0
 10
40.4215562817
 20
28.7510237395
 30
0.0
 10
40.42848803
 20
28.6842195152
 30
0.0
 10
40.435265825
 20
28.6369676547
 30
0.0
 10
40.4405244047
 20
28.6069356862
 30
0.0
 10
40.4461595351
 20
28.5809479579
 30
0.0
 10
40.4520063997
 20
28.5593700247
 30
0.0
 10
40.4582837055
 20
28.5420277546
 30
0.0
 10
40.4650777233
 20
28.5279867575
 30
0.0
 10
40.4733110501
 20
28.5187500352
 30
0.0
 10
40.4788471354
 20
28.51875
 30
0.0
  0
SPLINE
  5
2E8
100
AcDbEntity
  8
0
100
AcDbSpline
 62
7
  6
BYLAYER
 70
0
 71
3
 72
19
 73
15
 74
0
 42
0.0000001
 43
0.0000001
 44
0.0000000001
 40
0.0
 40
0.0
 40
0.0
 40
0.0
 40
0.0166732739
 40
0.0378177037
 40
0.0656859583
 40
0.1011111254
 40
0.1442512833
 40
0.1949972942
 40
0.2530082545
 40
0.3178254665
 40
0.4655673348
 40
0.6327764828
 40
0.8133362784
 40
1.0
 40
1.0
 40
1.0
 40
1.0
 10
38.8821194746
 20
27.3187499563
 30
0.0
 10
38.8791627986
 20
27.3187499539
 30
0.0
 10
38.8724571349
 20
27.3164713936
 30
0.0
 10
38.8639977803
 20
27.3081996861
 30
0.0
 10
38.8558804847
 20
27.2955407047
 30
0.0
 10
38.8480557859
 20
27.2783169077
 30
0.0
 10
38.8405143667
 20
27.2566408305
 30
0.0
 10
38.8333584342
 20
27.2306572434
 30
0.0
 10
38.8266490542
 20
27.2006079203
 30
0.0
 10
38.8180303364
 20
27.1533983569
 30
0.0
 10
38.8092003983
 20
27.0865965296
 30
0.0
 10
38.8016887929
 20
26.9990268937
 30
0.0
 10
38.7972311646
 20
26.9043400193
 30
0.0
 10
38.796407394
 20
26.8392108095
 30
0.0
 10
38.7965507126
 20
26.8061099943
 30
0.0
  0
SPLINE
  5
2E9
100
AcDbEntity
  8
0
100
AcDbSpline
 62
7
  6
BYLAYER
 70
0
 71
3
 72
17
 73
13
 74
0
 42
0.0000001
 43
0.0000001
 44
0.0000000001
 40
0.0
 40
0.0
 40
0.0
 40
0.0
 40
0.0316338075
 40
0.0581372848
 40
0.0927768742
 40
0.135552412
 40
0.1862620313
 40
0.244507994
 40
0.3097757958
 40
0.4589588378
 40
0.6281283016
 40
1.0
 40
1.0
 40
1.0
 40
1.0
 10
40.4788505272
 20
27.31875
 30
0.0
 10
40.4733133463
 20
27.3187499879
 30
0.0
 10
40.4650782232
 20
27.3095119615
 30
0.0
 10
40.458282506
 20
27.2954686572
 30
0.0
 10
40.4520047741
 20
27.2781234555
 30
0.0
 10
40.4461579585
 20
27.2565420342
 30
0.0
 10
40.4405231463
 20
27.2305502229
 30
0.0
 10
40.4352651619
 20
27.2005136542
 30
0.0
 10
40.4284886814
 20
27.1532548167
 30
0.0
 10
40.4215604949
 20
27.0864413086
 30
0.0
 10
40.4134478656
 20
26.965882061
 30
0.0
 10
40.4114308564
 20
26.8711321835
 30
0.0
 10
40.4116534196
 20
26.8060401511
 30
0.0
  0
SPLINE
  5
2EA
100
AcDbEntity
  8
0
100
AcDbSpline
 62
7
  6
BYLAYER
 70
0
 71
3
 72
19
 73
15
 74
0
 42
0.0000001
 43
0.0000001
 44
0.0000000001
 40
0.0
 40
0.0
 40
0.0
 40
0.0
 40
0.0166732739
 40
0.0378177037
 40
0.0656859583
 40
0.1011111254
 40
0.1442512833
 40
0.1949972942
 40
0.2530082545
 40
0.3178254665
 40
0.4655673348
 40
0.6327764828
 40
0.8133362784
 40
1.0
 40
1.0
 40
1.0
 40
1.0
 10
50.5679878509
 20
21.771910791
 30
0.0
 10
50.5694661909
 20
21.7693502357
 30
0.0
 10
50.5747923138
 20
21.7646822407
 30
0.0
 10
50.5861855
 20
21.7614920785
 30
0.0
 10
50.6012071473
 20
21.760791785
 30
0.0
 10
50.6200357425
 20
21.7626272955
 30
0.0
 10
50.6425784855
 20
21.7669342736
 30
0.0
 10
50.6686588983
 20
21.7737288477
 30
0.0
 10
50.6980370655
 20
21.7829430158
 30
0.0
 10
50.7432311055
 20
21.7990837689
 30
0.0
 10
50.805498154
 20
21.8248377319
 30
0.0
 10
50.885091486
 20
21.8621173087
 30
0.0
 10
50.9693215388
 20
21.9056003266
 30
0.0
 10
51.0261369743
 20
21.9374515251
 30
0.0
 10
51.0547314619
 20
21.9541260503
 30
0.0
  0
SPLINE
  5
2EB
100
AcDbEntity
  8
0
100
AcDbSpline
 62
7
  6
BYLAYER
 70
0
 71
3
 72
17
 73
13
 74
0
 42
0.0000001
 43
0.0000001
 44
0.0000000001
 40
0.0
 40
0.0
 40
0.0
 40
0.0
 40
0.3718533398
 40
0.5409898981
 40
0.6901678708
 40
0.755439535
 40
0.8136952345
 40
0.8644100771
 40
0.9071964383
 40
0.9418465506
 40
0.968355844
 40
1.0
 40
1.0
 40
1.0
 40
1.0
 10
50.2471906778
 20
23.3528350623
 30
0.0
 10
50.1909399527
 20
23.3201030907
 30
0.0
 10
50.1078835411
 20
23.2745045268
 30
0.0
 10
49.9994457087
 20
23.2212556538
 30
0.0
 10
49.9381321384
 20
23.1938557968
 30
0.0
 10
49.8938206172
 20
23.1760972033
 30
0.0
 10
49.865180297
 20
23.165631192
 30
0.0
 10
49.8398521806
 20
23.1575148192
 30
0.0
 10
49.8182373783
 20
23.1517863759
 30
0.0
 10
49.8000745704
 20
23.1485483388
 30
0.0
 10
49.7845128452
 20
23.1474152471
 30
0.0
 10
49.7723914046
 20
23.1499241597
 30
0.0
 10
49.7696222613
 20
23.1547204579
 30
0.0
  0
SPLINE
  5
2EC
100
AcDbEntity
  8
0
100
AcDbSpline
 62
7
  6
BYLAYER
 70
0
 71
3
 72
19
 73
15
 74
0
 42
0.0000001
 43
0.0000001
 44
0.0000000001
 40
0.0
 40
0.0
 40
0.0
 40
0.0
 40
0.0166730629
 40
0.0378174567
 40
0.065690567
 40
0.1011270452
 40
0.1442792917
 40
0.1950365163
 40
0.2530621393
 40
0.3178859547
 40
0.4656368905
 40
0.6328430958
 40
0.8133606341
 40
1.0
 40
1.0
 40
1.0
 40
1.0
 10
49.5287564399
 20
21.1719123081
 30
0.0
 10
49.5302346685
 20
21.169351937
 30
0.0
 10
49.5316149165
 20
21.1624060878
 30
0.0
 10
49.5286812051
 20
21.1509438528
 30
0.0
 10
49.5217753142
 20
21.1375831792
 30
0.0
 10
49.510768551
 20
21.1221921841
 30
0.0
 10
49.4957642694
 20
21.1048193752
 30
0.0
 10
49.4768360329
 20
21.0856268323
 30
0.0
 10
49.4541629367
 20
21.064790599
 30
0.0
 10
49.4175860934
 20
21.0337197628
 30
0.0
 10
49.3641490942
 20
20.9926746043
 30
0.0
 10
49.2920764448
 20
20.9423920771
 30
0.0
 10
49.2123201601
 20
20.8911964927
 30
0.0
 10
49.1563425792
 20
20.8579255563
 30
0.0
 10
49.1276104453
 20
20.8415020559
 30
0.0
  0
ENDSEC
  0
SECTION
  2
OBJECTS
  0
DICTIONARY
  5
C
100
AcDbDictionary
280
0
281
1
  3
ACAD_GROUP
350
D
  3
ACAD_MLINESTYLE
350
17
  3
ACAD_LAYOUT
350
1A
  3
ACAD_PLOTSETTINGS
350
19
  3
ACAD_PLOTSTYLENAME
350
E
  0
DICTIONARY
  5
D
102
{ACAD_REACTORS
330
C
102
}
100
AcDbDictionary
280
0
281
1
  0
ACDBDICTIONARYWDFLT
  5
E
102
{ACAD_REACTORS
330
C
102
}
100
AcDbDictionary
281
1
  3
Normal
350
F
100
AcDbDictionaryWithDefault
340
F
  0
DICTIONARY
  5
17
102
{ACAD_REACTORS
330
C
102
}
100
AcDbDictionary
280
0
281
1
  3
Standard
350
18
  0
DICTIONARY
  5
19
102
{ACAD_REACTORS
330
C
102
}
100
AcDbDictionary
281
1
  0
DICTIONARY
  5
1A
102
{ACAD_REACTORS
330
C
102
}
100
AcDbDictionary
281
1
  3
Model
350
2ED
  3
Layout1
350
2EE
  0
ACDBPLACEHOLDER
  5
F
102
{ACAD_REACTORS
330
E
102
}
  0
MLINESTYLE
  5
18
102
{ACAD_REACTORS
330
17
102
}
100
AcDbMlineStyle
  2
STANDARD
 70
0
  3

 62
256
 51
90.0
 52
90.0
 71
2
 49
0.5
 62
256
  6
BYLAYER
 49
-0.5
 62
256
  6
BYLAYER
  0
LAYOUT
  5
2ED
102
{ACAD_REACTORS
330
1A
102
}
100
AcDbPlotSettings
  1

  2
none_device
  4

  6

 40
0.0
 41
0.0
 42
0.0
 43
0.0
 44
210.0
 45
297.0
 46
0.0
 47
0.0
 48
0.0
 49
0.0
140
0.0
141
0.0
142
1.0
143
1.0
 70
1024
 72
1
 73
0
 74
0
  7

 75
0
147
1.0
148
0.0
149
0.0
100
AcDbLayout
  1
Model
 70
0
 71
0
 10
0.0
 20
0.0
 11
210.0
 21
297.0
 12
0.0
 22
0.0
 32
0.0
 14
0.0
 24
0.0
 34
0.0
 15
0.0
 25
0.0
 35
0.0
146
0.0
 13
0.0
 23
0.0
 33
0.0
 16
1.0
 26
0.0
 36
0.0
 17
0.0
 27
1.0
 37
0.0
 76
0
330
210
345
0
346
0
  0
LAYOUT
  5
2EE
102
{ACAD_REACTORS
330
1A
102
}
100
AcDbPlotSettings
  1

  2
none_device
  4

  6

 40
0.0
 41
0.0
 42
0.0
 43
0.0
 44
210.0
 45
297.0
 46
0.0
 47
0.0
 48
0.0
 49
0.0
140
0.0
141
0.0
142
1.0
143
1.0
 70
0
 72
1
 73
0
 74
0
  7

 75
0
147
1.0
148
0.0
149
0.0
100
AcDbLayout
  1
Layout1
 70
0
 71
1
 10
0.0
 20
0.0
 11
210.0
 21
297.0
 12
0.0
 22
0.0
 32
0.0
 14
0.0
 24
0.0
 34
0.0
 15
0.0
 25
0.0
 35
0.0
146
0.0
 13
0.0
 23
0.0
 33
0.0
 16
1.0
 26
0.0
 36
0.0
 17
0.0
 27
1.0
 37
0.0
 76
0
330
211
345
0
346
0
  0
ENDSEC
  0
EOF
