999
DXF file: C:\Users\sesa63760\Dev\_Creo\CAD\MCADID0003602_3D-CAD\drw0001_6.dxf
999
Pro/ENGINEER 2019471 by Parametric Technology Corporation
  0
SECTION
  2
HEADER
  9
$ACADVER
  1
AC1024
  9
$DWGCODEPAGE
  3
ANSI_1252
  9
$EXTMAX
 10
84.2683908384
 20
119.1795813286
 30
0.0
  9
$EXTMIN
 10
0.0
 20
0.0
 30
0.0
  9
$LIMMIN
 10
0.0
 20
0.0
  9
$LIMMAX
 10
84.2683908384
 20
119.1795813286
  9
$VIEWCTR
 10
42.1341954192
 20
59.5897906643
  9
$VIEWSIZE
 40
119.1795813286
  9
$CLAYER
  8
0
  9
$LTSCALE
 40
7.7687430792
  9
$CELTYPE
  6
BYLAYER
  9
$DIMSCALE
 40
1.0
  9
$DIMASZ
 40
1.003195129
  9
$DIMEXO
 40
1.0
  9
$DIMDLI
 40
5.3674952184
  9
$DIMEXE
 40
1.0
  9
$DIMCEN
 40
1.2712488675
  9
$DIMLFAC
 40
1.0
  9
$DIMBLK
  1
_FILLED
  9
$DIMALT
 70
0
  9
$DIMALTF
 40
0.0393700787
  9
$DIMTXT
 40
1.4044731806
  9
$DIMTOL
 70
1
  9
$DIMLIM
 70
0
  9
$DIMTFAC
 40
1.0
  9
$DIMTP
 40
0.01
  9
$DIMTM
 40
0.01
  9
$DIMGAP
 40
0.625
  9
$DIMDSEP
 70
46
  9
$AUNITS
 70
0
  9
$PDMODE
 70
3
  9
$PDSIZE
 40
0.3125
  9
$HANDSEED
  5
269
  9
$TILEMODE
 70
1
  9
$MEASUREMENT
 70
1
  9
$INSUNITS
 70
4
  0
ENDSEC
  0
SECTION
  2
CLASSES
  0
CLASS
  1
ACDBDICTIONARYWDFLT
  2
AcDbDictionaryWithDefault
  3
AutoCAD 2000
 90
0
 91
1
280
0
281
0
  0
CLASS
  1
ACDBPLACEHOLDER
  2
AcDbPlaceHolder
  3
AutoCAD 2000
 90
0
 91
1
280
0
281
0
  0
CLASS
  1
LAYOUT
  2
AcDbLayout
  3
AutoCAD 2000
 90
0
 91
0
280
0
281
0
  0
ENDSEC
  0
SECTION
  2
TABLES
  0
TABLE
  2
VPORT
  5
8
100
AcDbSymbolTable
 70
2
  0
VPORT
  5
1F4
100
AcDbSymbolTableRecord
100
AcDbViewportTableRecord
  2
*ACTIVE
 70
0
 10
0.0
 20
0.0
 11
1.0
 21
1.0
 12
42.1341954192
 22
59.5897906643
 13
0.0
 23
0.0
 14
1.0
 24
1.0
 15
0.0
 25
0.0
 16
0.0
 26
0.0
 36
1.0
 17
0.0
 27
0.0
 37
0.0
 40
119.1795813286
 41
0.7070707071
 42
50.0
 43
0.0
 44
0.0
 50
0.0
 51
0.0
 71
0
 72
100
 73
1
 74
1
 75
0
 76
0
 77
0
 78
0
  0
ENDTAB
  0
TABLE
  2
LTYPE
  5
5
100
AcDbSymbolTable
 70
6
  0
LTYPE
  5
14
100
AcDbSymbolTableRecord
100
AcDbLinetypeTableRecord
  2
BYBLOCK
 70
0
  3

 72
65
 73
0
 40
0.0
  0
LTYPE
  5
15
100
AcDbSymbolTableRecord
100
AcDbLinetypeTableRecord
  2
BYLAYER
 70
0
  3

 72
65
 73
0
 40
0.0
  0
LTYPE
  5
16
100
AcDbSymbolTableRecord
100
AcDbLinetypeTableRecord
  2
CONTINUOUS
 70
64
  3
Solid line
 72
65
 73
0
 40
0.0
  0
LTYPE
  5
1F5
100
AcDbSymbolTableRecord
100
AcDbLinetypeTableRecord
  2
CENTER
 70
64
  3
____ _ ____ _ ____ _ ____ _ ____ _ ____ _ ____
 72
65
 73
4
 40
0.6
 49
0.375
 74
0
 49
-0.075
 74
0
 49
0.075
 74
0
 49
-0.075
 74
0
  0
LTYPE
  5
1F6
100
AcDbSymbolTableRecord
100
AcDbLinetypeTableRecord
  2
HIDDEN
 70
64
  3
- - - - - - - - - - - - - - - - - - - -
 72
65
 73
2
 40
0.2
 49
0.1
 74
0
 49
-0.1
 74
0
  0
LTYPE
  5
1F7
100
AcDbSymbolTableRecord
100
AcDbLinetypeTableRecord
  2
PHANTOM
 70
64
  3
_____ _ _ _____ _ _ _____ _ _ _____
 72
65
 73
6
 40
0.8
 49
0.45
 74
0
 49
-0.05
 74
0
 49
0.1
 74
0
 49
-0.05
 74
0
 49
0.1
 74
0
 49
-0.05
 74
0
  0
LTYPE
  5
1F8
100
AcDbSymbolTableRecord
100
AcDbLinetypeTableRecord
  2
DOT
 70
64
  3
. . . . . . . . . . . . . . . . . . . .
 72
65
 73
2
 40
0.2
 49
0.1
 74
0
 49
-0.1
 74
0
  0
LTYPE
  5
1F9
100
AcDbSymbolTableRecord
100
AcDbLinetypeTableRecord
  2
DASHED
 70
64
  3
- - - - - - - - - - - - - - - - - - - -
 72
65
 73
2
 40
0.2
 49
0.1
 74
0
 49
-0.1
 74
0
  0
ENDTAB
  0
TABLE
  2
LAYER
  5
2
100
AcDbSymbolTable
 70
36
  0
LAYER
  5
10
100
AcDbSymbolTableRecord
100
AcDbLayerTableRecord
  2
0
 70
0
 62
7
  6
CONTINUOUS
370
-3
390
F
  0
LAYER
  5
1FA
100
AcDbSymbolTableRecord
100
AcDbLayerTableRecord
  2
DEFAULT_1
 70
0
 62
7
  6
CENTER
370
-3
390
F
  0
LAYER
  5
1FB
100
AcDbSymbolTableRecord
100
AcDbLayerTableRecord
  2
DEFAULT_2
 70
0
 62
7
  6
HIDDEN
370
-3
390
F
  0
LAYER
  5
1FC
100
AcDbSymbolTableRecord
100
AcDbLayerTableRecord
  2
DEFAULT_3
 70
0
 62
7
  6
PHANTOM
370
-3
390
F
  0
LAYER
  5
1FD
100
AcDbSymbolTableRecord
100
AcDbLayerTableRecord
  2
00_COMPONENTS
 70
0
 62
7
  6
CONTINUOUS
370
-3
390
F
  0
LAYER
  5
1FE
100
AcDbSymbolTableRecord
100
AcDbLayerTableRecord
  2
01_1_DEFAULT_DATUMS
 70
0
 62
7
  6
CONTINUOUS
370
-3
390
F
  0
LAYER
  5
1FF
100
AcDbSymbolTableRecord
100
AcDbLayerTableRecord
  2
01_PLANES
 70
0
 62
7
  6
CONTINUOUS
370
-3
390
F
  0
LAYER
  5
200
100
AcDbSymbolTableRecord
100
AcDbLayerTableRecord
  2
02_COORD_SYS
 70
0
 62
7
  6
CONTINUOUS
370
-3
390
F
  0
LAYER
  5
201
100
AcDbSymbolTableRecord
100
AcDbLayerTableRecord
  2
03_AXES
 70
0
 62
7
  6
CONTINUOUS
370
-3
390
F
  0
LAYER
  5
202
100
AcDbSymbolTableRecord
100
AcDbLayerTableRecord
  2
04_POINTS
 70
0
 62
7
  6
CONTINUOUS
370
-3
390
F
  0
LAYER
  5
203
100
AcDbSymbolTableRecord
100
AcDbLayerTableRecord
  2
05_CURVES
 70
0
 62
7
  6
CONTINUOUS
370
-3
390
F
  0
LAYER
  5
204
100
AcDbSymbolTableRecord
100
AcDbLayerTableRecord
  2
06_SURFS
 70
0
 62
7
  6
CONTINUOUS
370
-3
390
F
  0
LAYER
  5
205
100
AcDbSymbolTableRecord
100
AcDbLayerTableRecord
  2
07_COSMETICS
 70
0
 62
7
  6
CONTINUOUS
370
-3
390
F
  0
LAYER
  5
206
100
AcDbSymbolTableRecord
100
AcDbLayerTableRecord
  2
10_NOTES
 70
0
 62
7
  6
CONTINUOUS
370
-3
390
F
  0
LAYER
  5
207
100
AcDbSymbolTableRecord
100
AcDbLayerTableRecord
  2
11_NOTES_PUB
 70
0
 62
7
  6
CONTINUOUS
370
-3
390
F
  0
LAYER
  5
208
100
AcDbSymbolTableRecord
100
AcDbLayerTableRecord
  2
13_REF_GTOL
 70
0
 62
7
  6
CONTINUOUS
370
-3
390
F
  0
LAYER
  5
209
100
AcDbSymbolTableRecord
100
AcDbLayerTableRecord
  2
16_MISC
 70
0
 62
7
  6
CONTINUOUS
370
-3
390
F
  0
LAYER
  5
20A
100
AcDbSymbolTableRecord
100
AcDbLayerTableRecord
  2
17_NO_PRINT
 70
0
 62
7
  6
CONTINUOUS
370
-3
390
F
  0
LAYER
  5
20B
100
AcDbSymbolTableRecord
100
AcDbLayerTableRecord
  2
18_DATUM_CAMS_JOINTS
 70
0
 62
7
  6
CONTINUOUS
370
-3
390
F
  0
LAYER
  5
20C
100
AcDbSymbolTableRecord
100
AcDbLayerTableRecord
  2
19_DATUM_FUNCTIONAL
 70
0
 62
7
  6
CONTINUOUS
370
-3
390
F
  0
LAYER
  5
20D
100
AcDbSymbolTableRecord
100
AcDbLayerTableRecord
  2
20_DATUM_KINEMATIC_SCHEME
 70
0
 62
7
  6
CONTINUOUS
370
-3
390
F
  0
ENDTAB
  0
TABLE
  2
STYLE
  5
3
100
AcDbSymbolTable
 70
1
  0
STYLE
  5
11
100
AcDbSymbolTableRecord
100
AcDbTextStyleTableRecord
  2
STANDARD
 70
0
 40
0.0
 41
1.0
 50
0.0
 71
0
 42
0.2
  3
ARIAL.TTF
  4

  0
STYLE
  5
20E
100
AcDbSymbolTableRecord
100
AcDbTextStyleTableRecord
  2
TEXTSTYLE_1
 70
0
 40
0.0
 41
0.8
 50
0.0
 71
0
 42
0.2
  3
gdt
  4

  0
ENDTAB
  0
TABLE
  2
VIEW
  5
6
100
AcDbSymbolTable
 70
0
  0
ENDTAB
  0
TABLE
  2
UCS
  5
7
100
AcDbSymbolTable
 70
0
  0
ENDTAB
  0
TABLE
  2
APPID
  5
9
100
AcDbSymbolTable
 70
1
  0
APPID
  5
20F
100
AcDbSymbolTableRecord
100
AcDbRegAppTableRecord
  2
ACAD
 70
0
  0
ENDTAB
  0
TABLE
  2
BLOCK_RECORD
  5
1
100
AcDbSymbolTable
 70
0
  0
BLOCK_RECORD
  5
210
100
AcDbSymbolTableRecord
100
AcDbBlockTableRecord
  2
*Model_Space
  0
BLOCK_RECORD
  5
211
100
AcDbSymbolTableRecord
100
AcDbBlockTableRecord
  2
*Paper_Space
  0
BLOCK_RECORD
  5
212
100
AcDbSymbolTableRecord
100
AcDbBlockTableRecord
  2
_FILLED
  0
ENDTAB
  0
TABLE
  2
DIMSTYLE
  5
A
100
AcDbSymbolTable
 70
1
100
AcDbDimStyleTable
 71
0
  0
DIMSTYLE
105
213
100
AcDbSymbolTableRecord
100
AcDbDimStyleTableRecord
  2
STANDARD
 70
0
  3

  4

 40
1.0
 41
1.003195129
 42
1.0
 43
0.38
 44
1.0
 45
0.0
 46
0.0
 47
0.01
 48
0.01
140
1.4044731806
141
0.09
142
0.0
143
25.4
144
1.0
145
0.0
146
1.0
147
0.625
 71
1
 72
0
 73
0
 74
0
 75
0
 76
0
 77
1
 78
8
 79
2
170
0
171
1
172
0
173
0
174
0
175
0
176
0
177
0
178
0
270
2
179
2
271
2
272
2
273
2
274
2
275
0
280
0
281
0
282
0
283
1
284
8
285
0
286
0
287
3
288
0
340
11
278
46
341
212
342
212
343
212
344
212
  0
ENDTAB
  0
ENDSEC
  0
SECTION
  2
BLOCKS
  0
BLOCK
  5
20
100
AcDbEntity
  8
0
100
AcDbBlockBegin
  2
*Model_Space
 70
0
 10
0.0
 20
0.0
 30
0.0
  3
*Model_Space
  1

  0
ENDBLK
  5
21
100
AcDbEntity
  8
0
100
AcDbBlockEnd
  0
BLOCK
  5
1C
100
AcDbEntity
  8
0
100
AcDbBlockBegin
  2
*Paper_Space
 70
0
 10
0.0
 20
0.0
 30
0.0
  3
*Paper_Space
  1

  0
ENDBLK
  5
1D
100
AcDbEntity
  8
0
100
AcDbBlockEnd
  0
BLOCK
  5
214
100
AcDbEntity
  8
0
100
AcDbBlockBegin
  2
_FILLED
 70
64
 10
0.0
 20
0.0
  3
_FILLED
  1

  0
SOLID
  5
215
100
AcDbEntity
  8
0
  6
BYBLOCK
 62
0
100
AcDbTrace
 10
0.0
 20
0.0
 11
-1.0
 21
0.25
 12
-1.0
 22
-0.25
 13
-1.0
 23
-0.25
  0
ENDBLK
  5
216
100
AcDbEntity
  8
0
  6
BYBLOCK
 62
0
100
AcDbBlockEnd
  0
ENDSEC
  0
SECTION
  2
ENTITIES
  0
LINE
  5
217
100
AcDbEntity
  8
0
100
AcDbLine
 62
7
  6
BYLAYER
 10
35.6135686219
 20
9.8465382371
 11
59.6135686219
 21
9.8465382371
  0
LINE
  5
218
100
AcDbEntity
  8
0
100
AcDbLine
 62
7
  6
BYLAYER
 10
41.2198053633
 20
17.8488029658
 11
41.1135686219
 21
17.8466815088
  0
LINE
  5
219
100
AcDbEntity
  8
0
100
AcDbLine
 62
7
  6
BYLAYER
 10
35.6135686219
 20
17.8465382371
 11
41.1135686219
 21
17.8465382371
  0
LINE
  5
21A
100
AcDbEntity
  8
0
100
AcDbLine
 62
7
  6
BYLAYER
 10
54.1135686219
 20
17.8465382371
 11
59.6135686219
 21
17.8465382371
  0
LINE
  5
21B
100
AcDbEntity
  8
0
100
AcDbLine
 62
7
  6
BYLAYER
 10
59.3135686219
 20
19.3465382371
 11
35.9135686219
 21
19.3465382371
  0
LINE
  5
21C
100
AcDbEntity
  8
0
100
AcDbLine
 62
7
  6
BYLAYER
 10
54.1135686219
 20
17.8466815088
 11
54.0073318806
 21
17.8488029658
  0
LINE
  5
21D
100
AcDbEntity
  8
0
100
AcDbLine
 62
7
  6
BYLAYER
 10
35.6135686219
 20
23.8465382371
 11
60.1135686219
 21
23.8465382371
  0
LINE
  5
21E
100
AcDbEntity
  8
0
100
AcDbLine
 62
7
  6
BYLAYER
 10
35.6136708226
 20
24.8465382371
 11
35.8636375996
 21
24.8465382371
  0
LINE
  5
21F
100
AcDbEntity
  8
0
100
AcDbLine
 62
7
  6
BYLAYER
 10
30.2746451609
 20
28.4838650553
 11
30.4357216998
 21
28.3414112732
  0
LINE
  5
220
100
AcDbEntity
  8
0
100
AcDbLine
 62
7
  6
BYLAYER
 10
40.3635686219
 20
90.7004348954
 11
39.8635686219
 21
90.2004348954
  0
LINE
  5
221
100
AcDbEntity
  8
0
100
AcDbLine
 62
7
  6
BYLAYER
 10
30.1135686219
 20
28.8988570428
 11
30.2746451609
 21
28.4838650553
  0
LINE
  5
222
100
AcDbEntity
  8
0
100
AcDbLine
 62
7
  6
BYLAYER
 10
25.6135686219
 20
65.8465382371
 11
25.6135686219
 21
88.8462198871
  0
LINE
  5
223
100
AcDbEntity
  8
0
100
AcDbLine
 62
7
  6
BYLAYER
 10
35.4630930103
 20
26.4491587746
 11
36.1135686219
 21
23.8465382371
  0
LINE
  5
224
100
AcDbEntity
  8
0
100
AcDbLine
 62
7
  6
BYLAYER
 10
30.0635686219
 20
88.8465382371
 11
30.0635686219
 21
86.595736851
  0
LINE
  5
225
100
AcDbEntity
  8
0
100
AcDbLine
 62
7
  6
BYLAYER
 10
30.1135686219
 20
86.595736851
 11
30.1135686219
 21
86.5815528776
  0
LINE
  5
226
100
AcDbEntity
  8
0
100
AcDbLine
 62
7
  6
BYLAYER
 10
30.1135686219
 20
62.5073808474
 11
30.1135686219
 21
28.8988570428
  0
LINE
  5
227
100
AcDbEntity
  8
0
100
AcDbLine
 62
7
  6
BYLAYER
 10
30.1635686219
 20
86.6099917687
 11
30.1635686219
 21
88.8465382371
  0
LINE
  5
228
100
AcDbEntity
  8
0
100
AcDbLine
 62
7
  6
BYLAYER
 10
41.6604403593
 20
102.2464554962
 11
41.6135680833
 21
102.0465382371
  0
LINE
  5
229
100
AcDbEntity
  8
0
100
AcDbLine
 62
7
  6
BYLAYER
 10
35.6135686219
 20
9.8465382371
 11
35.6135686219
 21
18.6774260773
  0
LINE
  5
22A
100
AcDbEntity
  8
0
100
AcDbLine
 62
7
  6
BYLAYER
 10
35.6135686219
 20
23.8465382371
 11
35.6135686219
 21
24.8465382371
  0
LINE
  5
22B
100
AcDbEntity
  8
0
100
AcDbLine
 62
7
  6
BYLAYER
 10
38.1135686219
 20
86.5815528776
 11
38.1135686219
 21
61.1283436788
  0
LINE
  5
22C
100
AcDbEntity
  8
0
100
AcDbLine
 62
7
  6
BYLAYER
 10
38.1635686219
 20
86.5465382371
 11
38.1635686219
 21
86.6099917687
  0
LINE
  5
22D
100
AcDbEntity
  8
0
100
AcDbLine
 62
7
  6
BYLAYER
 10
39.8635686219
 20
88.8465382371
 11
39.8635686219
 21
90.2004348954
  0
LINE
  5
22E
100
AcDbEntity
  8
0
100
AcDbLine
 62
7
  6
BYLAYER
 10
41.1135686219
 20
9.8465382371
 11
41.1135686219
 21
17.8466815088
  0
LINE
  5
22F
100
AcDbEntity
  8
0
100
AcDbLine
 62
7
  6
BYLAYER
 10
41.6135686219
 20
90.7004348954
 11
41.6135686219
 21
102.0465382371
  0
LINE
  5
230
100
AcDbEntity
  8
0
100
AcDbLine
 62
7
  6
BYLAYER
 10
44.1135686219
 20
104.5465382371
 11
44.1135686219
 21
106.2465382371
  0
LINE
  5
231
100
AcDbEntity
  8
0
100
AcDbLine
 62
7
  6
BYLAYER
 10
45.6635686219
 20
94.7465382371
 11
45.6635686219
 21
103.2465382371
  0
LINE
  5
232
100
AcDbEntity
  8
0
100
AcDbLine
 62
7
  6
BYLAYER
 10
45.8635686219
 20
97.7465886242
 11
45.8635686219
 21
109.3464878499
  0
LINE
  5
233
100
AcDbEntity
  8
0
100
AcDbLine
 62
7
  6
BYLAYER
 10
30.1135686219
 20
61.1283436788
 11
38.1135686219
 21
61.1283436788
  0
LINE
  5
234
100
AcDbEntity
  8
0
100
AcDbLine
 62
7
  6
BYLAYER
 10
49.3635686219
 20
109.3464878499
 11
49.3635686219
 21
97.7465886242
  0
LINE
  5
235
100
AcDbEntity
  8
0
100
AcDbLine
 62
7
  6
BYLAYER
 10
49.5635686219
 20
94.7465382371
 11
49.5635686219
 21
103.2465382371
  0
LINE
  5
236
100
AcDbEntity
  8
0
100
AcDbLine
 62
7
  6
BYLAYER
 10
51.1135686219
 20
104.5465382371
 11
51.1135686219
 21
106.2465382371
  0
LINE
  5
237
100
AcDbEntity
  8
0
100
AcDbLine
 62
7
  6
BYLAYER
 10
53.6135686219
 20
90.7004348954
 11
53.6135686219
 21
102.0465382371
  0
LINE
  5
238
100
AcDbEntity
  8
0
100
AcDbLine
 62
7
  6
BYLAYER
 10
54.1135686219
 20
17.8466815088
 11
54.1135686219
 21
9.8465382371
  0
LINE
  5
239
100
AcDbEntity
  8
0
100
AcDbLine
 62
7
  6
BYLAYER
 10
55.3635686219
 20
88.8465382371
 11
55.3635686219
 21
90.2004348954
  0
LINE
  5
23A
100
AcDbEntity
  8
0
100
AcDbLine
 62
7
  6
BYLAYER
 10
59.6135686219
 20
9.8465382371
 11
59.6135686219
 21
18.6774260773
  0
LINE
  5
23B
100
AcDbEntity
  8
0
100
AcDbLine
 62
7
  6
BYLAYER
 10
60.1135686219
 20
23.8465382371
 11
60.1135686219
 21
88.8463013759
  0
LINE
  5
23C
100
AcDbEntity
  8
0
100
AcDbLine
 62
7
  6
BYLAYER
 10
53.6135691606
 20
102.0465382371
 11
53.5666969647
 21
102.2464554365
  0
LINE
  5
23D
100
AcDbEntity
  8
0
100
AcDbLine
 62
7
  6
BYLAYER
 10
25.6135686219
 20
85.7637013242
 11
38.1135686219
 21
85.7637013242
  0
LINE
  5
23E
100
AcDbEntity
  8
0
100
AcDbLine
 62
7
  6
BYLAYER
 10
25.6135686219
 20
86.2397839949
 11
38.1135686219
 21
86.2397839949
  0
LINE
  5
23F
100
AcDbEntity
  8
0
100
AcDbLine
 62
7
  6
BYLAYER
 10
38.1135686219
 20
86.5465382371
 11
38.1635686219
 21
86.5465382371
  0
LINE
  5
240
100
AcDbEntity
  8
0
100
AcDbLine
 62
7
  6
BYLAYER
 10
30.1135686219
 20
86.5815528776
 11
38.1135686219
 21
86.5815528776
  0
LINE
  5
241
100
AcDbEntity
  8
0
100
AcDbLine
 62
7
  6
BYLAYER
 10
38.1635686219
 20
86.5957288282
 11
60.1135686219
 21
86.5957288282
  0
LINE
  5
242
100
AcDbEntity
  8
0
100
AcDbLine
 62
7
  6
BYLAYER
 10
30.1135686219
 20
86.595736851
 11
30.06356751
 21
86.595736851
  0
LINE
  5
243
100
AcDbEntity
  8
0
100
AcDbLine
 62
7
  6
BYLAYER
 10
38.1635686219
 20
86.6099917687
 11
30.1635686254
 21
86.6099917687
  0
LINE
  5
244
100
AcDbEntity
  8
0
100
AcDbLine
 62
7
  6
BYLAYER
 10
60.1135686219
 20
88.8465382371
 11
55.3635686219
 21
88.8465382371
  0
LINE
  5
245
100
AcDbEntity
  8
0
100
AcDbLine
 62
7
  6
BYLAYER
 10
39.8635686219
 20
88.8465382371
 11
30.1635686219
 21
88.8465382371
  0
LINE
  5
246
100
AcDbEntity
  8
0
100
AcDbLine
 62
7
  6
BYLAYER
 10
30.0635686219
 20
88.8465382371
 11
25.6135686219
 21
88.8465382371
  0
LINE
  5
247
100
AcDbEntity
  8
0
100
AcDbLine
 62
7
  6
BYLAYER
 10
39.8635686219
 20
90.2004348954
 11
55.3635686219
 21
90.2004348954
  0
LINE
  5
248
100
AcDbEntity
  8
0
100
AcDbLine
 62
7
  6
BYLAYER
 10
40.3635821392
 20
90.7004348954
 11
54.8635551047
 21
90.7004348954
  0
LINE
  5
249
100
AcDbEntity
  8
0
100
AcDbLine
 62
7
  6
BYLAYER
 10
54.8635686219
 20
90.7004348954
 11
55.3635686219
 21
90.2004348954
  0
LINE
  5
24A
100
AcDbEntity
  8
0
100
AcDbLine
 62
7
  6
BYLAYER
 10
45.6635686219
 20
94.7465382371
 11
49.5635686219
 21
94.7465382371
  0
LINE
  5
24B
100
AcDbEntity
  8
0
100
AcDbLine
 62
7
  6
BYLAYER
 10
49.3635686219
 20
97.7465382371
 11
45.8635686219
 21
97.7465382371
  0
LINE
  5
24C
100
AcDbEntity
  8
0
100
AcDbLine
 62
7
  6
BYLAYER
 10
49.5635686219
 20
100.2465382371
 11
49.3635686219
 21
100.2465382371
  0
LINE
  5
24D
100
AcDbEntity
  8
0
100
AcDbLine
 62
7
  6
BYLAYER
 10
45.8635686219
 20
100.2465382371
 11
45.6635686219
 21
100.2465382371
  0
LINE
  5
24E
100
AcDbEntity
  8
0
100
AcDbLine
 62
7
  6
BYLAYER
 10
41.6603217384
 20
102.2465382371
 11
45.6635686219
 21
102.2465382371
  0
LINE
  5
24F
100
AcDbEntity
  8
0
100
AcDbLine
 62
7
  6
BYLAYER
 10
49.5635686219
 20
102.2465382371
 11
53.566816001
 21
102.2465382371
  0
LINE
  5
250
100
AcDbEntity
  8
0
100
AcDbLine
 62
7
  6
BYLAYER
 10
42.8344473638
 20
103.2465382371
 11
45.6635686219
 21
103.2465382371
  0
LINE
  5
251
100
AcDbEntity
  8
0
100
AcDbLine
 62
7
  6
BYLAYER
 10
49.5635686219
 20
103.2465382371
 11
52.3926898801
 21
103.2465382371
  0
LINE
  5
252
100
AcDbEntity
  8
0
100
AcDbLine
 62
7
  6
BYLAYER
 10
44.1135709426
 20
106.2465382371
 11
45.8635686219
 21
106.2465382371
  0
LINE
  5
253
100
AcDbEntity
  8
0
100
AcDbLine
 62
7
  6
BYLAYER
 10
49.3635686219
 20
106.2465382371
 11
51.1135663012
 21
106.2465382371
  0
LINE
  5
254
100
AcDbEntity
  8
0
100
AcDbLine
 62
7
  6
BYLAYER
 10
49.3635686219
 20
109.3465382371
 11
45.8635686219
 21
109.3465382371
  0
ARC
  5
255
100
AcDbEntity
  8
0
100
AcDbCircle
 62
7
  6
BYLAYER
 10
47.3986661875
 20
65.7843421742
 40
41.106137743
100
AcDbArc
 50
245.6278271473
 51
253.120497328
  0
ARC
  5
256
100
AcDbEntity
  8
0
100
AcDbCircle
 62
7
  6
BYLAYER
 10
36.5345571087
 20
75.8623770406
 40
14.818401279
100
AcDbArc
 50
222.5245063708
 51
244.3220788258
  0
ARC
  5
257
100
AcDbEntity
  8
0
100
AcDbCircle
 62
7
  6
BYLAYER
 10
63.7529501352
 20
21.3105794695
 40
4.8544377824
100
AcDbArc
 50
148.5066166189
 51
203.8652337126
  0
ARC
  5
258
100
AcDbEntity
  8
0
100
AcDbCircle
 62
7
  6
BYLAYER
 10
31.4741871087
 20
21.3105794695
 40
4.8544377824
100
AcDbArc
 50
336.1347662874
 51
31.4933833811
  0
ARC
  5
259
100
AcDbEntity
  8
0
100
AcDbCircle
 62
7
  6
BYLAYER
 10
40.8076789998
 20
103.5513362588
 40
3.4517909905
100
AcDbArc
 50
354.8417291265
 51
359.9203583058
  0
ARC
  5
25A
100
AcDbEntity
  8
0
100
AcDbCircle
 62
7
  6
BYLAYER
 10
54.4179186643
 20
103.5512763015
 40
3.4502513294
100
AcDbArc
 50
180.0786815667
 51
185.1573704167
  0
ARC
  5
25B
100
AcDbEntity
  8
0
100
AcDbCircle
 62
7
  6
BYLAYER
 10
61.2106029582
 20
19.7952743052
 40
1.9493853729
100
AcDbArc
 50
193.308471
 51
214.9901948576
  0
ARC
  5
25C
100
AcDbEntity
  8
0
100
AcDbCircle
 62
7
  6
BYLAYER
 10
34.0165342856
 20
19.7952743052
 40
1.9493853729
100
AcDbArc
 50
325.0098051424
 51
346.691529
  0
ARC
  5
25D
100
AcDbEntity
  8
0
100
AcDbCircle
 62
7
  6
BYLAYER
 10
30.1135686219
 20
88.8465382371
 40
0.05
100
AcDbArc
 50
209.9990736671
 51
270.0
  0
SPLINE
  5
25E
100
AcDbEntity
  8
0
100
AcDbSpline
 62
7
  6
BYLAYER
 70
0
 71
3
 72
34
 73
30
 74
0
 42
0.0000001
 43
0.0000001
 44
0.0000000001
 40
0.0
 40
0.0
 40
0.0
 40
0.0
 40
0.1934166128
 40
0.3794394501
 40
0.4674755175
 40
0.5511454727
 40
0.6296832192
 40
0.7023726467
 40
0.7685453017
 40
0.8275509099
 40
0.8541711999
 40
0.8787651428
 40
0.9012620407
 40
0.9215983717
 40
0.9397105628
 40
0.9555348015
 40
0.9690155023
 40
0.9801139719
 40
0.9847583869
 40
0.9887934498
 40
0.9922145497
 40
0.9950170705
 40
0.9971972585
 40
0.9980537284
 40
0.9987544544
 40
0.9992994404
 40
0.9996886907
 40
0.9999222091
 40
1.0
 40
1.0
 40
1.0
 40
1.0
 10
44.2594666557
 20
103.5465382371
 30
0.0
 10
44.2594666557
 20
103.6119007155
 30
0.0
 10
44.2554684177
 20
103.740148008
 30
0.0
 10
44.2420986634
 20
103.89763458
 30
0.0
 10
44.2269413691
 20
104.017583028
 30
0.0
 10
44.2142206607
 20
104.1011955793
 30
0.0
 10
44.2005318101
 20
104.179392555
 30
0.0
 10
44.1864015823
 20
104.2514928735
 30
0.0
 10
44.1723335115
 20
104.316866346
 30
0.0
 10
44.1607158243
 20
104.3668339147
 30
0.0
 10
44.1518872103
 20
104.4030199705
 30
0.0
 10
44.1458330583
 20
104.4271828771
 30
0.0
 10
44.1401710077
 20
104.4492543926
 30
0.0
 10
44.134948251
 20
104.4691769385
 30
0.0
 10
44.1302124595
 20
104.4868957714
 30
0.0
 10
44.1260107636
 20
104.5023590909
 30
0.0
 10
44.1223857136
 20
104.515522892
 30
0.0
 10
44.1197331293
 20
104.5250356729
 30
0.0
 10
44.1179234096
 20
104.5314697538
 30
0.0
 10
44.1168114099
 20
104.5354047303
 30
0.0
 10
44.1158647939
 20
104.5387402077
 30
0.0
 10
44.1150888568
 20
104.5414708886
 30
0.0
 10
44.1145466742
 20
104.5433709919
 30
0.0
 10
44.114204893
 20
104.5445826303
 30
0.0
 10
44.1140030359
 20
104.5452726866
 30
0.0
 10
44.1138716402
 20
104.5457867961
 30
0.0
 10
44.1137193871
 20
104.5462056678
 30
0.0
 10
44.1137326318
 20
104.5463645736
 30
0.0
 10
44.1136233693
 20
104.5465370252
 30
0.0
 10
44.1136493627
 20
104.5465330986
 30
0.0
  0
SPLINE
  5
25F
100
AcDbEntity
  8
0
100
AcDbSpline
 62
7
  6
BYLAYER
 70
0
 71
3
 72
35
 73
31
 74
0
 42
0.0000001
 43
0.0000001
 44
0.0000000001
 40
0.0
 40
0.0
 40
0.0
 40
0.0
 40
0.0000779326
 40
0.0003115835
 40
0.0007009488
 40
0.0012460244
 40
0.0019468064
 40
0.0028032905
 40
0.0049833493
 40
0.0077856344
 40
0.011206563
 40
0.0152414969
 40
0.0198858019
 40
0.0309840138
 40
0.0444642485
 40
0.0602878637
 40
0.0783996936
 40
0.098735786
 40
0.1212324037
 40
0.1458259066
 40
0.1724457978
 40
0.2314509534
 40
0.2976238345
 40
0.3703141849
 40
0.4488527002
 40
0.5325243444
 40
0.6205614851
 40
0.7121899338
 40
0.8065951669
 40
1.0
 40
1.0
 40
1.0
 40
1.0
 10
51.1134878812
 20
104.5465330986
 30
0.0
 10
51.1134618399
 20
104.5465291648
 30
0.0
 10
51.1134785269
 20
104.5463759002
 30
0.0
 10
51.1133695591
 20
104.5461983261
 30
0.0
 10
51.1132865475
 20
104.5457900352
 30
0.0
 10
51.1131241534
 20
104.545271199
 30
0.0
 10
51.1129339892
 20
104.5445829571
 30
0.0
 10
51.1125863082
 20
104.5433705106
 30
0.0
 10
51.1120478044
 20
104.5414710787
 30
0.0
 10
51.1112704291
 20
104.5387402351
 30
0.0
 10
51.1103246704
 20
104.535404899
 30
0.0
 10
51.1092128266
 20
104.5314698648
 30
0.0
 10
51.1074037659
 20
104.5250356946
 30
0.0
 10
51.1047519131
 20
104.5155228096
 30
0.0
 10
51.1011276826
 20
104.5023590292
 30
0.0
 10
51.0969263015
 20
104.4868958539
 30
0.0
 10
51.0921901521
 20
104.4691772307
 30
0.0
 10
51.086966775
 20
104.4492548005
 30
0.0
 10
51.0813041276
 20
104.4271833812
 30
0.0
 10
51.0752497975
 20
104.4030204813
 30
0.0
 10
51.0664211976
 20
104.3668342332
 30
0.0
 10
51.0548037965
 20
104.3168659393
 30
0.0
 10
51.0407357845
 20
104.2514910734
 30
0.0
 10
51.0266058187
 20
104.1793888108
 30
0.0
 10
51.0129176706
 20
104.101189145
 30
0.0
 10
51.0001986991
 20
104.0175739479
 30
0.0
 10
50.9890317637
 20
103.929274459
 30
0.0
 10
50.9799123086
 20
103.8370917278
 30
0.0
 10
50.9706972859
 20
103.7091869351
 30
0.0
 10
50.9676705882
 20
103.6118978214
 30
0.0
 10
50.9676705882
 20
103.5465382371
 30
0.0
  0
SPLINE
  5
260
100
AcDbEntity
  8
0
100
AcDbSpline
 62
7
  6
BYLAYER
 70
0
 71
3
 72
9
 73
5
 74
0
 42
0.0000001
 43
0.0000001
 44
0.0000000001
 40
0.0
 40
0.0
 40
0.0
 40
0.0
 40
0.4597470131
 40
1.0
 40
1.0
 40
1.0
 40
1.0
 10
41.6604402792
 20
102.2464554365
 30
0.0
 10
41.8436132521
 20
102.3958360601
 30
0.0
 10
42.2395576329
 20
102.7237932453
 30
0.0
 10
42.6281778405
 20
103.0605363731
 30
0.0
 10
42.8344517039
 20
103.2465382371
 30
0.0
  0
SPLINE
  5
261
100
AcDbEntity
  8
0
100
AcDbSpline
 62
7
  6
BYLAYER
 70
0
 71
3
 72
9
 73
5
 74
0
 42
0.0000001
 43
0.0000001
 44
0.0000000001
 40
0.0
 40
0.0
 40
0.0
 40
0.0
 40
0.5402529761
 40
1.0
 40
1.0
 40
1.0
 40
1.0
 10
52.39268554
 20
103.2465382371
 30
0.0
 10
52.5989593859
 20
103.0605363889
 30
0.0
 10
52.9875795682
 20
102.7237932828
 30
0.0
 10
53.3835239216
 20
102.3958361166
 30
0.0
 10
53.5666968845
 20
102.2464554962
 30
0.0
  0
SPLINE
  5
262
100
AcDbEntity
  8
0
100
AcDbSpline
 62
7
  6
BYLAYER
 70
0
 71
3
 72
15
 73
11
 74
0
 42
0.0000001
 43
0.0000001
 44
0.0000000001
 40
0.0
 40
0.0
 40
0.0
 40
0.0
 40
0.1250137858
 40
0.2500055676
 40
0.3750030928
 40
0.5
 40
0.6249969072
 40
0.7499944324
 40
0.8749862142
 40
1.0
 40
1.0
 40
1.0
 40
1.0
 10
54.0073324217
 20
17.8460214789
 30
0.0
 10
53.4693366738
 20
17.8459168305
 30
0.0
 10
52.3935853573
 20
17.9428077067
 30
0.0
 10
50.806688999
 20
18.2377730075
 30
0.0
 10
49.2268928313
 20
18.5640691605
 30
0.0
 10
47.6135686219
 20
18.7341058005
 30
0.0
 10
46.0002444126
 20
18.5640691605
 30
0.0
 10
44.4204482448
 20
18.2377730075
 30
0.0
 10
42.8335518866
 20
17.9428077067
 30
0.0
 10
41.7578005701
 20
17.8459168305
 30
0.0
 10
41.2198048222
 20
17.8460214789
 30
0.0
  0
SPLINE
  5
263
100
AcDbEntity
  8
0
100
AcDbSpline
 62
7
  6
BYLAYER
 70
0
 71
3
 72
31
 73
27
 74
0
 42
0.0000001
 43
0.0000001
 44
0.0000000001
 40
0.0
 40
0.0
 40
0.0
 40
0.0
 40
0.0003046416
 40
0.0006852126
 40
0.00121768
 40
0.0027374926
 40
0.0048624574
 40
0.0075909526
 40
0.0109213571
 40
0.0148520503
 40
0.0193814098
 40
0.0302244173
 40
0.0434157479
 40
0.0589175894
 40
0.0766921803
 40
0.096697207
 40
0.1188757871
 40
0.1695149986
 40
0.2281101336
 40
0.2940736023
 40
0.3667782852
 40
0.4455247581
 40
0.5295774308
 40
0.6181221104
 40
0.805328364
 40
1.0
 40
1.0
 40
1.0
 40
1.0
 10
39.8635686392
 20
88.8465420596
 30
0.0
 10
39.8628690885
 20
88.8469083509
 30
0.0
 10
39.8669634515
 20
88.8459018027
 30
0.0
 10
39.8688799834
 20
88.8458449623
 30
0.0
 10
39.8758109284
 20
88.8447311121
 30
0.0
 10
39.8860189057
 20
88.8433698831
 30
0.0
 10
39.9026213302
 20
88.8409694979
 30
0.0
 10
39.923529519
 20
88.8380310571
 30
0.0
 10
39.9492045646
 20
88.8344083918
 30
0.0
 10
39.9794576892
 20
88.8301653921
 30
0.0
 10
40.0290153118
 20
88.8232361262
 30
0.0
 10
40.102346906
 20
88.8130523836
 30
0.0
 10
40.2038780989
 20
88.7991315578
 30
0.0
 10
40.3232413299
 20
88.7830148939
 30
0.0
 10
40.4601491428
 20
88.7648438506
 30
0.0
 10
40.6142623726
 20
88.74477267
 30
0.0
 10
40.8529382663
 20
88.7143924359
 30
0.0
 10
41.1910573882
 20
88.6730955777
 30
0.0
 10
41.642235161
 20
88.6214308155
 30
0.0
 10
42.1507248277
 20
88.567673343
 30
0.0
 10
42.7117088259
 20
88.5138607085
 30
0.0
 10
43.3199543073
 20
88.4620285206
 30
0.0
 10
43.9697103111
 20
88.4142316194
 30
0.0
 10
44.9006111463
 20
88.3571495773
 30
0.0
 10
46.1190705028
 20
88.3065489391
 30
0.0
 10
47.1089702011
 20
88.2926415787
 30
0.0
 10
47.6135686219
 20
88.2926415787
 30
0.0
  0
SPLINE
  5
264
100
AcDbEntity
  8
0
100
AcDbSpline
 62
7
  6
BYLAYER
 70
0
 71
3
 72
8
 73
4
 74
0
 42
0.0000001
 43
0.0000001
 44
0.0000000001
 40
0.0
 40
0.0
 40
0.0
 40
0.0
 40
1.0
 40
1.0
 40
1.0
 40
1.0
 10
30.1617339122
 20
86.5965382371
 30
0.0
 10
30.1629092033
 20
86.6009089973
 30
0.0
 10
30.1635687386
 20
86.605465749
 30
0.0
 10
30.1635686254
 20
86.6099917687
 30
0.0
  0
SPLINE
  5
265
100
AcDbEntity
  8
0
100
AcDbSpline
 62
7
  6
BYLAYER
 70
0
 71
3
 72
9
 73
5
 74
0
 42
0.0000001
 43
0.0000001
 44
0.0000000001
 40
0.0
 40
0.0
 40
0.0
 40
0.0
 40
0.2428864848
 40
1.0
 40
1.0
 40
1.0
 40
1.0
 10
30.1518064645
 20
86.5755774657
 30
0.0
 10
30.1528839661
 20
86.5771219152
 30
0.0
 10
30.1570787279
 20
86.5836417713
 30
0.0
 10
30.1602234997
 20
86.590869478
 30
0.0
 10
30.1617478208
 20
86.5965382371
 30
0.0
  0
SPLINE
  5
266
100
AcDbEntity
  8
0
100
AcDbSpline
 62
7
  6
BYLAYER
 70
0
 71
3
 72
30
 73
26
 74
0
 42
0.0000001
 43
0.0000001
 44
0.0000000001
 40
0.0
 40
0.0
 40
0.0
 40
0.0
 40
0.1946775148
 40
0.3818855749
 40
0.4704285372
 40
0.5544795878
 40
0.6332245726
 40
0.7059277663
 40
0.7718904148
 40
0.8304851971
 40
0.8811242627
 40
0.9033027578
 40
0.9233079196
 40
0.9410826652
 40
0.9565843776
 40
0.9697755676
 40
0.9806187007
 40
0.9890789291
 40
0.9924092643
 40
0.9951376409
 40
0.9972624812
 40
0.9987822069
 40
0.9993146586
 40
0.9996952396
 40
1.0
 40
1.0
 40
1.0
 40
1.0
 10
47.6135686219
 20
88.2926415787
 30
0.0
 10
48.1181822784
 20
88.2926415787
 30
0.0
 10
49.1081019406
 20
88.3065476669
 30
0.0
 10
50.3265766112
 20
88.3571526559
 30
0.0
 10
51.2574734023
 20
88.4142357122
 30
0.0
 10
51.9072167058
 20
88.4620345638
 30
0.0
 10
52.5154504193
 20
88.5138643399
 30
0.0
 10
53.0764245777
 20
88.5676764421
 30
0.0
 10
53.5849075536
 20
88.6214315169
 30
0.0
 10
54.0360820491
 20
88.6730948045
 30
0.0
 10
54.3741998105
 20
88.7143904061
 30
0.0
 10
54.6128754959
 20
88.7447701451
 30
0.0
 10
54.7669892194
 20
88.7648420486
 30
0.0
 10
54.9038971302
 20
88.7830142739
 30
0.0
 10
55.0232605514
 20
88.7991309934
 30
0.0
 10
55.1247898705
 20
88.8130520574
 30
0.0
 10
55.2082171981
 20
88.8246374027
 30
0.0
 10
55.2663163051
 20
88.8327786685
 30
0.0
 10
55.3035848401
 20
88.8380194012
 30
0.0
 10
55.3245829267
 20
88.8410047139
 30
0.0
 10
55.3409517795
 20
88.8432827965
 30
0.0
 10
55.3516423933
 20
88.8448965414
 30
0.0
 10
55.3579230146
 20
88.8456700182
 30
0.0
 10
55.3609808631
 20
88.846324111
 30
0.0
 10
55.3628687809
 20
88.8461756253
 30
0.0
 10
55.3635686046
 20
88.8465420596
 30
0.0
  0
ENDSEC
  0
SECTION
  2
OBJECTS
  0
DICTIONARY
  5
C
100
AcDbDictionary
280
0
281
1
  3
ACAD_GROUP
350
D
  3
ACAD_MLINESTYLE
350
17
  3
ACAD_LAYOUT
350
1A
  3
ACAD_PLOTSETTINGS
350
19
  3
ACAD_PLOTSTYLENAME
350
E
  0
DICTIONARY
  5
D
102
{ACAD_REACTORS
330
C
102
}
100
AcDbDictionary
280
0
281
1
  0
ACDBDICTIONARYWDFLT
  5
E
102
{ACAD_REACTORS
330
C
102
}
100
AcDbDictionary
281
1
  3
Normal
350
F
100
AcDbDictionaryWithDefault
340
F
  0
DICTIONARY
  5
17
102
{ACAD_REACTORS
330
C
102
}
100
AcDbDictionary
280
0
281
1
  3
Standard
350
18
  0
DICTIONARY
  5
19
102
{ACAD_REACTORS
330
C
102
}
100
AcDbDictionary
281
1
  0
DICTIONARY
  5
1A
102
{ACAD_REACTORS
330
C
102
}
100
AcDbDictionary
281
1
  3
Model
350
267
  3
Layout1
350
268
  0
ACDBPLACEHOLDER
  5
F
102
{ACAD_REACTORS
330
E
102
}
  0
MLINESTYLE
  5
18
102
{ACAD_REACTORS
330
17
102
}
100
AcDbMlineStyle
  2
STANDARD
 70
0
  3

 62
256
 51
90.0
 52
90.0
 71
2
 49
0.5
 62
256
  6
BYLAYER
 49
-0.5
 62
256
  6
BYLAYER
  0
LAYOUT
  5
267
102
{ACAD_REACTORS
330
1A
102
}
100
AcDbPlotSettings
  1

  2
none_device
  4

  6

 40
0.0
 41
0.0
 42
0.0
 43
0.0
 44
210.0
 45
297.0
 46
0.0
 47
0.0
 48
0.0
 49
0.0
140
0.0
141
0.0
142
1.0
143
1.0
 70
1024
 72
1
 73
0
 74
0
  7

 75
0
147
1.0
148
0.0
149
0.0
100
AcDbLayout
  1
Model
 70
0
 71
0
 10
0.0
 20
0.0
 11
210.0
 21
297.0
 12
0.0
 22
0.0
 32
0.0
 14
0.0
 24
0.0
 34
0.0
 15
0.0
 25
0.0
 35
0.0
146
0.0
 13
0.0
 23
0.0
 33
0.0
 16
1.0
 26
0.0
 36
0.0
 17
0.0
 27
1.0
 37
0.0
 76
0
330
210
345
0
346
0
  0
LAYOUT
  5
268
102
{ACAD_REACTORS
330
1A
102
}
100
AcDbPlotSettings
  1

  2
none_device
  4

  6

 40
0.0
 41
0.0
 42
0.0
 43
0.0
 44
210.0
 45
297.0
 46
0.0
 47
0.0
 48
0.0
 49
0.0
140
0.0
141
0.0
142
1.0
143
1.0
 70
0
 72
1
 73
0
 74
0
  7

 75
0
147
1.0
148
0.0
149
0.0
100
AcDbLayout
  1
Layout1
 70
0
 71
1
 10
0.0
 20
0.0
 11
210.0
 21
297.0
 12
0.0
 22
0.0
 32
0.0
 14
0.0
 24
0.0
 34
0.0
 15
0.0
 25
0.0
 35
0.0
146
0.0
 13
0.0
 23
0.0
 33
0.0
 16
1.0
 26
0.0
 36
0.0
 17
0.0
 27
1.0
 37
0.0
 76
0
330
211
345
0
346
0
  0
ENDSEC
  0
EOF
