  0
SECTION
  2
HEADER
  9
$ACADVER
  1
AC1014
  9
$ACADMAINTVER
 70
     0
  9
$DWGCODEPAGE
  3
ANSI_1252
  9
$INSBASE
 10
0.0
 20
0.0
 30
0.0
  9
$EXTMIN
 10
-3.34976
 20
-4.06152
 30
0.0
  9
$EXTMAX
 10
3.34976
 20
3.49077
 30
0.0
  9
$LIMMIN
 10
0.0
 20
0.0
  9
$LIMMAX
 10
0.0
 20
0.0
  9
$ORTHOMODE
 70
     0
  9
$REGENMODE
 70
     1
  9
$FILLMODE
 70
     1
  9
$QTEXTMODE
 70
     0
  9
$MIRRTEXT
 70
     1
  9
$DRAGMODE
 70
     2
  9
$LTSCALE
 40
1.0
  9
$OSMODE
 70
     0
  9
$ATTMODE
 70
     1
  9
$TEXTSIZE
 40
0.2
  9
$TRACEWID
 40
0.05
  9
$TEXTSTYLE
  7
STANDARD
  9
$CLAYER
  8
0
  9
$CELTYPE
  6
CONTINUOUS
  9
$CECOLOR
 62
   256
  9
$CELTSCALE
 40
1.0
  9
$DELOBJ
 70
     1
  9
$DISPSILH
 70
     0
  9
$DIMSCALE
 40
1.0
  9
$DIMASZ
 40
0.18
  9
$DIMEXO
 40
0.0625
  9
$DIMDLI
 40
0.38
  9
$DIMRND
 40
0.0
  9
$DIMDLE
 40
0.0
  9
$DIMEXE
 40
0.18
  9
$DIMTP
 40
0.0
  9
$DIMTM
 40
0.0
  9
$DIMTXT
 40
0.18
  9
$DIMCEN
 40
0.09
  9
$DIMTSZ
 40
0.0
  9
$DIMTOL
 70
     0
  9
$DIMLIM
 70
     0
  9
$DIMTIH
 70
     1
  9
$DIMTOH
 70
     1
  9
$DIMSE1
 70
     0
  9
$DIMSE2
 70
     0
  9
$DIMTAD
 70
     0
  9
$DIMZIN
 70
     0
  9
$DIMBLK
  1

  9
$DIMASO
 70
     1
  9
$DIMSHO
 70
     1
  9
$DIMPOST
  1

  9
$DIMAPOST
  1

  9
$DIMALT
 70
     0
  9
$DIMALTD
 70
     2
  9
$DIMALTF
 40
25.4
  9
$DIMLFAC
 40
1.0
  9
$DIMTOFL
 70
     0
  9
$DIMTVP
 40
0.0
  9
$DIMTIX
 70
     0
  9
$DIMSOXD
 70
     0
  9
$DIMSAH
 70
     0
  9
$DIMBLK1
  1

  9
$DIMBLK2
  1

  9
$DIMSTYLE
  2
STANDARD
  9
$DIMCLRD
 70
     0
  9
$DIMCLRE
 70
     0
  9
$DIMCLRT
 70
     0
  9
$DIMTFAC
 40
1.0
  9
$DIMGAP
 40
0.09
  9
$DIMJUST
 70
     0
  9
$DIMSD1
 70
     0
  9
$DIMSD2
 70
     0
  9
$DIMTOLJ
 70
     1
  9
$DIMTZIN
 70
     0
  9
$DIMALTZ
 70
     0
  9
$DIMALTTZ
 70
     0
  9
$DIMFIT
 70
     3
  9
$DIMUPT
 70
     0
  9
$DIMUNIT
 70
     2
  9
$DIMDEC
 70
     4
  9
$DIMTDEC
 70
     4
  9
$DIMALTU
 70
     2
  9
$DIMALTTD
 70
     2
  9
$DIMTXSTY
  7
STANDARD
  9
$DIMAUNIT
 70
     0
  9
$LUNITS
 70
     2
  9
$LUPREC
 70
     4
  9
$SKETCHINC
 40
0.1
  9
$FILLETRAD
 40
0.0
  9
$AUNITS
 70
     0
  9
$AUPREC
 70
     0
  9
$MENU
  1
acad
  9
$ELEVATION
 40
0.0
  9
$PELEVATION
 40
0.0
  9
$THICKNESS
 40
0.0
  9
$LIMCHECK
 70
     0
  9
$BLIPMODE
 70
     1
  9
$CHAMFERA
 40
0.0
  9
$CHAMFERB
 40
0.0
  9
$CHAMFERC
 40
0.0
  9
$CHAMFERD
 40
0.0
  9
$SKPOLY
 70
     0
  9
$TDCREATE
 40
0.000000000
  9
$TDUPDATE
 40
0.000000000
  9
$TDINDWG
 40
0.0000000000
  9
$TDUSRTIMER
 40
0.0000000000
  9
$USRTIMER
 70
     1
  9
$ANGBASE
 50
0.0
  9
$ANGDIR
 70
     0
  9
$PDMODE
 70
     0
  9
$PDSIZE
 40
0.0
  9
$PLINEWID
 40
0.0
  9
$COORDS
 70
     0
  9
$SPLFRAME
 70
     0
  9
$SPLINETYPE
 70
     6
  9
$SPLINESEGS
 70
     8
  9
$ATTDIA
 70
     0
  9
$ATTREQ
 70
     1
  9
$HANDLING
 70
     1
  9
$HANDSEED
  5
1EE
  9
$SURFTAB1
 70
     6
  9
$SURFTAB2
 70
     6
  9
$SURFTYPE
 70
     6
  9
$SURFU
 70
     6
  9
$SURFV
 70
     6
  9
$UCSNAME
  2

  9
$UCSORG
 10
0.0
 20
0.0
 30
0.0
  9
$UCSXDIR
 10
1.0
 20
0.0
 30
0.0
  9
$UCSYDIR
 10
0.0
 20
1.0
 30
0.0
  9
$PUCSNAME
  2

  9
$PUCSORG
 10
0.0
 20
0.0
 30
0.0
  9
$PUCSXDIR
 10
1.0
 20
0.0
 30
0.0
  9
$PUCSYDIR
 10
0.0
 20
1.0
 30
0.0
  9
$USERI1
 70
     0
  9
$USERI2
 70
     0
  9
$USERI3
 70
     0
  9
$USERI4
 70
     0
  9
$USERI5
 70
     0
  9
$USERR1
 40
0.0
  9
$USERR2
 40
0.0
  9
$USERR3
 40
0.0
  9
$USERR4
 40
0.0
  9
$USERR5
 40
0.0
  9
$WORLDVIEW
 70
     1
  9
$SHADEDGE
 70
     3
  9
$SHADEDIF
 70
    70
  9
$TILEMODE
 70
     1
  9
$MAXACTVP
 70
    16
  9
$PINSBASE
 10
0.0
 20
0.0
 30
0.0
  9
$PLIMCHECK
 70
     0
  9
$PEXTMIN
 10
1.000000E+20
 20
1.000000E+20
 30
1.000000E+20
  9
$PEXTMAX
 10
-1.000000E+20
 20
-1.000000E+20
 30
-1.000000E+20
  9
$PLIMMIN
 10
0.0
 20
0.0
  9
$PLIMMAX
 10
12.0
 20
9.0
  9
$UNITMODE
 70
     0
  9
$VISRETAIN
 70
     0
  9
$PLINEGEN
 70
     1
  9
$PSLTSCALE
 70
     0
  9
$TREEDEPTH
 70
  3020
  9
$PICKSTYLE
 70
     1
  9
$CMLSTYLE
  2
STANDARD
  9
$CMLJUST
 70
     0
  9
$CMLSCALE
 40
1.0
  9
$PROXYGRAPHICS
 70
     0
  9
$MEASUREMENT
 70
     0
  0
ENDSEC
  0
SECTION
  2
CLASSES
  0
CLASS
  1
LWPOLYLINE
  2
AcDbPolyline
  3
"AutoCAD"
 90
        0
280
     0
281
     1
  0
CLASS
  1
IMAGE
  2
AcDbRasterImage
  3
ISM
 90
      127
280
     0
281
     1
  0
CLASS
  1
OLE2FRAME
  2
AcDbOle2Frame
  3
""
 90
        0
280
     0
281
     1
  0
CLASS
  1
HATCH
  2
AcDbHatch
  3
"ACAD_SEDONA"
 90
        0
280
     0
281
     1
  0
CLASS
  1
DICTIONARYVAR
  2
AcDbDictionaryVar
  3
"AutoCAD"
 90
        0
280
     0
281
     0
  0
CLASS
  1
RASTERVARIABLES
  2
AcDbRasterVariables
  3
ISM
 90
        0
280
     0
281
     0
  0
CLASS
  1
IMAGEDEF
  2
AcDbRasterImageDef
  3
ISM
 90
        0
280
     0
281
     0
  0
CLASS
  1
IMAGEDEF_REACTOR
  2
AcDbRasterImageDefReactor
  3
ISM
 90
        1
280
     0
281
     0
  0
CLASS
  1
IDBUFFER
  2
AcDbIdBuffer
  3
"Acad"
 90
        0
280
     0
281
     0
  0
CLASS
  1
SPATIAL_FILTER
  2
AcDbSpatialFilter
  3
"Acad"
 90
        0
280
     0
281
     0
  0
CLASS
  1
XRECORD
  2
AcDbXrecord
  3
"<Built In>"
 90
        0
280
     0
281
     0
  0
CLASS
  1
SORTENTSTABLE
  2
AcDbSortentsTable
  3
"AutoCAD"
 90
        0
280
     0
281
     0
  0
CLASS
  1
LAYER_INDEX
  2
AcDbLayerIndex
  3
"Acad"
 90
        0
280
     0
281
     0
  0
CLASS
  1
SPATIAL_INDEX
  2
AcDbSpatialIndex
  3
"Acad"
 90
        0
280
     0
281
     0
  0
CLASS
  1
OBJECT_PTR
  2
CAseDLPNTableRecord
  3
"ASE-LPNTableRecord"
 90
        1
280
     0
281
     0
  0
CLASS
  1
LAYOUT
  2
AcDbLayout
  3
"AutoCAD 2000"
 90
        0
280
     0
281
     0
  0
CLASS
  1
PLOTSETTINGS
  2
AcDbPlotSettings
  3
"AutoCAD 2000"
 90
        0
280
     0
281
     0
  0
CLASS
  1
ACDBDICTIONARYWDFLT
  2
AcDbDictionaryWithDefault
  3
"AutoCAD 2000"
 90
        0
280
     0
281
     0
  0
CLASS
  1
ACDBPLACEHOLDER
  2
AcDbPlaceHolder
  3
"AutoCAD 2000"
 90
        0
280
     0
281
     0
  0
CLASS
  1
VBA_PROJECT
  2
AcDbVbaProject
  3
"acadvba"
 90
        0
280
     0
281
     0
  0
CLASS
  1
WIPEOUT
  2
AcDbWipeout
  3
WipeOut|AutoCAD Express Tool|expresstools@autodesk.com
 90
      127
280
     0
281
     1
  0
CLASS
  1
WIPEOUTVARIABLES
  2
AcDbWipeoutVariables
  3
WipeOut|AutoCAD Express Tool|expresstools@autodesk.com
 90
        0
280
     0
281
     0
  0
CLASS
  1
RTEXT
  2
RText
  3
RText|AutoCAD Express Tool|expresstools@autodesk.com
 90
        0
280
     0
281
     1
  0
CLASS
  1
ARCALIGNEDTEXT
  2
AcDbArcAlignedText
  3
ATEXT|AutoCAD Express Tool|expresstools@autodesk.com
 90
        0
280
     0
281
     1
  0
ENDSEC
  0
SECTION
  2
TABLES
  0
TABLE
  2
VPORT
  5
7
100
AcDbSymbolTable
 70
     1
  0
VPORT
  5
15
100
AcDbSymbolTableRecord
100
AcDbViewportTableRecord
  2
*ACTIVE
 70
     0
 10
0.0
 20
0.0
 11
1.0
 21
1.0
 12
6.591288
 22
4.579184
 13
0.0
 23
0.0
 14
1.0
 24
1.0
 15
0.0
 25
0.0
 16
0.0
 26
0.0
 36
1.0
 17
0.0
 27
0.0
 37
0.0
 40
9.158369
 41
0.688564
 42
50.0
 43
0.0
 44
0.0
 50
0.0
 51
0.0
 71
     0
 72
   100
 73
     1
 74
     1
 75
     0
 76
     0
 77
     0
 78
     0
  0
ENDTAB
  0
TABLE
  2
LTYPE
  5
4
100
AcDbSymbolTable
 70
     7
  0
LTYPE
  5
11
100
AcDbSymbolTableRecord
100
AcDbLinetypeTableRecord
  2
BYBLOCK
 70
    64
  3

 72
    65
 73
     0
 40
0.0
  0
LTYPE
  5
12
100
AcDbSymbolTableRecord
100
AcDbLinetypeTableRecord
  2
BYLAYER
 70
    64
  3

 72
    65
 73
     0
 40
0.0
  0
LTYPE
  5
13
100
AcDbSymbolTableRecord
100
AcDbLinetypeTableRecord
  2
CONTINUOUS
 70
    64
  3
Solid line
 72
    65
 73
     0
 40
0.0
  0
LTYPE
  5
1F
100
AcDbSymbolTableRecord
100
AcDbLinetypeTableRecord
  2
CENTER
 70
    64
  3
Center ____ _ ____ _ ____ _ ____ _ ____ _ ____
 72
    65
 73
     4
 40
50.8
 49
31.75
 74
     0
 49
-6.35
 74
     0
 49
6.35
 74
     0
 49
-6.35
 74
     0
  0
LTYPE
  5
20
100
AcDbSymbolTableRecord
100
AcDbLinetypeTableRecord
  2
HIDDEN
 70
    64
  3
Hidden __ __ __ __ __ __ __ __ __ __ __ __ __ __
 72
    65
 73
     2
 40
9.525
 49
6.35
 74
     0
 49
-3.175
 74
     0
  0
LTYPE
  5
21
100
AcDbSymbolTableRecord
100
AcDbLinetypeTableRecord
  2
CENTER2
 70
    64
  3
Center (.5x) ___ _ ___ _ ___ _ ___ _ ___ _ ___
 72
    65
 73
     4
 40
28.575
 49
19.05
 74
     0
 49
-3.175
 74
     0
 49
3.175
 74
     0
 49
-3.175
 74
     0
  0
LTYPE
  5
22
100
AcDbSymbolTableRecord
100
AcDbLinetypeTableRecord
  2
HIDDEN2
 70
    64
  3
Hidden (.5x) _ _ _ _ _ _ _ _ _ _ _ _ _ _ _ _ _
 72
    65
 73
     2
 40
4.7625
 49
3.175
 74
     0
 49
-1.5875
 74
     0
  0
ENDTAB
  0
TABLE
  2
LAYER
  5
2
100
AcDbSymbolTable
 70
     7
  0
LAYER
  5
14
100
AcDbSymbolTableRecord
100
AcDbLayerTableRecord
  2
0
 70
     0
 62
     7
  6
CONTINUOUS
  0
LAYER
  5
23
100
AcDbSymbolTableRecord
100
AcDbLayerTableRecord
  2
TRMODEL1
 70
     0
 62
     7
  6
CONTINUOUS
  0
LAYER
  5
24
100
AcDbSymbolTableRecord
100
AcDbLayerTableRecord
  2
TRMODEL3
 70
     0
 62
     7
  6
CONTINUOUS
  0
LAYER
  5
25
100
AcDbSymbolTableRecord
100
AcDbLayerTableRecord
  2
TRDETAIL2
 70
     0
 62
     7
  6
CONTINUOUS
  0
LAYER
  5
26
100
AcDbSymbolTableRecord
100
AcDbLayerTableRecord
  2
TRDETAIL3
 70
     0
 62
     7
  6
CONTINUOUS
  0
LAYER
  5
27
100
AcDbSymbolTableRecord
100
AcDbLayerTableRecord
  2
TRDETAIL4
 70
     0
 62
     7
  6
CONTINUOUS
  0
LAYER
  5
28
100
AcDbSymbolTableRecord
100
AcDbLayerTableRecord
  2
TRDETAIL5
 70
     0
 62
     7
  6
CONTINUOUS
  0
ENDTAB
  0
TABLE
  2
STYLE
  5
3
100
AcDbSymbolTable
 70
     1
  0
STYLE
  5
17
100
AcDbSymbolTableRecord
100
AcDbTextStyleTableRecord
  2
STANDARD
 70
     0
 40
0.0
 41
1.0
 50
0.0
 71
     0
 42
0.0
  3
txt
  4

  0
ENDTAB
  0
TABLE
  2
VIEW
  5
5
100
AcDbSymbolTable
 70
     0
  0
ENDTAB
  0
TABLE
  2
UCS
  5
6
100
AcDbSymbolTable
 70
     0
  0
ENDTAB
  0
TABLE
  2
APPID
  5
8
100
AcDbSymbolTable
 70
     1
  0
APPID
  5
16
100
AcDbSymbolTableRecord
100
AcDbRegAppTableRecord
  2
ACAD
 70
     0
  0
ENDTAB
  0
TABLE
  2
DIMSTYLE
  5
9
100
AcDbSymbolTable
 70
     1
  0
DIMSTYLE
105
18
100
AcDbSymbolTableRecord
100
AcDbDimStyleTableRecord
  2
STANDARD
 70
     0
  3

  4

  5

  6

  7

 40
1.0
 41
0.18
 42
0.0625
 43
0.38
 44
0.18
 45
0.0
 46
0.0
 47
0.0
 48
0.0
 71
     0
 72
     0
 73
     1
 74
     1
 75
     0
 76
     0
 77
     0
 78
     0
140
0.18
141
0.09
142
0.0
143
25.4
144
1.0
145
0.0
146
1.0
147
0.09
170
     0
171
     2
172
     0
173
     0
174
     0
175
     0
176
     0
177
     0
178
     0
270
     2
271
     4
272
     4
273
     2
274
     2
275
     0
280
     0
281
     0
282
     0
283
     1
284
     0
285
     0
286
     0
287
     3
288
     0
340
17
  0
ENDTAB
  0
TABLE
  2
BLOCK_RECORD
  5
1
100
AcDbSymbolTable
 70
     0
  0
BLOCK_RECORD
  5
A
100
AcDbSymbolTableRecord
100
AcDbBlockTableRecord
  2
*MODEL_SPACE
  0
BLOCK_RECORD
  5
B
100
AcDbSymbolTableRecord
100
AcDbBlockTableRecord
  2
*PAPER_SPACE
  0
ENDTAB
  0
ENDSEC
  0
SECTION
  2
BLOCKS
  0
BLOCK
  5
D
100
AcDbEntity
  8
0
100
AcDbBlockBegin
  2
*MODEL_SPACE
 70
     0
 10
0.0
 20
0.0
 30
0.0
  3
*MODEL_SPACE
  1

  0
ENDBLK
  5
E
100
AcDbEntity
  8
0
100
AcDbBlockEnd
  0
BLOCK
  5
F
100
AcDbEntity
 67
     1
  8
0
100
AcDbBlockBegin
  2
*PAPER_SPACE
 70
     0
 10
0.0
 20
0.0
 30
0.0
  3
*PAPER_SPACE
  1

  0
ENDBLK
  5
10
100
AcDbEntity
 67
     1
  8
0
100
AcDbBlockEnd
  0
ENDSEC
  0
SECTION
  2
ENTITIES
  0
ARC
  5
12C
100
AcDbEntity
  8
TRMODEL1
  6
CONTINUOUS
 62
     7
100
AcDbCircle
 10
0.0
 20
-0.71176
 30
0.0
 40
3.34976
100
AcDbArc
 50
79.81749
 51
100.18251
  0
LINE
  5
12D
100
AcDbEntity
  8
TRMODEL1
  6
CONTINUOUS
 62
     7
100
AcDbLine
 10
0.4333
 20
2.1558
 30
0.0
 11
0.3937
 21
2.1558
 31
0.0
  0
ARC
  5
12E
100
AcDbEntity
  8
TRMODEL1
  6
CONTINUOUS
 62
     7
100
AcDbCircle
 10
0.3937
 20
2.2443
 30
0.0
 40
0.0885
100
AcDbArc
 50
123.541606
 51
270.0
  0
LINE
  5
12F
100
AcDbEntity
  8
TRMODEL1
  6
CONTINUOUS
 62
     7
100
AcDbLine
 10
0.3448
 20
2.318063
 30
0.0
 11
0.3448
 21
2.32304
 31
0.0
  0
ARC
  5
130
100
AcDbEntity
  8
TRMODEL1
  6
CONTINUOUS
 62
     7
100
AcDbCircle
 10
0.4333
 20
2.32304
 30
0.0
 40
0.0885
100
AcDbArc
 50
0.0
 51
180.0
  0
LINE
  5
131
100
AcDbEntity
  8
TRMODEL1
  6
CONTINUOUS
 62
     7
100
AcDbLine
 10
0.5218
 20
2.32304
 30
0.0
 11
0.5218
 21
2.2443
 31
0.0
  0
ARC
  5
132
100
AcDbEntity
  8
TRMODEL1
  6
CONTINUOUS
 62
     7
100
AcDbCircle
 10
0.4333
 20
2.2443
 30
0.0
 40
0.0885
100
AcDbArc
 50
270.0
 51
0.0
  0
LINE
  5
133
100
AcDbEntity
  8
TRMODEL1
  6
CONTINUOUS
 62
     7
100
AcDbLine
 10
0.592185
 20
2.58524
 30
0.0
 11
0.592185
 21
1.999594
 31
0.0
  0
LINE
  5
134
100
AcDbEntity
  8
TRMODEL1
  6
CONTINUOUS
 62
     7
100
AcDbLine
 10
-0.592185
 20
2.58524
 30
0.0
 11
-0.592185
 21
1.999594
 31
0.0
  0
LINE
  5
135
100
AcDbEntity
  8
TRMODEL1
  6
CONTINUOUS
 62
     7
100
AcDbLine
 10
-0.3937
 20
2.1558
 30
0.0
 11
-0.4333
 21
2.1558
 31
0.0
  0
ARC
  5
136
100
AcDbEntity
  8
TRMODEL1
  6
CONTINUOUS
 62
     7
100
AcDbCircle
 10
-0.4333
 20
2.2443
 30
0.0
 40
0.0885
100
AcDbArc
 50
180.0
 51
270.0
  0
LINE
  5
137
100
AcDbEntity
  8
TRMODEL1
  6
CONTINUOUS
 62
     7
100
AcDbLine
 10
-0.5218
 20
2.2443
 30
0.0
 11
-0.5218
 21
2.32304
 31
0.0
  0
ARC
  5
138
100
AcDbEntity
  8
TRMODEL1
  6
CONTINUOUS
 62
     7
100
AcDbCircle
 10
-0.4333
 20
2.32304
 30
0.0
 40
0.0885
100
AcDbArc
 50
0.0
 51
180.0
  0
LINE
  5
139
100
AcDbEntity
  8
TRMODEL1
  6
CONTINUOUS
 62
     7
100
AcDbLine
 10
-0.3448
 20
2.32304
 30
0.0
 11
-0.3448
 21
2.318063
 31
0.0
  0
ARC
  5
13A
100
AcDbEntity
  8
TRMODEL1
  6
CONTINUOUS
 62
     7
100
AcDbCircle
 10
-0.3937
 20
2.2443
 30
0.0
 40
0.0885
100
AcDbArc
 50
270.0
 51
56.458394
  0
CIRCLE
  5
13B
100
AcDbEntity
  8
TRMODEL1
  6
CONTINUOUS
 62
     7
100
AcDbCircle
 10
0.0
 20
2.231748
 30
0.0
 40
0.075
  0
LINE
  5
13C
100
AcDbEntity
  8
TRMODEL1
  6
CONTINUOUS
 62
     7
100
AcDbLine
 10
0.221958
 20
2.049552
 30
0.0
 11
0.07148
 21
2.412457
 31
0.0
  0
ARC
  5
13D
100
AcDbEntity
  8
TRMODEL1
  6
CONTINUOUS
 62
     7
100
AcDbCircle
 10
0.0
 20
2.382817
 30
0.0
 40
0.077381
100
AcDbArc
 50
22.521255
 51
90.0
  0
ARC
  5
13E
100
AcDbEntity
  8
TRMODEL1
  6
CONTINUOUS
 62
     7
100
AcDbCircle
 10
0.0
 20
2.382817
 30
0.0
 40
0.077381
100
AcDbArc
 50
90.0
 51
157.478745
  0
LINE
  5
13F
100
AcDbEntity
  8
TRMODEL1
  6
CONTINUOUS
 62
     7
100
AcDbLine
 10
-0.07148
 20
2.412457
 30
0.0
 11
-0.221958
 21
2.049552
 31
0.0
  0
ARC
  5
140
100
AcDbEntity
  8
TRMODEL1
  6
CONTINUOUS
 62
     7
100
AcDbCircle
 10
0.0
 20
-0.992138
 30
0.0
 40
3.049778
100
AcDbArc
 50
78.452603
 51
101.547397
  0
LINE
  5
141
100
AcDbEntity
  8
TRMODEL1
  6
CONTINUOUS
 62
     7
100
AcDbLine
 10
-0.6105
 20
1.995911
 30
0.0
 11
-0.6105
 21
0.0
 31
0.0
  0
LINE
  5
142
100
AcDbEntity
  8
TRMODEL1
  6
CONTINUOUS
 62
     7
100
AcDbLine
 10
0.6105
 20
0.0
 30
0.0
 11
-0.6105
 21
0.0
 31
0.0
  0
LINE
  5
143
100
AcDbEntity
  8
TRMODEL1
  6
CONTINUOUS
 62
     7
100
AcDbLine
 10
0.6105
 20
1.995911
 30
0.0
 11
0.6105
 21
0.0
 31
0.0
  0
LINE
  5
144
100
AcDbEntity
  8
TRMODEL1
  6
CONTINUOUS
 62
     7
100
AcDbLine
 10
-0.057087
 20
3.273838
 30
0.0
 11
-0.057087
 21
3.193915
 31
0.0
  0
LINE
  5
145
100
AcDbEntity
  8
TRMODEL1
  6
CONTINUOUS
 62
     7
100
AcDbLine
 10
0.057087
 20
3.273838
 30
0.0
 11
0.057087
 21
3.193915
 31
0.0
  0
LINE
  5
146
100
AcDbEntity
  8
TRMODEL1
  6
CONTINUOUS
 62
     7
100
AcDbLine
 10
-0.057087
 20
3.273838
 30
0.0
 11
0.057087
 21
3.273838
 31
0.0
  0
LINE
  5
147
100
AcDbEntity
  8
TRMODEL1
  6
CONTINUOUS
 62
     7
100
AcDbLine
 10
0.24051
 20
3.169926
 30
0.0
 11
0.238991
 21
3.17069
 31
0.0
  0
LINE
  5
148
100
AcDbEntity
  8
TRMODEL1
  6
CONTINUOUS
 62
     7
100
AcDbLine
 10
0.238991
 20
3.17069
 30
0.0
 11
0.237482
 21
3.171448
 31
0.0
  0
LINE
  5
149
100
AcDbEntity
  8
TRMODEL1
  6
CONTINUOUS
 62
     7
100
AcDbLine
 10
0.237482
 20
3.171448
 30
0.0
 11
0.235982
 21
3.172202
 31
0.0
  0
LINE
  5
14A
100
AcDbEntity
  8
TRMODEL1
  6
CONTINUOUS
 62
     7
100
AcDbLine
 10
0.235982
 20
3.172202
 30
0.0
 11
0.234491
 21
3.17295
 31
0.0
  0
LINE
  5
14B
100
AcDbEntity
  8
TRMODEL1
  6
CONTINUOUS
 62
     7
100
AcDbLine
 10
0.234491
 20
3.17295
 30
0.0
 11
0.233009
 21
3.173694
 31
0.0
  0
LINE
  5
14C
100
AcDbEntity
  8
TRMODEL1
  6
CONTINUOUS
 62
     7
100
AcDbLine
 10
0.233009
 20
3.173694
 30
0.0
 11
0.231536
 21
3.174432
 31
0.0
  0
LINE
  5
14D
100
AcDbEntity
  8
TRMODEL1
  6
CONTINUOUS
 62
     7
100
AcDbLine
 10
0.231536
 20
3.174432
 30
0.0
 11
0.230072
 21
3.175166
 31
0.0
  0
LINE
  5
14E
100
AcDbEntity
  8
TRMODEL1
  6
CONTINUOUS
 62
     7
100
AcDbLine
 10
0.230072
 20
3.175166
 30
0.0
 11
0.228617
 21
3.175895
 31
0.0
  0
LINE
  5
14F
100
AcDbEntity
  8
TRMODEL1
  6
CONTINUOUS
 62
     7
100
AcDbLine
 10
0.228617
 20
3.175895
 30
0.0
 11
0.22717
 21
3.176619
 31
0.0
  0
LINE
  5
150
100
AcDbEntity
  8
TRMODEL1
  6
CONTINUOUS
 62
     7
100
AcDbLine
 10
0.22717
 20
3.176619
 30
0.0
 11
0.225731
 21
3.177339
 31
0.0
  0
LINE
  5
151
100
AcDbEntity
  8
TRMODEL1
  6
CONTINUOUS
 62
     7
100
AcDbLine
 10
0.225731
 20
3.177339
 30
0.0
 11
0.224301
 21
3.178054
 31
0.0
  0
LINE
  5
152
100
AcDbEntity
  8
TRMODEL1
  6
CONTINUOUS
 62
     7
100
AcDbLine
 10
0.224301
 20
3.178054
 30
0.0
 11
0.22288
 21
3.178764
 31
0.0
  0
LINE
  5
153
100
AcDbEntity
  8
TRMODEL1
  6
CONTINUOUS
 62
     7
100
AcDbLine
 10
0.22288
 20
3.178764
 30
0.0
 11
0.221466
 21
3.17947
 31
0.0
  0
LINE
  5
154
100
AcDbEntity
  8
TRMODEL1
  6
CONTINUOUS
 62
     7
100
AcDbLine
 10
0.221466
 20
3.17947
 30
0.0
 11
0.220061
 21
3.180171
 31
0.0
  0
LINE
  5
155
100
AcDbEntity
  8
TRMODEL1
  6
CONTINUOUS
 62
     7
100
AcDbLine
 10
0.220061
 20
3.180171
 30
0.0
 11
0.218664
 21
3.180868
 31
0.0
  0
LINE
  5
156
100
AcDbEntity
  8
TRMODEL1
  6
CONTINUOUS
 62
     7
100
AcDbLine
 10
0.218664
 20
3.180868
 30
0.0
 11
0.217276
 21
3.18156
 31
0.0
  0
LINE
  5
157
100
AcDbEntity
  8
TRMODEL1
  6
CONTINUOUS
 62
     7
100
AcDbLine
 10
0.217276
 20
3.18156
 30
0.0
 11
0.215895
 21
3.182248
 31
0.0
  0
LINE
  5
158
100
AcDbEntity
  8
TRMODEL1
  6
CONTINUOUS
 62
     7
100
AcDbLine
 10
0.215895
 20
3.182248
 30
0.0
 11
0.214522
 21
3.182931
 31
0.0
  0
LINE
  5
159
100
AcDbEntity
  8
TRMODEL1
  6
CONTINUOUS
 62
     7
100
AcDbLine
 10
0.214522
 20
3.182931
 30
0.0
 11
0.213157
 21
3.183611
 31
0.0
  0
LINE
  5
15A
100
AcDbEntity
  8
TRMODEL1
  6
CONTINUOUS
 62
     7
100
AcDbLine
 10
0.213157
 20
3.183611
 30
0.0
 11
0.211799
 21
3.184285
 31
0.0
  0
LINE
  5
15B
100
AcDbEntity
  8
TRMODEL1
  6
CONTINUOUS
 62
     7
100
AcDbLine
 10
0.211799
 20
3.184285
 30
0.0
 11
0.21045
 21
3.184956
 31
0.0
  0
LINE
  5
15C
100
AcDbEntity
  8
TRMODEL1
  6
CONTINUOUS
 62
     7
100
AcDbLine
 10
0.21045
 20
3.184956
 30
0.0
 11
0.209108
 21
3.185622
 31
0.0
  0
LINE
  5
15D
100
AcDbEntity
  8
TRMODEL1
  6
CONTINUOUS
 62
     7
100
AcDbLine
 10
0.209108
 20
3.185622
 30
0.0
 11
0.207773
 21
3.186284
 31
0.0
  0
LINE
  5
15E
100
AcDbEntity
  8
TRMODEL1
  6
CONTINUOUS
 62
     7
100
AcDbLine
 10
0.207773
 20
3.186284
 30
0.0
 11
0.206446
 21
3.186942
 31
0.0
  0
LINE
  5
15F
100
AcDbEntity
  8
TRMODEL1
  6
CONTINUOUS
 62
     7
100
AcDbLine
 10
0.206446
 20
3.186942
 30
0.0
 11
0.205126
 21
3.187596
 31
0.0
  0
LINE
  5
160
100
AcDbEntity
  8
TRMODEL1
  6
CONTINUOUS
 62
     7
100
AcDbLine
 10
0.205126
 20
3.187596
 30
0.0
 11
0.203814
 21
3.188246
 31
0.0
  0
LINE
  5
161
100
AcDbEntity
  8
TRMODEL1
  6
CONTINUOUS
 62
     7
100
AcDbLine
 10
0.203814
 20
3.188246
 30
0.0
 11
0.202509
 21
3.188892
 31
0.0
  0
LINE
  5
162
100
AcDbEntity
  8
TRMODEL1
  6
CONTINUOUS
 62
     7
100
AcDbLine
 10
0.202509
 20
3.188892
 30
0.0
 11
0.201211
 21
3.189533
 31
0.0
  0
LINE
  5
163
100
AcDbEntity
  8
TRMODEL1
  6
CONTINUOUS
 62
     7
100
AcDbLine
 10
0.201211
 20
3.189533
 30
0.0
 11
0.19992
 21
3.190171
 31
0.0
  0
LINE
  5
164
100
AcDbEntity
  8
TRMODEL1
  6
CONTINUOUS
 62
     7
100
AcDbLine
 10
0.19992
 20
3.190171
 30
0.0
 11
0.198636
 21
3.190805
 31
0.0
  0
LINE
  5
165
100
AcDbEntity
  8
TRMODEL1
  6
CONTINUOUS
 62
     7
100
AcDbLine
 10
0.198636
 20
3.190805
 30
0.0
 11
0.19736
 21
3.191434
 31
0.0
  0
LINE
  5
166
100
AcDbEntity
  8
TRMODEL1
  6
CONTINUOUS
 62
     7
100
AcDbLine
 10
0.19736
 20
3.191434
 30
0.0
 11
0.19609
 21
3.19206
 31
0.0
  0
LINE
  5
167
100
AcDbEntity
  8
TRMODEL1
  6
CONTINUOUS
 62
     7
100
AcDbLine
 10
0.19609
 20
3.19206
 30
0.0
 11
0.194827
 21
3.192682
 31
0.0
  0
LINE
  5
168
100
AcDbEntity
  8
TRMODEL1
  6
CONTINUOUS
 62
     7
100
AcDbLine
 10
0.194827
 20
3.192682
 30
0.0
 11
0.193571
 21
3.193301
 31
0.0
  0
LINE
  5
169
100
AcDbEntity
  8
TRMODEL1
  6
CONTINUOUS
 62
     7
100
AcDbLine
 10
0.193571
 20
3.193301
 30
0.0
 11
0.192321
 21
3.193915
 31
0.0
  0
LINE
  5
16A
100
AcDbEntity
  8
TRMODEL1
  6
CONTINUOUS
 62
     7
100
AcDbLine
 10
0.24051
 20
2.829909
 30
0.0
 11
0.24051
 21
3.169926
 31
0.0
  0
LINE
  5
16B
100
AcDbEntity
  8
TRMODEL1
  6
CONTINUOUS
 62
     7
100
AcDbLine
 10
-0.24051
 20
3.169926
 30
0.0
 11
-0.24051
 21
2.829909
 31
0.0
  0
LINE
  5
16C
100
AcDbEntity
  8
TRMODEL1
  6
CONTINUOUS
 62
     7
100
AcDbLine
 10
-0.192321
 20
3.193915
 30
0.0
 11
-0.193571
 21
3.193301
 31
0.0
  0
LINE
  5
16D
100
AcDbEntity
  8
TRMODEL1
  6
CONTINUOUS
 62
     7
100
AcDbLine
 10
-0.193571
 20
3.193301
 30
0.0
 11
-0.194827
 21
3.192682
 31
0.0
  0
LINE
  5
16E
100
AcDbEntity
  8
TRMODEL1
  6
CONTINUOUS
 62
     7
100
AcDbLine
 10
-0.194827
 20
3.192682
 30
0.0
 11
-0.19609
 21
3.19206
 31
0.0
  0
LINE
  5
16F
100
AcDbEntity
  8
TRMODEL1
  6
CONTINUOUS
 62
     7
100
AcDbLine
 10
-0.19609
 20
3.19206
 30
0.0
 11
-0.19736
 21
3.191434
 31
0.0
  0
LINE
  5
170
100
AcDbEntity
  8
TRMODEL1
  6
CONTINUOUS
 62
     7
100
AcDbLine
 10
-0.19736
 20
3.191434
 30
0.0
 11
-0.198636
 21
3.190805
 31
0.0
  0
LINE
  5
171
100
AcDbEntity
  8
TRMODEL1
  6
CONTINUOUS
 62
     7
100
AcDbLine
 10
-0.198636
 20
3.190805
 30
0.0
 11
-0.19992
 21
3.190171
 31
0.0
  0
LINE
  5
172
100
AcDbEntity
  8
TRMODEL1
  6
CONTINUOUS
 62
     7
100
AcDbLine
 10
-0.19992
 20
3.190171
 30
0.0
 11
-0.201211
 21
3.189533
 31
0.0
  0
LINE
  5
173
100
AcDbEntity
  8
TRMODEL1
  6
CONTINUOUS
 62
     7
100
AcDbLine
 10
-0.201211
 20
3.189533
 30
0.0
 11
-0.202509
 21
3.188892
 31
0.0
  0
LINE
  5
174
100
AcDbEntity
  8
TRMODEL1
  6
CONTINUOUS
 62
     7
100
AcDbLine
 10
-0.202509
 20
3.188892
 30
0.0
 11
-0.203814
 21
3.188246
 31
0.0
  0
LINE
  5
175
100
AcDbEntity
  8
TRMODEL1
  6
CONTINUOUS
 62
     7
100
AcDbLine
 10
-0.203814
 20
3.188246
 30
0.0
 11
-0.205126
 21
3.187596
 31
0.0
  0
LINE
  5
176
100
AcDbEntity
  8
TRMODEL1
  6
CONTINUOUS
 62
     7
100
AcDbLine
 10
-0.205126
 20
3.187596
 30
0.0
 11
-0.206446
 21
3.186942
 31
0.0
  0
LINE
  5
177
100
AcDbEntity
  8
TRMODEL1
  6
CONTINUOUS
 62
     7
100
AcDbLine
 10
-0.206446
 20
3.186942
 30
0.0
 11
-0.207773
 21
3.186284
 31
0.0
  0
LINE
  5
178
100
AcDbEntity
  8
TRMODEL1
  6
CONTINUOUS
 62
     7
100
AcDbLine
 10
-0.207773
 20
3.186284
 30
0.0
 11
-0.209108
 21
3.185622
 31
0.0
  0
LINE
  5
179
100
AcDbEntity
  8
TRMODEL1
  6
CONTINUOUS
 62
     7
100
AcDbLine
 10
-0.209108
 20
3.185622
 30
0.0
 11
-0.21045
 21
3.184956
 31
0.0
  0
LINE
  5
17A
100
AcDbEntity
  8
TRMODEL1
  6
CONTINUOUS
 62
     7
100
AcDbLine
 10
-0.21045
 20
3.184956
 30
0.0
 11
-0.211799
 21
3.184285
 31
0.0
  0
LINE
  5
17B
100
AcDbEntity
  8
TRMODEL1
  6
CONTINUOUS
 62
     7
100
AcDbLine
 10
-0.211799
 20
3.184285
 30
0.0
 11
-0.213157
 21
3.183611
 31
0.0
  0
LINE
  5
17C
100
AcDbEntity
  8
TRMODEL1
  6
CONTINUOUS
 62
     7
100
AcDbLine
 10
-0.213157
 20
3.183611
 30
0.0
 11
-0.214522
 21
3.182931
 31
0.0
  0
LINE
  5
17D
100
AcDbEntity
  8
TRMODEL1
  6
CONTINUOUS
 62
     7
100
AcDbLine
 10
-0.214522
 20
3.182931
 30
0.0
 11
-0.215895
 21
3.182248
 31
0.0
  0
LINE
  5
17E
100
AcDbEntity
  8
TRMODEL1
  6
CONTINUOUS
 62
     7
100
AcDbLine
 10
-0.215895
 20
3.182248
 30
0.0
 11
-0.217276
 21
3.18156
 31
0.0
  0
LINE
  5
17F
100
AcDbEntity
  8
TRMODEL1
  6
CONTINUOUS
 62
     7
100
AcDbLine
 10
-0.217276
 20
3.18156
 30
0.0
 11
-0.218664
 21
3.180868
 31
0.0
  0
LINE
  5
180
100
AcDbEntity
  8
TRMODEL1
  6
CONTINUOUS
 62
     7
100
AcDbLine
 10
-0.218664
 20
3.180868
 30
0.0
 11
-0.220061
 21
3.180171
 31
0.0
  0
LINE
  5
181
100
AcDbEntity
  8
TRMODEL1
  6
CONTINUOUS
 62
     7
100
AcDbLine
 10
-0.220061
 20
3.180171
 30
0.0
 11
-0.221466
 21
3.17947
 31
0.0
  0
LINE
  5
182
100
AcDbEntity
  8
TRMODEL1
  6
CONTINUOUS
 62
     7
100
AcDbLine
 10
-0.221466
 20
3.17947
 30
0.0
 11
-0.22288
 21
3.178764
 31
0.0
  0
LINE
  5
183
100
AcDbEntity
  8
TRMODEL1
  6
CONTINUOUS
 62
     7
100
AcDbLine
 10
-0.22288
 20
3.178764
 30
0.0
 11
-0.224301
 21
3.178054
 31
0.0
  0
LINE
  5
184
100
AcDbEntity
  8
TRMODEL1
  6
CONTINUOUS
 62
     7
100
AcDbLine
 10
-0.224301
 20
3.178054
 30
0.0
 11
-0.225731
 21
3.177339
 31
0.0
  0
LINE
  5
185
100
AcDbEntity
  8
TRMODEL1
  6
CONTINUOUS
 62
     7
100
AcDbLine
 10
-0.225731
 20
3.177339
 30
0.0
 11
-0.22717
 21
3.176619
 31
0.0
  0
LINE
  5
186
100
AcDbEntity
  8
TRMODEL1
  6
CONTINUOUS
 62
     7
100
AcDbLine
 10
-0.22717
 20
3.176619
 30
0.0
 11
-0.228617
 21
3.175895
 31
0.0
  0
LINE
  5
187
100
AcDbEntity
  8
TRMODEL1
  6
CONTINUOUS
 62
     7
100
AcDbLine
 10
-0.228617
 20
3.175895
 30
0.0
 11
-0.230072
 21
3.175166
 31
0.0
  0
LINE
  5
188
100
AcDbEntity
  8
TRMODEL1
  6
CONTINUOUS
 62
     7
100
AcDbLine
 10
-0.230072
 20
3.175166
 30
0.0
 11
-0.231536
 21
3.174432
 31
0.0
  0
LINE
  5
189
100
AcDbEntity
  8
TRMODEL1
  6
CONTINUOUS
 62
     7
100
AcDbLine
 10
-0.231536
 20
3.174432
 30
0.0
 11
-0.233009
 21
3.173694
 31
0.0
  0
LINE
  5
18A
100
AcDbEntity
  8
TRMODEL1
  6
CONTINUOUS
 62
     7
100
AcDbLine
 10
-0.233009
 20
3.173694
 30
0.0
 11
-0.234491
 21
3.17295
 31
0.0
  0
LINE
  5
18B
100
AcDbEntity
  8
TRMODEL1
  6
CONTINUOUS
 62
     7
100
AcDbLine
 10
-0.234491
 20
3.17295
 30
0.0
 11
-0.235982
 21
3.172202
 31
0.0
  0
LINE
  5
18C
100
AcDbEntity
  8
TRMODEL1
  6
CONTINUOUS
 62
     7
100
AcDbLine
 10
-0.235982
 20
3.172202
 30
0.0
 11
-0.237482
 21
3.171448
 31
0.0
  0
LINE
  5
18D
100
AcDbEntity
  8
TRMODEL1
  6
CONTINUOUS
 62
     7
100
AcDbLine
 10
-0.237482
 20
3.171448
 30
0.0
 11
-0.238991
 21
3.17069
 31
0.0
  0
LINE
  5
18E
100
AcDbEntity
  8
TRMODEL1
  6
CONTINUOUS
 62
     7
100
AcDbLine
 10
-0.238991
 20
3.17069
 30
0.0
 11
-0.24051
 21
3.169926
 31
0.0
  0
LINE
  5
18F
100
AcDbEntity
  8
TRMODEL1
  6
CONTINUOUS
 62
     7
100
AcDbLine
 10
0.251185
 20
2.829909
 30
0.0
 11
0.24051
 21
2.829909
 31
0.0
  0
LINE
  5
190
100
AcDbEntity
  8
TRMODEL1
  6
CONTINUOUS
 62
     7
100
AcDbLine
 10
-0.24051
 20
2.829909
 30
0.0
 11
-0.251185
 21
2.829909
 31
0.0
  0
LINE
  5
191
100
AcDbEntity
  8
TRMODEL1
  6
CONTINUOUS
 62
     7
100
AcDbLine
 10
-0.24051
 20
3.169926
 30
0.0
 11
-0.240051
 21
3.170157
 31
0.0
  0
LINE
  5
192
100
AcDbEntity
  8
TRMODEL1
  6
CONTINUOUS
 62
     7
100
AcDbLine
 10
-0.240051
 20
3.170157
 30
0.0
 11
-0.239593
 21
3.170388
 31
0.0
  0
LINE
  5
193
100
AcDbEntity
  8
TRMODEL1
  6
CONTINUOUS
 62
     7
100
AcDbLine
 10
-0.239593
 20
3.170388
 30
0.0
 11
-0.239135
 21
3.170617
 31
0.0
  0
LINE
  5
194
100
AcDbEntity
  8
TRMODEL1
  6
CONTINUOUS
 62
     7
100
AcDbLine
 10
-0.239135
 20
3.170617
 30
0.0
 11
-0.238679
 21
3.170847
 31
0.0
  0
LINE
  5
195
100
AcDbEntity
  8
TRMODEL1
  6
CONTINUOUS
 62
     7
100
AcDbLine
 10
-0.238679
 20
3.170847
 30
0.0
 11
-0.238224
 21
3.171076
 31
0.0
  0
LINE
  5
196
100
AcDbEntity
  8
TRMODEL1
  6
CONTINUOUS
 62
     7
100
AcDbLine
 10
-0.238224
 20
3.171076
 30
0.0
 11
-0.237769
 21
3.171304
 31
0.0
  0
LINE
  5
197
100
AcDbEntity
  8
TRMODEL1
  6
CONTINUOUS
 62
     7
100
AcDbLine
 10
-0.237769
 20
3.171304
 30
0.0
 11
-0.237315
 21
3.171532
 31
0.0
  0
LINE
  5
198
100
AcDbEntity
  8
TRMODEL1
  6
CONTINUOUS
 62
     7
100
AcDbLine
 10
-0.237315
 20
3.171532
 30
0.0
 11
-0.236862
 21
3.17176
 31
0.0
  0
LINE
  5
199
100
AcDbEntity
  8
TRMODEL1
  6
CONTINUOUS
 62
     7
100
AcDbLine
 10
-0.236862
 20
3.17176
 30
0.0
 11
-0.23641
 21
3.171987
 31
0.0
  0
LINE
  5
19A
100
AcDbEntity
  8
TRMODEL1
  6
CONTINUOUS
 62
     7
100
AcDbLine
 10
-0.23641
 20
3.171987
 30
0.0
 11
-0.235958
 21
3.172214
 31
0.0
  0
LINE
  5
19B
100
AcDbEntity
  8
TRMODEL1
  6
CONTINUOUS
 62
     7
100
AcDbLine
 10
-0.235958
 20
3.172214
 30
0.0
 11
-0.235508
 21
3.17244
 31
0.0
  0
LINE
  5
19C
100
AcDbEntity
  8
TRMODEL1
  6
CONTINUOUS
 62
     7
100
AcDbLine
 10
-0.235508
 20
3.17244
 30
0.0
 11
-0.235058
 21
3.172666
 31
0.0
  0
LINE
  5
19D
100
AcDbEntity
  8
TRMODEL1
  6
CONTINUOUS
 62
     7
100
AcDbLine
 10
-0.235058
 20
3.172666
 30
0.0
 11
-0.234609
 21
3.172891
 31
0.0
  0
LINE
  5
19E
100
AcDbEntity
  8
TRMODEL1
  6
CONTINUOUS
 62
     7
100
AcDbLine
 10
-0.234609
 20
3.172891
 30
0.0
 11
-0.234161
 21
3.173116
 31
0.0
  0
LINE
  5
19F
100
AcDbEntity
  8
TRMODEL1
  6
CONTINUOUS
 62
     7
100
AcDbLine
 10
-0.234161
 20
3.173116
 30
0.0
 11
-0.233714
 21
3.17334
 31
0.0
  0
LINE
  5
1A0
100
AcDbEntity
  8
TRMODEL1
  6
CONTINUOUS
 62
     7
100
AcDbLine
 10
-0.233714
 20
3.17334
 30
0.0
 11
-0.233267
 21
3.173564
 31
0.0
  0
LINE
  5
1A1
100
AcDbEntity
  8
TRMODEL1
  6
CONTINUOUS
 62
     7
100
AcDbLine
 10
-0.233267
 20
3.173564
 30
0.0
 11
-0.232822
 21
3.173788
 31
0.0
  0
LINE
  5
1A2
100
AcDbEntity
  8
TRMODEL1
  6
CONTINUOUS
 62
     7
100
AcDbLine
 10
-0.232822
 20
3.173788
 30
0.0
 11
-0.232377
 21
3.174011
 31
0.0
  0
LINE
  5
1A3
100
AcDbEntity
  8
TRMODEL1
  6
CONTINUOUS
 62
     7
100
AcDbLine
 10
-0.232377
 20
3.174011
 30
0.0
 11
-0.231933
 21
3.174233
 31
0.0
  0
LINE
  5
1A4
100
AcDbEntity
  8
TRMODEL1
  6
CONTINUOUS
 62
     7
100
AcDbLine
 10
-0.231933
 20
3.174233
 30
0.0
 11
-0.231489
 21
3.174456
 31
0.0
  0
LINE
  5
1A5
100
AcDbEntity
  8
TRMODEL1
  6
CONTINUOUS
 62
     7
100
AcDbLine
 10
-0.231489
 20
3.174456
 30
0.0
 11
-0.231047
 21
3.174677
 31
0.0
  0
LINE
  5
1A6
100
AcDbEntity
  8
TRMODEL1
  6
CONTINUOUS
 62
     7
100
AcDbLine
 10
-0.231047
 20
3.174677
 30
0.0
 11
-0.230605
 21
3.174899
 31
0.0
  0
LINE
  5
1A7
100
AcDbEntity
  8
TRMODEL1
  6
CONTINUOUS
 62
     7
100
AcDbLine
 10
-0.230605
 20
3.174899
 30
0.0
 11
-0.230164
 21
3.17512
 31
0.0
  0
LINE
  5
1A8
100
AcDbEntity
  8
TRMODEL1
  6
CONTINUOUS
 62
     7
100
AcDbLine
 10
-0.230164
 20
3.17512
 30
0.0
 11
-0.229724
 21
3.17534
 31
0.0
  0
LINE
  5
1A9
100
AcDbEntity
  8
TRMODEL1
  6
CONTINUOUS
 62
     7
100
AcDbLine
 10
-0.229724
 20
3.17534
 30
0.0
 11
-0.229285
 21
3.17556
 31
0.0
  0
LINE
  5
1AA
100
AcDbEntity
  8
TRMODEL1
  6
CONTINUOUS
 62
     7
100
AcDbLine
 10
-0.229285
 20
3.17556
 30
0.0
 11
-0.228847
 21
3.17578
 31
0.0
  0
LINE
  5
1AB
100
AcDbEntity
  8
TRMODEL1
  6
CONTINUOUS
 62
     7
100
AcDbLine
 10
-0.228847
 20
3.17578
 30
0.0
 11
-0.228409
 21
3.175999
 31
0.0
  0
LINE
  5
1AC
100
AcDbEntity
  8
TRMODEL1
  6
CONTINUOUS
 62
     7
100
AcDbLine
 10
-0.228409
 20
3.175999
 30
0.0
 11
-0.227972
 21
3.176218
 31
0.0
  0
LINE
  5
1AD
100
AcDbEntity
  8
TRMODEL1
  6
CONTINUOUS
 62
     7
100
AcDbLine
 10
-0.227972
 20
3.176218
 30
0.0
 11
-0.227536
 21
3.176436
 31
0.0
  0
LINE
  5
1AE
100
AcDbEntity
  8
TRMODEL1
  6
CONTINUOUS
 62
     7
100
AcDbLine
 10
-0.227536
 20
3.176436
 30
0.0
 11
-0.2271
 21
3.176654
 31
0.0
  0
LINE
  5
1AF
100
AcDbEntity
  8
TRMODEL1
  6
CONTINUOUS
 62
     7
100
AcDbLine
 10
-0.2271
 20
3.176654
 30
0.0
 11
-0.226666
 21
3.176871
 31
0.0
  0
LINE
  5
1B0
100
AcDbEntity
  8
TRMODEL1
  6
CONTINUOUS
 62
     7
100
AcDbLine
 10
-0.226666
 20
3.176871
 30
0.0
 11
-0.226232
 21
3.177088
 31
0.0
  0
LINE
  5
1B1
100
AcDbEntity
  8
TRMODEL1
  6
CONTINUOUS
 62
     7
100
AcDbLine
 10
-0.226232
 20
3.177088
 30
0.0
 11
-0.225799
 21
3.177305
 31
0.0
  0
LINE
  5
1B2
100
AcDbEntity
  8
TRMODEL1
  6
CONTINUOUS
 62
     7
100
AcDbLine
 10
-0.225799
 20
3.177305
 30
0.0
 11
-0.225367
 21
3.177521
 31
0.0
  0
LINE
  5
1B3
100
AcDbEntity
  8
TRMODEL1
  6
CONTINUOUS
 62
     7
100
AcDbLine
 10
-0.225367
 20
3.177521
 30
0.0
 11
-0.224935
 21
3.177737
 31
0.0
  0
LINE
  5
1B4
100
AcDbEntity
  8
TRMODEL1
  6
CONTINUOUS
 62
     7
100
AcDbLine
 10
0.224935
 20
3.177737
 30
0.0
 11
0.225367
 21
3.177521
 31
0.0
  0
LINE
  5
1B5
100
AcDbEntity
  8
TRMODEL1
  6
CONTINUOUS
 62
     7
100
AcDbLine
 10
0.225367
 20
3.177521
 30
0.0
 11
0.225799
 21
3.177305
 31
0.0
  0
LINE
  5
1B6
100
AcDbEntity
  8
TRMODEL1
  6
CONTINUOUS
 62
     7
100
AcDbLine
 10
0.225799
 20
3.177305
 30
0.0
 11
0.226232
 21
3.177088
 31
0.0
  0
LINE
  5
1B7
100
AcDbEntity
  8
TRMODEL1
  6
CONTINUOUS
 62
     7
100
AcDbLine
 10
0.226232
 20
3.177088
 30
0.0
 11
0.226666
 21
3.176871
 31
0.0
  0
LINE
  5
1B8
100
AcDbEntity
  8
TRMODEL1
  6
CONTINUOUS
 62
     7
100
AcDbLine
 10
0.226666
 20
3.176871
 30
0.0
 11
0.2271
 21
3.176654
 31
0.0
  0
LINE
  5
1B9
100
AcDbEntity
  8
TRMODEL1
  6
CONTINUOUS
 62
     7
100
AcDbLine
 10
0.2271
 20
3.176654
 30
0.0
 11
0.227536
 21
3.176436
 31
0.0
  0
LINE
  5
1BA
100
AcDbEntity
  8
TRMODEL1
  6
CONTINUOUS
 62
     7
100
AcDbLine
 10
0.227536
 20
3.176436
 30
0.0
 11
0.227972
 21
3.176218
 31
0.0
  0
LINE
  5
1BB
100
AcDbEntity
  8
TRMODEL1
  6
CONTINUOUS
 62
     7
100
AcDbLine
 10
0.227972
 20
3.176218
 30
0.0
 11
0.228409
 21
3.175999
 31
0.0
  0
LINE
  5
1BC
100
AcDbEntity
  8
TRMODEL1
  6
CONTINUOUS
 62
     7
100
AcDbLine
 10
0.228409
 20
3.175999
 30
0.0
 11
0.228847
 21
3.17578
 31
0.0
  0
LINE
  5
1BD
100
AcDbEntity
  8
TRMODEL1
  6
CONTINUOUS
 62
     7
100
AcDbLine
 10
0.228847
 20
3.17578
 30
0.0
 11
0.229285
 21
3.17556
 31
0.0
  0
LINE
  5
1BE
100
AcDbEntity
  8
TRMODEL1
  6
CONTINUOUS
 62
     7
100
AcDbLine
 10
0.229285
 20
3.17556
 30
0.0
 11
0.229724
 21
3.17534
 31
0.0
  0
LINE
  5
1BF
100
AcDbEntity
  8
TRMODEL1
  6
CONTINUOUS
 62
     7
100
AcDbLine
 10
0.229724
 20
3.17534
 30
0.0
 11
0.230164
 21
3.17512
 31
0.0
  0
LINE
  5
1C0
100
AcDbEntity
  8
TRMODEL1
  6
CONTINUOUS
 62
     7
100
AcDbLine
 10
0.230164
 20
3.17512
 30
0.0
 11
0.230605
 21
3.174899
 31
0.0
  0
LINE
  5
1C1
100
AcDbEntity
  8
TRMODEL1
  6
CONTINUOUS
 62
     7
100
AcDbLine
 10
0.230605
 20
3.174899
 30
0.0
 11
0.231047
 21
3.174677
 31
0.0
  0
LINE
  5
1C2
100
AcDbEntity
  8
TRMODEL1
  6
CONTINUOUS
 62
     7
100
AcDbLine
 10
0.231047
 20
3.174677
 30
0.0
 11
0.231489
 21
3.174456
 31
0.0
  0
LINE
  5
1C3
100
AcDbEntity
  8
TRMODEL1
  6
CONTINUOUS
 62
     7
100
AcDbLine
 10
0.231489
 20
3.174456
 30
0.0
 11
0.231933
 21
3.174233
 31
0.0
  0
LINE
  5
1C4
100
AcDbEntity
  8
TRMODEL1
  6
CONTINUOUS
 62
     7
100
AcDbLine
 10
0.231933
 20
3.174233
 30
0.0
 11
0.232377
 21
3.174011
 31
0.0
  0
LINE
  5
1C5
100
AcDbEntity
  8
TRMODEL1
  6
CONTINUOUS
 62
     7
100
AcDbLine
 10
0.232377
 20
3.174011
 30
0.0
 11
0.232822
 21
3.173788
 31
0.0
  0
LINE
  5
1C6
100
AcDbEntity
  8
TRMODEL1
  6
CONTINUOUS
 62
     7
100
AcDbLine
 10
0.232822
 20
3.173788
 30
0.0
 11
0.233267
 21
3.173564
 31
0.0
  0
LINE
  5
1C7
100
AcDbEntity
  8
TRMODEL1
  6
CONTINUOUS
 62
     7
100
AcDbLine
 10
0.233267
 20
3.173564
 30
0.0
 11
0.233714
 21
3.17334
 31
0.0
  0
LINE
  5
1C8
100
AcDbEntity
  8
TRMODEL1
  6
CONTINUOUS
 62
     7
100
AcDbLine
 10
0.233714
 20
3.17334
 30
0.0
 11
0.234161
 21
3.173116
 31
0.0
  0
LINE
  5
1C9
100
AcDbEntity
  8
TRMODEL1
  6
CONTINUOUS
 62
     7
100
AcDbLine
 10
0.234161
 20
3.173116
 30
0.0
 11
0.234609
 21
3.172891
 31
0.0
  0
LINE
  5
1CA
100
AcDbEntity
  8
TRMODEL1
  6
CONTINUOUS
 62
     7
100
AcDbLine
 10
0.234609
 20
3.172891
 30
0.0
 11
0.235058
 21
3.172666
 31
0.0
  0
LINE
  5
1CB
100
AcDbEntity
  8
TRMODEL1
  6
CONTINUOUS
 62
     7
100
AcDbLine
 10
0.235058
 20
3.172666
 30
0.0
 11
0.235508
 21
3.17244
 31
0.0
  0
LINE
  5
1CC
100
AcDbEntity
  8
TRMODEL1
  6
CONTINUOUS
 62
     7
100
AcDbLine
 10
0.235508
 20
3.17244
 30
0.0
 11
0.235958
 21
3.172214
 31
0.0
  0
LINE
  5
1CD
100
AcDbEntity
  8
TRMODEL1
  6
CONTINUOUS
 62
     7
100
AcDbLine
 10
0.235958
 20
3.172214
 30
0.0
 11
0.23641
 21
3.171987
 31
0.0
  0
LINE
  5
1CE
100
AcDbEntity
  8
TRMODEL1
  6
CONTINUOUS
 62
     7
100
AcDbLine
 10
0.23641
 20
3.171987
 30
0.0
 11
0.236862
 21
3.17176
 31
0.0
  0
LINE
  5
1CF
100
AcDbEntity
  8
TRMODEL1
  6
CONTINUOUS
 62
     7
100
AcDbLine
 10
0.236862
 20
3.17176
 30
0.0
 11
0.237315
 21
3.171532
 31
0.0
  0
LINE
  5
1D0
100
AcDbEntity
  8
TRMODEL1
  6
CONTINUOUS
 62
     7
100
AcDbLine
 10
0.237315
 20
3.171532
 30
0.0
 11
0.237769
 21
3.171304
 31
0.0
  0
LINE
  5
1D1
100
AcDbEntity
  8
TRMODEL1
  6
CONTINUOUS
 62
     7
100
AcDbLine
 10
0.237769
 20
3.171304
 30
0.0
 11
0.238224
 21
3.171076
 31
0.0
  0
LINE
  5
1D2
100
AcDbEntity
  8
TRMODEL1
  6
CONTINUOUS
 62
     7
100
AcDbLine
 10
0.238224
 20
3.171076
 30
0.0
 11
0.238679
 21
3.170847
 31
0.0
  0
LINE
  5
1D3
100
AcDbEntity
  8
TRMODEL1
  6
CONTINUOUS
 62
     7
100
AcDbLine
 10
0.238679
 20
3.170847
 30
0.0
 11
0.239135
 21
3.170617
 31
0.0
  0
LINE
  5
1D4
100
AcDbEntity
  8
TRMODEL1
  6
CONTINUOUS
 62
     7
100
AcDbLine
 10
0.239135
 20
3.170617
 30
0.0
 11
0.239593
 21
3.170388
 31
0.0
  0
LINE
  5
1D5
100
AcDbEntity
  8
TRMODEL1
  6
CONTINUOUS
 62
     7
100
AcDbLine
 10
0.239593
 20
3.170388
 30
0.0
 11
0.240051
 21
3.170157
 31
0.0
  0
LINE
  5
1D6
100
AcDbEntity
  8
TRMODEL1
  6
CONTINUOUS
 62
     7
100
AcDbLine
 10
0.240051
 20
3.170157
 30
0.0
 11
0.24051
 21
3.169926
 31
0.0
  0
LINE
  5
1D7
100
AcDbEntity
  8
TRMODEL1
  6
CONTINUOUS
 62
     7
100
AcDbLine
 10
0.192321
 20
3.193915
 30
0.0
 11
-0.192321
 21
3.193915
 31
0.0
  0
LINE
  5
1D8
100
AcDbEntity
  8
TRMODEL1
  6
CONTINUOUS
 62
     7
100
AcDbLine
 10
0.24051
 20
3.169926
 30
0.0
 11
-0.24051
 21
3.169926
 31
0.0
  0
LINE
  5
1D9
100
AcDbEntity
  8
TRMODEL1
  6
CONTINUOUS
 62
     7
100
AcDbLine
 10
0.325399
 20
2.736978
 30
0.0
 11
-0.325399
 21
2.736978
 31
0.0
  0
LINE
  5
1DA
100
AcDbEntity
  8
TRMODEL1
  6
CONTINUOUS
 62
     7
100
AcDbLine
 10
0.342525
 20
2.71938
 30
0.0
 11
-0.342525
 21
2.71938
 31
0.0
  0
ARC
  5
1DB
100
AcDbEntity
  8
TRMODEL1
  6
CONTINUOUS
 62
     7
100
AcDbCircle
 10
0.0
 20
3.21675
 30
0.0
 40
0.22835
100
AcDbArc
 50
0.0
 51
189.843488
  0
ARC
  5
1DC
100
AcDbEntity
  8
TRMODEL1
  6
CONTINUOUS
 62
     7
100
AcDbCircle
 10
0.0
 20
3.21675
 30
0.0
 40
0.22835
100
AcDbArc
 50
350.156512
 51
0.0
  0
LINE
  5
1DD
100
AcDbEntity
  8
TRMODEL1
  6
CONTINUOUS
 62
     7
100
AcDbLine
 10
0.251185
 20
2.736978
 30
0.0
 11
0.251185
 21
2.829909
 31
0.0
  0
LINE
  5
1DE
100
AcDbEntity
  8
TRMODEL1
  6
CONTINUOUS
 62
     7
100
AcDbLine
 10
-0.251185
 20
2.829909
 30
0.0
 11
-0.251185
 21
2.736978
 31
0.0
  0
LINE
  5
1DF
100
AcDbEntity
  8
TRMODEL1
  6
CONTINUOUS
 62
     7
100
AcDbLine
 10
0.342525
 20
2.71938
 30
0.0
 11
0.325399
 21
2.736978
 31
0.0
  0
LINE
  5
1E0
100
AcDbEntity
  8
TRMODEL1
  6
CONTINUOUS
 62
     7
100
AcDbLine
 10
-0.325399
 20
2.736978
 30
0.0
 11
-0.342525
 21
2.71938
 31
0.0
  0
LINE
  5
1E1
100
AcDbEntity
  8
TRMODEL1
  6
CONTINUOUS
 62
     7
100
AcDbLine
 10
0.342525
 20
2.620442
 30
0.0
 11
0.342525
 21
2.71938
 31
0.0
  0
LINE
  5
1E2
100
AcDbEntity
  8
TRMODEL1
  6
CONTINUOUS
 62
     7
100
AcDbLine
 10
-0.342525
 20
2.71938
 30
0.0
 11
-0.342525
 21
2.620442
 31
0.0
  0
LINE
  5
1E3
100
AcDbEntity
  8
TRDETAIL3
  6
CENTER2
 62
     4
100
AcDbLine
 10
-0.5395
 20
2.2443
 30
0.0
 11
-0.2875
 21
2.2443
 31
0.0
  0
LINE
  5
1E4
100
AcDbEntity
  8
TRDETAIL3
  6
CENTER2
 62
     4
100
AcDbLine
 10
-0.4333
 20
2.1381
 30
0.0
 11
-0.4333
 21
2.42924
 31
0.0
  0
LINE
  5
1E5
100
AcDbEntity
  8
TRDETAIL3
  6
CENTER2
 62
     4
100
AcDbLine
 10
0.2875
 20
2.2443
 30
0.0
 11
0.5395
 21
2.2443
 31
0.0
  0
LINE
  5
1E6
100
AcDbEntity
  8
TRDETAIL3
  6
CENTER2
 62
     4
100
AcDbLine
 10
0.4333
 20
2.1381
 30
0.0
 11
0.4333
 21
2.42924
 31
0.0
  0
LINE
  5
1E7
100
AcDbEntity
  8
TRDETAIL3
  6
CENTER2
 62
     4
100
AcDbLine
 10
-0.5395
 20
2.32304
 30
0.0
 11
-0.3271
 21
2.32304
 31
0.0
  0
LINE
  5
1E8
100
AcDbEntity
  8
TRDETAIL3
  6
CENTER2
 62
     4
100
AcDbLine
 10
0.3271
 20
2.32304
 30
0.0
 11
0.5395
 21
2.32304
 31
0.0
  0
LINE
  5
1E9
100
AcDbEntity
  8
TRDETAIL3
  6
CENTER2
 62
     4
100
AcDbLine
 10
-0.3937
 20
2.3505
 30
0.0
 11
-0.3937
 21
2.1381
 31
0.0
  0
LINE
  5
1EA
100
AcDbEntity
  8
TRDETAIL3
  6
CENTER2
 62
     4
100
AcDbLine
 10
0.3937
 20
2.3505
 30
0.0
 11
0.3937
 21
2.1381
 31
0.0
  0
LINE
  5
1EB
100
AcDbEntity
  8
TRDETAIL3
  6
CENTER2
 62
     4
100
AcDbLine
 10
0.0
 20
-0.031496
 30
0.0
 11
0.0
 21
0.346457
 31
0.0
  0
LINE
  5
1EC
100
AcDbEntity
  8
TRDETAIL3
  6
CENTER2
 62
     4
100
AcDbLine
 10
0.0
 20
2.543402
 30
0.0
 11
0.0
 21
3.49077
 31
0.0
  0
LINE
  5
1ED
100
AcDbEntity
  8
TRDETAIL3
  6
CENTER2
 62
     4
100
AcDbLine
 10
-0.27402
 20
3.21675
 30
0.0
 11
0.27402
 21
3.21675
 31
0.0
  0
ENDSEC
  0
SECTION
  2
OBJECTS
  0
DICTIONARY
  5
19
100
AcDbDictionary
  3
ACAD_GROUP
350
1A
  3
ACAD_MLINESTYLE
350
1B
  0
DICTIONARY
  5
1A
102
{ACAD_REACTORS
330
19
102
}
100
AcDbDictionary
  0
DICTIONARY
  5
1B
102
{ACAD_REACTORS
330
19
102
}
100
AcDbDictionary
  3
STANDARD
350
1C
  0
MLINESTYLE
  5
1C
102
{ACAD_REACTORS
330
1B
102
}
100
AcDbMlineStyle
  2
STANDARD
 70
     0
  3

 62
     0
 51
90.0
 52
90.0
 71
     2
 49
0.5
 62
   256
  6
BYLAYER
 49
-0.5
 62
   256
  6
BYLAYER
  0
ENDSEC
  0
EOF
