999
DXF file: C:\Users\sesa63760\Dev\_Creo\CAD\MCADID0003468_3D-CAD\drw0001_6.dxf
999
Pro/ENGINEER 2019471 by Parametric Technology Corporation
  0
SECTION
  2
HEADER
  9
$ACADVER
  1
AC1024
  9
$DWGCODEPAGE
  3
ANSI_1252
  9
$EXTMAX
 10
90.4398719601
 20
127.907818915
 30
0.0
  9
$EXTMIN
 10
0.0
 20
0.0
 30
0.0
  9
$LIMMIN
 10
0.0
 20
0.0
  9
$LIMMAX
 10
90.4398719601
 20
127.907818915
  9
$VIEWCTR
 10
45.21993598
 20
63.9539094575
  9
$VIEWSIZE
 40
127.907818915
  9
$CLAYER
  8
0
  9
$LTSCALE
 40
8.3376948626
  9
$CELTYPE
  6
BYLAYER
  9
$DIMSCALE
 40
1.0
  9
$DIMASZ
 40
1.0766651424
  9
$DIMEXO
 40
1.0
  9
$DIMDLI
 40
5.7605891778
  9
$DIMEXE
 40
1.0
  9
$DIMCEN
 40
1.3643500684
  9
$DIMLFAC
 40
1.0
  9
$DIMBLK
  1
_FILLED
  9
$DIMALT
 70
0
  9
$DIMALTF
 40
0.0393700787
  9
$DIMTXT
 40
1.5073311993
  9
$DIMTOL
 70
1
  9
$DIMLIM
 70
0
  9
$DIMTFAC
 40
1.0
  9
$DIMTP
 40
0.01
  9
$DIMTM
 40
0.01
  9
$DIMGAP
 40
0.625
  9
$DIMDSEP
 70
46
  9
$AUNITS
 70
0
  9
$PDMODE
 70
3
  9
$PDSIZE
 40
0.3125
  9
$HANDSEED
  5
2A5
  9
$TILEMODE
 70
1
  9
$MEASUREMENT
 70
1
  9
$INSUNITS
 70
4
  0
ENDSEC
  0
SECTION
  2
CLASSES
  0
CLASS
  1
ACDBDICTIONARYWDFLT
  2
AcDbDictionaryWithDefault
  3
AutoCAD 2000
 90
0
 91
1
280
0
281
0
  0
CLASS
  1
ACDBPLACEHOLDER
  2
AcDbPlaceHolder
  3
AutoCAD 2000
 90
0
 91
1
280
0
281
0
  0
CLASS
  1
LAYOUT
  2
AcDbLayout
  3
AutoCAD 2000
 90
0
 91
0
280
0
281
0
  0
ENDSEC
  0
SECTION
  2
TABLES
  0
TABLE
  2
VPORT
  5
8
100
AcDbSymbolTable
 70
2
  0
VPORT
  5
1F4
100
AcDbSymbolTableRecord
100
AcDbViewportTableRecord
  2
*ACTIVE
 70
0
 10
0.0
 20
0.0
 11
1.0
 21
1.0
 12
45.21993598
 22
63.9539094575
 13
0.0
 23
0.0
 14
1.0
 24
1.0
 15
0.0
 25
0.0
 16
0.0
 26
0.0
 36
1.0
 17
0.0
 27
0.0
 37
0.0
 40
127.907818915
 41
0.7070707071
 42
50.0
 43
0.0
 44
0.0
 50
0.0
 51
0.0
 71
0
 72
100
 73
1
 74
1
 75
0
 76
0
 77
0
 78
0
  0
ENDTAB
  0
TABLE
  2
LTYPE
  5
5
100
AcDbSymbolTable
 70
6
  0
LTYPE
  5
14
100
AcDbSymbolTableRecord
100
AcDbLinetypeTableRecord
  2
BYBLOCK
 70
0
  3

 72
65
 73
0
 40
0.0
  0
LTYPE
  5
15
100
AcDbSymbolTableRecord
100
AcDbLinetypeTableRecord
  2
BYLAYER
 70
0
  3

 72
65
 73
0
 40
0.0
  0
LTYPE
  5
16
100
AcDbSymbolTableRecord
100
AcDbLinetypeTableRecord
  2
CONTINUOUS
 70
64
  3
Solid line
 72
65
 73
0
 40
0.0
  0
LTYPE
  5
1F5
100
AcDbSymbolTableRecord
100
AcDbLinetypeTableRecord
  2
CENTER
 70
64
  3
____ _ ____ _ ____ _ ____ _ ____ _ ____ _ ____
 72
65
 73
4
 40
0.6
 49
0.375
 74
0
 49
-0.075
 74
0
 49
0.075
 74
0
 49
-0.075
 74
0
  0
LTYPE
  5
1F6
100
AcDbSymbolTableRecord
100
AcDbLinetypeTableRecord
  2
HIDDEN
 70
64
  3
- - - - - - - - - - - - - - - - - - - -
 72
65
 73
2
 40
0.2
 49
0.1
 74
0
 49
-0.1
 74
0
  0
LTYPE
  5
1F7
100
AcDbSymbolTableRecord
100
AcDbLinetypeTableRecord
  2
PHANTOM
 70
64
  3
_____ _ _ _____ _ _ _____ _ _ _____
 72
65
 73
6
 40
0.8
 49
0.45
 74
0
 49
-0.05
 74
0
 49
0.1
 74
0
 49
-0.05
 74
0
 49
0.1
 74
0
 49
-0.05
 74
0
  0
LTYPE
  5
1F8
100
AcDbSymbolTableRecord
100
AcDbLinetypeTableRecord
  2
DOT
 70
64
  3
. . . . . . . . . . . . . . . . . . . .
 72
65
 73
2
 40
0.2
 49
0.1
 74
0
 49
-0.1
 74
0
  0
LTYPE
  5
1F9
100
AcDbSymbolTableRecord
100
AcDbLinetypeTableRecord
  2
DASHED
 70
64
  3
- - - - - - - - - - - - - - - - - - - -
 72
65
 73
2
 40
0.2
 49
0.1
 74
0
 49
-0.1
 74
0
  0
ENDTAB
  0
TABLE
  2
LAYER
  5
2
100
AcDbSymbolTable
 70
36
  0
LAYER
  5
10
100
AcDbSymbolTableRecord
100
AcDbLayerTableRecord
  2
0
 70
0
 62
7
  6
CONTINUOUS
370
-3
390
F
  0
LAYER
  5
1FA
100
AcDbSymbolTableRecord
100
AcDbLayerTableRecord
  2
DEFAULT_1
 70
0
 62
7
  6
CENTER
370
-3
390
F
  0
LAYER
  5
1FB
100
AcDbSymbolTableRecord
100
AcDbLayerTableRecord
  2
DEFAULT_2
 70
0
 62
7
  6
HIDDEN
370
-3
390
F
  0
LAYER
  5
1FC
100
AcDbSymbolTableRecord
100
AcDbLayerTableRecord
  2
DEFAULT_3
 70
0
 62
7
  6
PHANTOM
370
-3
390
F
  0
LAYER
  5
1FD
100
AcDbSymbolTableRecord
100
AcDbLayerTableRecord
  2
00_COMPONENTS
 70
0
 62
7
  6
CONTINUOUS
370
-3
390
F
  0
LAYER
  5
1FE
100
AcDbSymbolTableRecord
100
AcDbLayerTableRecord
  2
01_1_DEFAULT_DATUMS
 70
0
 62
7
  6
CONTINUOUS
370
-3
390
F
  0
LAYER
  5
1FF
100
AcDbSymbolTableRecord
100
AcDbLayerTableRecord
  2
01_PLANES
 70
0
 62
7
  6
CONTINUOUS
370
-3
390
F
  0
LAYER
  5
200
100
AcDbSymbolTableRecord
100
AcDbLayerTableRecord
  2
02_COORD_SYS
 70
0
 62
7
  6
CONTINUOUS
370
-3
390
F
  0
LAYER
  5
201
100
AcDbSymbolTableRecord
100
AcDbLayerTableRecord
  2
03_AXES
 70
0
 62
7
  6
CONTINUOUS
370
-3
390
F
  0
LAYER
  5
202
100
AcDbSymbolTableRecord
100
AcDbLayerTableRecord
  2
04_POINTS
 70
0
 62
7
  6
CONTINUOUS
370
-3
390
F
  0
LAYER
  5
203
100
AcDbSymbolTableRecord
100
AcDbLayerTableRecord
  2
05_CURVES
 70
0
 62
7
  6
CONTINUOUS
370
-3
390
F
  0
LAYER
  5
204
100
AcDbSymbolTableRecord
100
AcDbLayerTableRecord
  2
06_SURFS
 70
0
 62
7
  6
CONTINUOUS
370
-3
390
F
  0
LAYER
  5
205
100
AcDbSymbolTableRecord
100
AcDbLayerTableRecord
  2
07_COSMETICS
 70
0
 62
7
  6
CONTINUOUS
370
-3
390
F
  0
LAYER
  5
206
100
AcDbSymbolTableRecord
100
AcDbLayerTableRecord
  2
10_NOTES
 70
0
 62
7
  6
CONTINUOUS
370
-3
390
F
  0
LAYER
  5
207
100
AcDbSymbolTableRecord
100
AcDbLayerTableRecord
  2
11_NOTES_PUB
 70
0
 62
7
  6
CONTINUOUS
370
-3
390
F
  0
LAYER
  5
208
100
AcDbSymbolTableRecord
100
AcDbLayerTableRecord
  2
13_REF_GTOL
 70
0
 62
7
  6
CONTINUOUS
370
-3
390
F
  0
LAYER
  5
209
100
AcDbSymbolTableRecord
100
AcDbLayerTableRecord
  2
16_MISC
 70
0
 62
7
  6
CONTINUOUS
370
-3
390
F
  0
LAYER
  5
20A
100
AcDbSymbolTableRecord
100
AcDbLayerTableRecord
  2
17_NO_PRINT
 70
0
 62
7
  6
CONTINUOUS
370
-3
390
F
  0
LAYER
  5
20B
100
AcDbSymbolTableRecord
100
AcDbLayerTableRecord
  2
18_DATUM_CAMS_JOINTS
 70
0
 62
7
  6
CONTINUOUS
370
-3
390
F
  0
LAYER
  5
20C
100
AcDbSymbolTableRecord
100
AcDbLayerTableRecord
  2
19_DATUM_FUNCTIONAL
 70
0
 62
7
  6
CONTINUOUS
370
-3
390
F
  0
LAYER
  5
20D
100
AcDbSymbolTableRecord
100
AcDbLayerTableRecord
  2
20_DATUM_KINEMATIC_SCHEME
 70
0
 62
7
  6
CONTINUOUS
370
-3
390
F
  0
ENDTAB
  0
TABLE
  2
STYLE
  5
3
100
AcDbSymbolTable
 70
1
  0
STYLE
  5
11
100
AcDbSymbolTableRecord
100
AcDbTextStyleTableRecord
  2
STANDARD
 70
0
 40
0.0
 41
1.0
 50
0.0
 71
0
 42
0.2
  3
ARIAL.TTF
  4

  0
STYLE
  5
20E
100
AcDbSymbolTableRecord
100
AcDbTextStyleTableRecord
  2
TEXTSTYLE_1
 70
0
 40
0.0
 41
0.8
 50
0.0
 71
0
 42
0.2
  3
gdt
  4

  0
ENDTAB
  0
TABLE
  2
VIEW
  5
6
100
AcDbSymbolTable
 70
0
  0
ENDTAB
  0
TABLE
  2
UCS
  5
7
100
AcDbSymbolTable
 70
0
  0
ENDTAB
  0
TABLE
  2
APPID
  5
9
100
AcDbSymbolTable
 70
1
  0
APPID
  5
20F
100
AcDbSymbolTableRecord
100
AcDbRegAppTableRecord
  2
ACAD
 70
0
  0
ENDTAB
  0
TABLE
  2
BLOCK_RECORD
  5
1
100
AcDbSymbolTable
 70
0
  0
BLOCK_RECORD
  5
210
100
AcDbSymbolTableRecord
100
AcDbBlockTableRecord
  2
*Model_Space
  0
BLOCK_RECORD
  5
211
100
AcDbSymbolTableRecord
100
AcDbBlockTableRecord
  2
*Paper_Space
  0
BLOCK_RECORD
  5
212
100
AcDbSymbolTableRecord
100
AcDbBlockTableRecord
  2
_FILLED
  0
ENDTAB
  0
TABLE
  2
DIMSTYLE
  5
A
100
AcDbSymbolTable
 70
1
100
AcDbDimStyleTable
 71
0
  0
DIMSTYLE
105
213
100
AcDbSymbolTableRecord
100
AcDbDimStyleTableRecord
  2
STANDARD
 70
0
  3

  4

 40
1.0
 41
1.0766651424
 42
1.0
 43
0.38
 44
1.0
 45
0.0
 46
0.0
 47
0.01
 48
0.01
140
1.5073311993
141
0.09
142
0.0
143
25.4
144
1.0
145
0.0
146
1.0
147
0.625
 71
1
 72
0
 73
0
 74
0
 75
0
 76
0
 77
1
 78
8
 79
2
170
0
171
1
172
0
173
0
174
0
175
0
176
0
177
0
178
0
270
2
179
2
271
2
272
2
273
2
274
2
275
0
280
0
281
0
282
0
283
1
284
8
285
0
286
0
287
3
288
0
340
11
278
46
341
212
342
212
343
212
344
212
  0
ENDTAB
  0
ENDSEC
  0
SECTION
  2
BLOCKS
  0
BLOCK
  5
20
100
AcDbEntity
  8
0
100
AcDbBlockBegin
  2
*Model_Space
 70
0
 10
0.0
 20
0.0
 30
0.0
  3
*Model_Space
  1

  0
ENDBLK
  5
21
100
AcDbEntity
  8
0
100
AcDbBlockEnd
  0
BLOCK
  5
1C
100
AcDbEntity
  8
0
100
AcDbBlockBegin
  2
*Paper_Space
 70
0
 10
0.0
 20
0.0
 30
0.0
  3
*Paper_Space
  1

  0
ENDBLK
  5
1D
100
AcDbEntity
  8
0
100
AcDbBlockEnd
  0
BLOCK
  5
214
100
AcDbEntity
  8
0
100
AcDbBlockBegin
  2
_FILLED
 70
64
 10
0.0
 20
0.0
  3
_FILLED
  1

  0
SOLID
  5
215
100
AcDbEntity
  8
0
  6
BYBLOCK
 62
0
100
AcDbTrace
 10
0.0
 20
0.0
 11
-1.0
 21
0.25
 12
-1.0
 22
-0.25
 13
-1.0
 23
-0.25
  0
ENDBLK
  5
216
100
AcDbEntity
  8
0
  6
BYBLOCK
 62
0
100
AcDbBlockEnd
  0
ENDSEC
  0
SECTION
  2
ENTITIES
  0
LINE
  5
217
100
AcDbEntity
  8
0
100
AcDbLine
 62
7
  6
BYLAYER
 10
59.6527255695
 20
10.5676594575
 11
32.3527255695
 21
10.5676594575
  0
LINE
  5
218
100
AcDbEntity
  8
0
100
AcDbLine
 62
7
  6
BYLAYER
 10
32.3527255695
 20
16.9289758743
 11
31.8527255695
 21
16.9289758743
  0
LINE
  5
219
100
AcDbEntity
  8
0
100
AcDbLine
 62
7
  6
BYLAYER
 10
32.3527255695
 20
17.1676594575
 11
34.6527255695
 21
17.1676594575
  0
LINE
  5
21A
100
AcDbEntity
  8
0
100
AcDbLine
 62
7
  6
BYLAYER
 10
33.3527255695
 20
17.408960515
 11
31.8527255695
 21
17.408960515
  0
LINE
  5
21B
100
AcDbEntity
  8
0
100
AcDbLine
 62
7
  6
BYLAYER
 10
34.6527255695
 20
18.2676594575
 11
34.3527255695
 21
18.2676594575
  0
LINE
  5
21C
100
AcDbEntity
  8
0
100
AcDbLine
 62
7
  6
BYLAYER
 10
60.1527255695
 20
20.8676594575
 11
59.6527255695
 21
20.8676594575
  0
LINE
  5
21D
100
AcDbEntity
  8
0
100
AcDbLine
 62
7
  6
BYLAYER
 10
59.9527255695
 20
21.0676594575
 11
59.6527255695
 21
21.0676594575
  0
LINE
  5
21E
100
AcDbEntity
  8
0
100
AcDbLine
 62
7
  6
BYLAYER
 10
43.7277258352
 20
117.0901586777
 11
43.9777263831
 21
117.3401591835
  0
LINE
  5
21F
100
AcDbEntity
  8
0
100
AcDbLine
 62
7
  6
BYLAYER
 10
52.9079099019
 20
24.8176594575
 11
47.9027255695
 21
24.8176594575
  0
LINE
  5
220
100
AcDbEntity
  8
0
100
AcDbLine
 62
7
  6
BYLAYER
 10
46.4027255695
 20
24.8176594575
 11
41.397541237
 21
24.8176594575
  0
LINE
  5
221
100
AcDbEntity
  8
0
100
AcDbLine
 62
7
  6
BYLAYER
 10
59.9527255695
 20
25.0676594575
 11
59.6527255695
 21
25.0676594575
  0
LINE
  5
222
100
AcDbEntity
  8
0
100
AcDbLine
 62
7
  6
BYLAYER
 10
41.397541237
 20
26.3176594575
 11
46.4027255695
 21
26.3176594575
  0
LINE
  5
223
100
AcDbEntity
  8
0
100
AcDbLine
 62
7
  6
BYLAYER
 10
47.9027255695
 20
26.3176594575
 11
52.9079099019
 21
26.3176594575
  0
LINE
  5
224
100
AcDbEntity
  8
0
100
AcDbLine
 62
7
  6
BYLAYER
 10
60.1527255695
 20
30.8676594575
 11
59.6527255695
 21
30.8676594575
  0
LINE
  5
225
100
AcDbEntity
  8
0
100
AcDbLine
 62
7
  6
BYLAYER
 10
47.3277247559
 20
104.3951597314
 11
47.5777253038
 21
104.6451602373
  0
LINE
  5
226
100
AcDbEntity
  8
0
100
AcDbLine
 62
7
  6
BYLAYER
 10
35.444831013
 20
95.8558880251
 11
33.6527255695
 21
89.1676594575
  0
LINE
  5
227
100
AcDbEntity
  8
0
100
AcDbLine
 62
7
  6
BYLAYER
 10
31.8527255695
 20
16.9289758743
 11
31.8527255695
 21
63.5074853858
  0
LINE
  5
228
100
AcDbEntity
  8
0
100
AcDbLine
 62
7
  6
BYLAYER
 10
31.8527255695
 20
63.6676594575
 11
31.8527255695
 21
74.1676594575
  0
LINE
  5
229
100
AcDbEntity
  8
0
100
AcDbLine
 62
7
  6
BYLAYER
 10
32.1527255695
 20
80.6676594575
 11
32.1527255695
 21
74.1676594575
  0
LINE
  5
22A
100
AcDbEntity
  8
0
100
AcDbLine
 62
7
  6
BYLAYER
 10
32.1527255695
 20
63.6676594575
 11
32.1527255695
 21
63.5074853858
  0
LINE
  5
22B
100
AcDbEntity
  8
0
100
AcDbLine
 62
7
  6
BYLAYER
 10
32.2027255695
 20
80.6676594575
 11
32.2027255695
 21
83.6676594575
  0
LINE
  5
22C
100
AcDbEntity
  8
0
100
AcDbLine
 62
7
  6
BYLAYER
 10
32.3527255695
 20
10.5676594575
 11
32.3527255695
 21
17.1676594575
  0
LINE
  5
22D
100
AcDbEntity
  8
0
100
AcDbLine
 62
7
  6
BYLAYER
 10
32.8526277258
 20
63.5074853858
 11
32.8526248241
 21
80.6676594575
  0
LINE
  5
22E
100
AcDbEntity
  8
0
100
AcDbLine
 62
7
  6
BYLAYER
 10
32.9027255695
 20
80.6676594575
 11
32.9027255695
 21
82.6676594575
  0
LINE
  5
22F
100
AcDbEntity
  8
0
100
AcDbLine
 62
7
  6
BYLAYER
 10
33.3527255695
 20
17.1676594575
 11
33.3527255695
 21
63.5074853858
  0
LINE
  5
230
100
AcDbEntity
  8
0
100
AcDbLine
 62
7
  6
BYLAYER
 10
33.5527255695
 20
64.4676594575
 11
33.5527255695
 21
69.8676594575
  0
LINE
  5
231
100
AcDbEntity
  8
0
100
AcDbLine
 62
7
  6
BYLAYER
 10
33.6527255695
 20
89.1676594575
 11
33.6527255695
 21
84.3676594575
  0
LINE
  5
232
100
AcDbEntity
  8
0
100
AcDbLine
 62
7
  6
BYLAYER
 10
34.3527255695
 20
18.2676594575
 11
34.3527255695
 21
56.3676594575
  0
LINE
  5
233
100
AcDbEntity
  8
0
100
AcDbLine
 62
7
  6
BYLAYER
 10
34.6527255695
 20
56.3676594575
 11
34.6527255695
 21
17.1676594575
  0
LINE
  5
234
100
AcDbEntity
  8
0
100
AcDbLine
 62
7
  6
BYLAYER
 10
34.6527255695
 20
63.0676594575
 11
34.6527255695
 21
64.4676594575
  0
LINE
  5
235
100
AcDbEntity
  8
0
100
AcDbLine
 62
7
  6
BYLAYER
 10
35.2604207241
 20
84.3676594575
 11
35.2604207241
 21
89.1676594575
  0
LINE
  5
236
100
AcDbEntity
  8
0
100
AcDbLine
 62
7
  6
BYLAYER
 10
40.8958860843
 20
113.5244989426
 11
40.8900171356
 21
113.4809539407
  0
LINE
  5
237
100
AcDbEntity
  8
0
100
AcDbLine
 62
7
  6
BYLAYER
 10
35.6527255695
 20
90.4294516922
 11
35.6527255695
 21
82.6676594575
  0
LINE
  5
238
100
AcDbEntity
  8
0
100
AcDbLine
 62
7
  6
BYLAYER
 10
37.6527255695
 20
96.9676594575
 11
37.6527255695
 21
108.2676594575
  0
LINE
  5
239
100
AcDbEntity
  8
0
100
AcDbLine
 62
7
  6
BYLAYER
 10
34.6527255695
 20
55.1176594575
 11
34.3527255695
 21
55.1176594575
  0
LINE
  5
23A
100
AcDbEntity
  8
0
100
AcDbLine
 62
7
  6
BYLAYER
 10
34.6527255695
 20
55.6511609268
 11
34.3527255695
 21
55.6511609268
  0
LINE
  5
23B
100
AcDbEntity
  8
0
100
AcDbLine
 62
7
  6
BYLAYER
 10
34.6527255695
 20
56.3676594575
 11
33.3527255695
 21
56.3676594575
  0
LINE
  5
23C
100
AcDbEntity
  8
0
100
AcDbLine
 62
7
  6
BYLAYER
 10
39.6527255695
 20
82.8676594575
 11
39.6527255695
 21
90.4294516922
  0
LINE
  5
23D
100
AcDbEntity
  8
0
100
AcDbLine
 62
7
  6
BYLAYER
 10
40.3527255695
 20
64.4676594575
 11
40.3527255695
 21
69.8676594575
  0
LINE
  5
23E
100
AcDbEntity
  8
0
100
AcDbLine
 62
7
  6
BYLAYER
 10
43.5027255695
 20
98.4676594575
 11
43.5027255695
 21
115.4691460855
  0
LINE
  5
23F
100
AcDbEntity
  8
0
100
AcDbLine
 62
7
  6
BYLAYER
 10
43.7277255695
 20
104.6451602373
 11
43.7277255695
 21
117.0901586777
  0
LINE
  5
240
100
AcDbEntity
  8
0
100
AcDbLine
 62
7
  6
BYLAYER
 10
43.9777263831
 20
104.3951594575
 11
43.9777263831
 21
117.3401594575
  0
LINE
  5
241
100
AcDbEntity
  8
0
100
AcDbLine
 62
7
  6
BYLAYER
 10
46.4027255695
 20
19.812475125
 11
46.4027255695
 21
24.8176594575
  0
LINE
  5
242
100
AcDbEntity
  8
0
100
AcDbLine
 62
7
  6
BYLAYER
 10
46.4027255695
 20
26.3176594575
 11
46.4027255695
 21
31.3228437899
  0
LINE
  5
243
100
AcDbEntity
  8
0
100
AcDbLine
 62
7
  6
BYLAYER
 10
55.1527255695
 20
63.0676594575
 11
33.3527255695
 21
63.0676594575
  0
LINE
  5
244
100
AcDbEntity
  8
0
100
AcDbLine
 62
7
  6
BYLAYER
 10
34.6527255695
 20
63.3176594575
 11
33.3527255695
 21
63.3176594575
  0
LINE
  5
245
100
AcDbEntity
  8
0
100
AcDbLine
 62
7
  6
BYLAYER
 10
33.3527255695
 20
63.5074853858
 11
31.8527255695
 21
63.5074853858
  0
LINE
  5
246
100
AcDbEntity
  8
0
100
AcDbLine
 62
7
  6
BYLAYER
 10
34.6527255695
 20
63.6676594575
 11
31.8527255695
 21
63.6676594575
  0
LINE
  5
247
100
AcDbEntity
  8
0
100
AcDbLine
 62
7
  6
BYLAYER
 10
60.1527255695
 20
64.0676594575
 11
59.6527255695
 21
64.0676594575
  0
LINE
  5
248
100
AcDbEntity
  8
0
100
AcDbLine
 62
7
  6
BYLAYER
 10
47.3277247559
 20
117.3401594575
 11
47.3277247559
 21
104.3951594575
  0
LINE
  5
249
100
AcDbEntity
  8
0
100
AcDbLine
 62
7
  6
BYLAYER
 10
47.5777255695
 20
117.0901586777
 11
47.5777255695
 21
104.6451602373
  0
LINE
  5
24A
100
AcDbEntity
  8
0
100
AcDbLine
 62
7
  6
BYLAYER
 10
47.8027255695
 20
98.4676594575
 11
47.8027255695
 21
115.4691460855
  0
LINE
  5
24B
100
AcDbEntity
  8
0
100
AcDbLine
 62
7
  6
BYLAYER
 10
47.9027255695
 20
31.3228437899
 11
47.9027255695
 21
26.3176594575
  0
LINE
  5
24C
100
AcDbEntity
  8
0
100
AcDbLine
 62
7
  6
BYLAYER
 10
47.9027255695
 20
24.8176594575
 11
47.9027255695
 21
19.812475125
  0
LINE
  5
24D
100
AcDbEntity
  8
0
100
AcDbLine
 62
7
  6
BYLAYER
 10
40.3527255695
 20
64.4676594575
 11
33.5527255695
 21
64.4676594575
  0
LINE
  5
24E
100
AcDbEntity
  8
0
100
AcDbLine
 62
7
  6
BYLAYER
 10
51.6527255695
 20
82.8676594575
 11
51.6527255695
 21
90.4294516922
  0
LINE
  5
24F
100
AcDbEntity
  8
0
100
AcDbLine
 62
7
  6
BYLAYER
 10
53.6527255695
 20
96.9676594575
 11
53.6527255695
 21
108.2676594575
  0
LINE
  5
250
100
AcDbEntity
  8
0
100
AcDbLine
 62
7
  6
BYLAYER
 10
55.1527255695
 20
69.0676594575
 11
40.3527255695
 21
69.0676594575
  0
LINE
  5
251
100
AcDbEntity
  8
0
100
AcDbLine
 62
7
  6
BYLAYER
 10
40.3527255695
 20
69.8676594575
 11
33.5527255695
 21
69.8676594575
  0
LINE
  5
252
100
AcDbEntity
  8
0
100
AcDbLine
 62
7
  6
BYLAYER
 10
55.1527255695
 20
74.0676594575
 11
55.1527255695
 21
63.0676594575
  0
LINE
  5
253
100
AcDbEntity
  8
0
100
AcDbLine
 62
7
  6
BYLAYER
 10
55.6527255695
 20
82.6676594575
 11
55.6527255695
 21
90.4294516922
  0
LINE
  5
254
100
AcDbEntity
  8
0
100
AcDbLine
 62
7
  6
BYLAYER
 10
56.0450304149
 20
89.1676594575
 11
56.0450304149
 21
84.3676594575
  0
LINE
  5
255
100
AcDbEntity
  8
0
100
AcDbLine
 62
7
  6
BYLAYER
 10
60.1527255695
 20
74.0676594575
 11
55.1527255695
 21
74.0676594575
  0
LINE
  5
256
100
AcDbEntity
  8
0
100
AcDbLine
 62
7
  6
BYLAYER
 10
59.6527255695
 20
74.1676594575
 11
31.8527255695
 21
74.1676594575
  0
LINE
  5
257
100
AcDbEntity
  8
0
100
AcDbLine
 62
7
  6
BYLAYER
 10
50.4332727967
 20
113.4809544008
 11
50.4312211613
 21
113.4961550493
  0
LINE
  5
258
100
AcDbEntity
  8
0
100
AcDbLine
 62
7
  6
BYLAYER
 10
57.6527255695
 20
84.3676594575
 11
57.6527255695
 21
89.1676594575
  0
LINE
  5
259
100
AcDbEntity
  8
0
100
AcDbLine
 62
7
  6
BYLAYER
 10
58.4027255695
 20
82.6676594575
 11
58.4027255695
 21
80.6676594575
  0
LINE
  5
25A
100
AcDbEntity
  8
0
100
AcDbLine
 62
7
  6
BYLAYER
 10
58.4528211997
 20
80.6676594575
 11
58.4528211997
 21
74.0676594575
  0
LINE
  5
25B
100
AcDbEntity
  8
0
100
AcDbLine
 62
7
  6
BYLAYER
 10
59.1027255695
 20
80.6676594575
 11
59.1027255695
 21
83.6676594575
  0
LINE
  5
25C
100
AcDbEntity
  8
0
100
AcDbLine
 62
7
  6
BYLAYER
 10
59.1527255695
 20
74.1676594575
 11
59.1527255695
 21
80.6676594575
  0
LINE
  5
25D
100
AcDbEntity
  8
0
100
AcDbLine
 62
7
  6
BYLAYER
 10
59.6527255695
 20
10.5676594575
 11
59.6527255695
 21
74.1676594575
  0
LINE
  5
25E
100
AcDbEntity
  8
0
100
AcDbLine
 62
7
  6
BYLAYER
 10
59.9527255695
 20
25.0676479961
 11
59.9527255695
 21
21.0676709189
  0
LINE
  5
25F
100
AcDbEntity
  8
0
100
AcDbLine
 62
7
  6
BYLAYER
 10
60.1527255695
 20
74.0674522182
 11
60.1527255695
 21
64.0678666967
  0
LINE
  5
260
100
AcDbEntity
  8
0
100
AcDbLine
 62
7
  6
BYLAYER
 10
60.1527255695
 20
30.8674522182
 11
60.1527255695
 21
20.8678666967
  0
LINE
  5
261
100
AcDbEntity
  8
0
100
AcDbLine
 62
7
  6
BYLAYER
 10
32.1527255695
 20
80.6676594575
 11
59.1527255695
 21
80.6676594575
  0
LINE
  5
262
100
AcDbEntity
  8
0
100
AcDbLine
 62
7
  6
BYLAYER
 10
32.2027255695
 20
82.6676594575
 11
39.4527255695
 21
82.6676594575
  0
LINE
  5
263
100
AcDbEntity
  8
0
100
AcDbLine
 62
7
  6
BYLAYER
 10
51.8527255695
 20
82.6676594575
 11
59.1027255695
 21
82.6676594575
  0
LINE
  5
264
100
AcDbEntity
  8
0
100
AcDbLine
 62
7
  6
BYLAYER
 10
57.6527255695
 20
89.1676594575
 11
55.860620126
 21
95.8558880251
  0
LINE
  5
265
100
AcDbEntity
  8
0
100
AcDbLine
 62
7
  6
BYLAYER
 10
59.1027255695
 20
82.8676594575
 11
51.6527255695
 21
82.8676594575
  0
LINE
  5
266
100
AcDbEntity
  8
0
100
AcDbLine
 62
7
  6
BYLAYER
 10
39.6527255695
 20
82.8676594575
 11
32.2027255695
 21
82.8676594575
  0
LINE
  5
267
100
AcDbEntity
  8
0
100
AcDbLine
 62
7
  6
BYLAYER
 10
39.6527255695
 20
83.6676594575
 11
51.6527255695
 21
83.6676594575
  0
LINE
  5
268
100
AcDbEntity
  8
0
100
AcDbLine
 62
7
  6
BYLAYER
 10
58.6027255695
 20
84.1676594575
 11
56.2753241646
 21
84.1676594575
  0
LINE
  5
269
100
AcDbEntity
  8
0
100
AcDbLine
 62
7
  6
BYLAYER
 10
51.6527255695
 20
84.1676594575
 11
39.6527255695
 21
84.1676594575
  0
LINE
  5
26A
100
AcDbEntity
  8
0
100
AcDbLine
 62
7
  6
BYLAYER
 10
32.7027255695
 20
84.1676594575
 11
35.0301083854
 21
84.1676594575
  0
LINE
  5
26B
100
AcDbEntity
  8
0
100
AcDbLine
 62
7
  6
BYLAYER
 10
57.6527255695
 20
84.3676594575
 11
56.0450304149
 21
84.3676594575
  0
LINE
  5
26C
100
AcDbEntity
  8
0
100
AcDbLine
 62
7
  6
BYLAYER
 10
51.6527255695
 20
84.3676594575
 11
39.6527255695
 21
84.3676594575
  0
LINE
  5
26D
100
AcDbEntity
  8
0
100
AcDbLine
 62
7
  6
BYLAYER
 10
35.2604207241
 20
84.3676594575
 11
33.6527255695
 21
84.3676594575
  0
LINE
  5
26E
100
AcDbEntity
  8
0
100
AcDbLine
 62
7
  6
BYLAYER
 10
33.6527255695
 20
89.1676594575
 11
35.2604207241
 21
89.1676594575
  0
LINE
  5
26F
100
AcDbEntity
  8
0
100
AcDbLine
 62
7
  6
BYLAYER
 10
39.6527255695
 20
89.1676594575
 11
51.6527255695
 21
89.1676594575
  0
LINE
  5
270
100
AcDbEntity
  8
0
100
AcDbLine
 62
7
  6
BYLAYER
 10
56.0450304149
 20
89.1676594575
 11
57.6527255695
 21
89.1676594575
  0
LINE
  5
271
100
AcDbEntity
  8
0
100
AcDbLine
 62
7
  6
BYLAYER
 10
43.9777263831
 20
104.3951597314
 11
43.7277258352
 21
104.6451602373
  0
LINE
  5
272
100
AcDbEntity
  8
0
100
AcDbLine
 62
7
  6
BYLAYER
 10
35.444831013
 20
95.8558880251
 11
38.0139578884
 21
95.8558880251
  0
LINE
  5
273
100
AcDbEntity
  8
0
100
AcDbLine
 62
7
  6
BYLAYER
 10
38.8814376867
 20
95.8558880251
 11
52.4240134522
 21
95.8558880251
  0
LINE
  5
274
100
AcDbEntity
  8
0
100
AcDbLine
 62
7
  6
BYLAYER
 10
53.2914932506
 20
95.8558880251
 11
55.860620126
 21
95.8558880251
  0
LINE
  5
275
100
AcDbEntity
  8
0
100
AcDbLine
 62
7
  6
BYLAYER
 10
36.8937882824
 20
96.9676594575
 11
54.4116359712
 21
96.9676594575
  0
LINE
  5
276
100
AcDbEntity
  8
0
100
AcDbLine
 62
7
  6
BYLAYER
 10
43.5027255695
 20
98.4676594575
 11
47.8027255695
 21
98.4676594575
  0
LINE
  5
277
100
AcDbEntity
  8
0
100
AcDbLine
 62
7
  6
BYLAYER
 10
43.5027255695
 20
103.8676594575
 11
47.8027255695
 21
103.8676594575
  0
LINE
  5
278
100
AcDbEntity
  8
0
100
AcDbLine
 62
7
  6
BYLAYER
 10
47.3277244819
 20
104.3951594575
 11
43.977726657
 21
104.3951594575
  0
LINE
  5
279
100
AcDbEntity
  8
0
100
AcDbLine
 62
7
  6
BYLAYER
 10
47.5777253038
 20
117.0901586777
 11
47.3277247559
 21
117.3401591835
  0
LINE
  5
27A
100
AcDbEntity
  8
0
100
AcDbLine
 62
7
  6
BYLAYER
 10
37.6527255695
 20
108.2676594575
 11
43.5027255695
 21
108.2676594575
  0
LINE
  5
27B
100
AcDbEntity
  8
0
100
AcDbLine
 62
7
  6
BYLAYER
 10
47.8027255695
 20
108.2676594575
 11
53.6527255695
 21
108.2676594575
  0
LINE
  5
27C
100
AcDbEntity
  8
0
100
AcDbLine
 62
7
  6
BYLAYER
 10
37.8528339134
 20
108.4676594575
 11
43.50272603
 21
108.4676594575
  0
LINE
  5
27D
100
AcDbEntity
  8
0
100
AcDbLine
 62
7
  6
BYLAYER
 10
47.8027251029
 20
108.4676594575
 11
53.4526172255
 21
108.4676594575
  0
LINE
  5
27E
100
AcDbEntity
  8
0
100
AcDbLine
 62
7
  6
BYLAYER
 10
40.8900169754
 20
113.4809543527
 11
43.5027255695
 21
113.4809543527
  0
LINE
  5
27F
100
AcDbEntity
  8
0
100
AcDbLine
 62
7
  6
BYLAYER
 10
47.8027255695
 20
113.4809543527
 11
50.4332727767
 21
113.4809543527
  0
LINE
  5
280
100
AcDbEntity
  8
0
100
AcDbLine
 62
7
  6
BYLAYER
 10
47.3277244819
 20
117.3401594575
 11
43.977726657
 21
117.3401594575
  0
ARC
  5
281
100
AcDbEntity
  8
0
100
AcDbCircle
 62
7
  6
BYLAYER
 10
484.9289559884
 20
-49.9472669263
 40
470.696031797
100
AcDbArc
 50
162.648543439
 51
162.8093882984
  0
ARC
  5
282
100
AcDbEntity
  8
0
100
AcDbCircle
 62
7
  6
BYLAYER
 10
-393.6235048388
 20
-49.9472669231
 40
470.6960317859
100
AcDbArc
 50
17.1906117016
 51
17.351456561
  0
CIRCLE
  5
283
100
AcDbEntity
  8
0
100
AcDbCircle
 62
7
  6
BYLAYER
 10
47.1527255695
 20
25.5676594575
 40
11.4999994918
  0
CIRCLE
  5
284
100
AcDbEntity
  8
0
100
AcDbCircle
 62
7
  6
BYLAYER
 10
47.1527255695
 20
25.5676594575
 40
10.9999986041
  0
ARC
  5
285
100
AcDbEntity
  8
0
100
AcDbCircle
 62
7
  6
BYLAYER
 10
45.6527255695
 20
109.8676594575
 40
6.0
100
AcDbArc
 50
110.9978755459
 51
142.4485727163
  0
ARC
  5
286
100
AcDbEntity
  8
0
100
AcDbCircle
 62
7
  6
BYLAYER
 10
45.6527255695
 20
109.8676594575
 40
6.0
100
AcDbArc
 50
37.2108010831
 51
69.0021244541
  0
ARC
  5
287
100
AcDbEntity
  8
0
100
AcDbCircle
 62
7
  6
BYLAYER
 10
47.1527255695
 20
25.5676594575
 40
5.8038475773
100
AcDbArc
 50
172.575211596
 51
187.424788404
  0
ARC
  5
288
100
AcDbEntity
  8
0
100
AcDbCircle
 62
7
  6
BYLAYER
 10
47.1527255695
 20
25.5676594575
 40
5.8038475773
100
AcDbArc
 50
82.575211596
 51
97.424788404
  0
ARC
  5
289
100
AcDbEntity
  8
0
100
AcDbCircle
 62
7
  6
BYLAYER
 10
47.1527255695
 20
25.5676594575
 40
5.8038475773
100
AcDbArc
 50
262.575211596
 51
277.424788404
  0
ARC
  5
28A
100
AcDbEntity
  8
0
100
AcDbCircle
 62
7
  6
BYLAYER
 10
47.1527255695
 20
25.5676594575
 40
5.8038475773
100
AcDbArc
 50
352.575211596
 51
7.424788404
  0
ARC
  5
28B
100
AcDbEntity
  8
0
100
AcDbCircle
 62
7
  6
BYLAYER
 10
47.1527255695
 20
25.5676594575
 40
5.0
100
AcDbArc
 50
261.3730734413
 51
278.6269265587
  0
ARC
  5
28C
100
AcDbEntity
  8
0
100
AcDbCircle
 62
7
  6
BYLAYER
 10
47.1527255695
 20
25.5676594575
 40
5.0
100
AcDbArc
 50
351.3730734413
 51
8.6269265587
  0
ARC
  5
28D
100
AcDbEntity
  8
0
100
AcDbCircle
 62
7
  6
BYLAYER
 10
47.1527255695
 20
25.5676594575
 40
5.0
100
AcDbArc
 50
81.3730734413
 51
98.6269265587
  0
ARC
  5
28E
100
AcDbEntity
  8
0
100
AcDbCircle
 62
7
  6
BYLAYER
 10
47.1527255695
 20
25.5676594575
 40
5.0
100
AcDbArc
 50
171.3730734413
 51
188.6269265587
  0
ARC
  5
28F
100
AcDbEntity
  8
0
100
AcDbCircle
 62
7
  6
BYLAYER
 10
54.4117313865
 20
95.4676594575
 40
1.5
100
AcDbArc
 50
15.0
 51
90.0
  0
ARC
  5
290
100
AcDbEntity
  8
0
100
AcDbCircle
 62
7
  6
BYLAYER
 10
36.8937197524
 20
95.4676594575
 40
1.5
100
AcDbArc
 50
90.0
 51
165.0
  0
ARC
  5
291
100
AcDbEntity
  8
0
100
AcDbCircle
 62
7
  6
BYLAYER
 10
32.7027255695
 20
83.6676594575
 40
0.5
100
AcDbArc
 50
90.0
 51
180.0
  0
ARC
  5
292
100
AcDbEntity
  8
0
100
AcDbCircle
 62
7
  6
BYLAYER
 10
58.6027255695
 20
83.6676594575
 40
0.5
100
AcDbArc
 50
0.0
 51
90.0
  0
ARC
  5
293
100
AcDbEntity
  8
0
100
AcDbCircle
 62
7
  6
BYLAYER
 10
33.4527255695
 20
84.3676594575
 40
0.2
100
AcDbArc
 50
270.0
 51
360.0
  0
ARC
  5
294
100
AcDbEntity
  8
0
100
AcDbCircle
 62
7
  6
BYLAYER
 10
53.4527255695
 20
108.2676594575
 40
0.2
100
AcDbArc
 50
0.0
 51
90.0
  0
ARC
  5
295
100
AcDbEntity
  8
0
100
AcDbCircle
 62
7
  6
BYLAYER
 10
37.8527255695
 20
108.2676594575
 40
0.2
100
AcDbArc
 50
90.0
 51
180.0
  0
ARC
  5
296
100
AcDbEntity
  8
0
100
AcDbCircle
 62
7
  6
BYLAYER
 10
57.8527255695
 20
84.3676594575
 40
0.2
100
AcDbArc
 50
180.0
 51
270.0
  0
ARC
  5
297
100
AcDbEntity
  8
0
100
AcDbCircle
 62
7
  6
BYLAYER
 10
39.4527255695
 20
82.8676594575
 40
0.2
100
AcDbArc
 50
270.0
 51
360.0
  0
ARC
  5
298
100
AcDbEntity
  8
0
100
AcDbCircle
 62
7
  6
BYLAYER
 10
51.8527255695
 20
82.8676594575
 40
0.2
100
AcDbArc
 50
180.0
 51
270.0
  0
SPLINE
  5
299
100
AcDbEntity
  8
0
100
AcDbSpline
 62
7
  6
BYLAYER
 70
0
 71
3
 72
14
 73
10
 74
0
 42
0.0000001
 43
0.0000001
 44
0.0000000001
 40
0.0
 40
0.0
 40
0.0
 40
0.0
 40
0.1015804822
 40
0.2343147223
 40
0.3834054984
 40
0.5384406848
 40
0.689781626
 40
0.8273837283
 40
1.0
 40
1.0
 40
1.0
 40
1.0
 10
50.3630262244
 20
108.4597612647
 30
0.0
 10
50.3084573174
 20
108.6245304118
 30
0.0
 10
50.1916382082
 20
109.0076796521
 30
0.0
 10
50.0419475087
 20
109.6462119369
 30
0.0
 10
49.9419405648
 20
110.3874911907
 30
0.0
 10
49.930574521
 20
111.1677193316
 30
0.0
 10
50.0124361547
 20
111.9236525297
 30
0.0
 10
50.1774915704
 20
112.6958416004
 30
0.0
 10
50.3351874209
 20
113.2027923114
 30
0.0
 10
50.4332727767
 20
113.4809543527
 30
0.0
  0
SPLINE
  5
29A
100
AcDbEntity
  8
0
100
AcDbSpline
 62
7
  6
BYLAYER
 70
0
 71
3
 72
14
 73
10
 74
0
 42
0.0000001
 43
0.0000001
 44
0.0000000001
 40
0.0
 40
0.0
 40
0.0
 40
0.0
 40
0.1879093394
 40
0.3240884584
 40
0.4716960354
 40
0.6220937939
 40
0.76688727
 40
0.8970478635
 40
1.0
 40
1.0
 40
1.0
 40
1.0
 10
40.8900169754
 20
113.4809543527
 30
0.0
 10
40.9964499719
 20
113.1785350678
 30
0.0
 10
41.1589795543
 20
112.6488756196
 30
0.0
 10
41.3195999077
 20
111.8592699438
 30
0.0
 10
41.392736844
 20
111.1204734326
 30
0.0
 10
41.3774289876
 20
110.3632932321
 30
0.0
 10
41.2792809399
 20
109.6428457937
 30
0.0
 10
41.1328394732
 20
109.0142329583
 30
0.0
 10
41.0173985579
 20
108.6334241263
 30
0.0
 10
40.962386164
 20
108.4666092326
 30
0.0
  0
SPLINE
  5
29B
100
AcDbEntity
  8
0
100
AcDbSpline
 62
7
  6
BYLAYER
 70
0
 71
3
 72
15
 73
11
 74
0
 42
0.0000001
 43
0.0000001
 44
0.0000000001
 40
0.0
 40
0.0
 40
0.0
 40
0.0
 40
0.1238386232
 40
0.2400397864
 40
0.3543972812
 40
0.4709826513
 40
0.5923931656
 40
0.7202875926
 40
0.8558365479
 40
1.0
 40
1.0
 40
1.0
 40
1.0
 10
52.4240134522
 20
95.8558880251
 30
0.0
 10
52.4480981872
 20
95.8882379961
 30
0.0
 10
52.5027794992
 20
95.9455490521
 30
0.0
 10
52.602232104
 20
96.006382587
 30
0.0
 10
52.7108864284
 20
96.0410050774
 30
0.0
 10
52.8259000002
 20
96.0518806512
 30
0.0
 10
52.9451628769
 20
96.0401315088
 30
0.0
 10
53.0662793897
 20
96.005273154
 30
0.0
 10
53.1856461531
 20
95.9455123739
 30
0.0
 10
53.2579991416
 20
95.8887890819
 30
0.0
 10
53.2914932506
 20
95.8558880251
 30
0.0
  0
SPLINE
  5
29C
100
AcDbEntity
  8
0
100
AcDbSpline
 62
7
  6
BYLAYER
 70
0
 71
3
 72
19
 73
15
 74
0
 42
0.0000001
 43
0.0000001
 44
0.0000000001
 40
0.0
 40
0.0
 40
0.0
 40
0.0
 40
0.0286105673
 40
0.0579856583
 40
0.1181851902
 40
0.179570776
 40
0.2416437407
 40
0.3041462716
 40
0.3669329554
 40
0.4930317652
 40
0.6195439739
 40
0.7462742231
 40
0.8731147811
 40
1.0
 40
1.0
 40
1.0
 40
1.0
 10
53.2914932506
 20
95.8558880251
 30
0.0
 10
53.3319943264
 20
95.816104068
 30
0.0
 10
53.4098964184
 20
95.7311793163
 30
0.0
 10
53.5554313406
 20
95.5471249951
 30
0.0
 10
53.721792966
 20
95.2974913508
 30
0.0
 10
53.9036323144
 20
94.9815123825
 30
0.0
 10
54.0729779668
 20
94.6535469514
 30
0.0
 10
54.2324740456
 20
94.317657476
 30
0.0
 10
54.4347865929
 20
93.8616470863
 30
0.0
 10
54.6710556643
 20
93.281962127
 30
0.0
 10
54.9356406223
 20
92.5771978159
 30
0.0
 10
55.1859257418
 20
91.8656865377
 30
0.0
 10
55.4247576996
 20
91.1494892096
 30
0.0
 10
55.5776302773
 20
90.6697721844
 30
0.0
 10
55.6527255695
 20
90.4294516922
 30
0.0
  0
SPLINE
  5
29D
100
AcDbEntity
  8
0
100
AcDbSpline
 62
7
  6
BYLAYER
 70
0
 71
3
 72
11
 73
7
 74
0
 42
0.0000001
 43
0.0000001
 44
0.0000000001
 40
0.0
 40
0.0
 40
0.0
 40
0.0
 40
0.249501958
 40
0.4993749473
 40
0.7495452112
 40
1.0
 40
1.0
 40
1.0
 40
1.0
 10
56.0450304149
 20
84.3676594575
 30
0.0
 10
56.0450304149
 20
84.3397087153
 30
0.0
 10
56.059332279
 20
84.2829731777
 30
0.0
 10
56.1151558635
 20
84.2171356471
 30
0.0
 10
56.1907530756
 20
84.1766715685
 30
0.0
 10
56.2472666804
 20
84.1676594575
 30
0.0
 10
56.2753241646
 20
84.1676594575
 30
0.0
  0
SPLINE
  5
29E
100
AcDbEntity
  8
0
100
AcDbSpline
 62
7
  6
BYLAYER
 70
0
 71
3
 72
11
 73
7
 74
0
 42
0.0000001
 43
0.0000001
 44
0.0000000001
 40
0.0
 40
0.0
 40
0.0
 40
0.0
 40
0.2494943906
 40
0.4993436738
 40
0.7496889691
 40
1.0
 40
1.0
 40
1.0
 40
1.0
 10
35.2604207241
 20
84.3676594575
 30
0.0
 10
35.2604207241
 20
84.3397107661
 30
0.0
 10
35.2460419694
 20
84.2830173118
 30
0.0
 10
35.190333072
 20
84.2170636167
 30
0.0
 10
35.1146474272
 20
84.1767432176
 30
0.0
 10
35.0581600975
 20
84.1676594575
 30
0.0
 10
35.030119925
 20
84.1676594575
 30
0.0
  0
SPLINE
  5
29F
100
AcDbEntity
  8
0
100
AcDbSpline
 62
7
  6
BYLAYER
 70
0
 71
3
 72
19
 73
15
 74
0
 42
0.0000001
 43
0.0000001
 44
0.0000000001
 40
0.0
 40
0.0
 40
0.0
 40
0.0
 40
0.0269587697
 40
0.0548379609
 40
0.1126069524
 40
0.1722673284
 40
0.2331930404
 40
0.2950160945
 40
0.3575071977
 40
0.4839272812
 40
0.6117173663
 40
0.7404729181
 40
0.869952159
 40
1.0
 40
1.0
 40
1.0
 40
1.0
 10
52.4240134522
 20
95.8558880251
 30
0.0
 10
52.3943181718
 20
95.8160021199
 30
0.0
 10
52.339470344
 20
95.7306880946
 30
0.0
 10
52.2442316986
 20
95.5458953093
 30
0.0
 10
52.146801401
 20
95.2955191495
 30
0.0
 10
52.0532436871
 20
94.9799330132
 30
0.0
 10
51.9761826113
 20
94.6522674506
 30
0.0
 10
51.9119448929
 20
94.3166078552
 30
0.0
 10
51.8398504033
 20
93.8597121427
 30
0.0
 10
51.7714192076
 20
93.2793539308
 30
0.0
 10
51.7145102305
 20
92.5751533959
 30
0.0
 10
51.677460513
 20
91.8640026282
 30
0.0
 10
51.6569148236
 20
91.1480475695
 30
0.0
 10
51.6527255695
 20
90.6693285567
 30
0.0
 10
51.6527255695
 20
90.4294516922
 30
0.0
  0
SPLINE
  5
2A0
100
AcDbEntity
  8
0
100
AcDbSpline
 62
7
  6
BYLAYER
 70
0
 71
3
 72
19
 73
15
 74
0
 42
0.0000001
 43
0.0000001
 44
0.0000000001
 40
0.0
 40
0.0
 40
0.0
 40
0.0
 40
0.0269587696
 40
0.0548379604
 40
0.1126069602
 40
0.1722673403
 40
0.2331930573
 40
0.2950161117
 40
0.357507215
 40
0.4839272985
 40
0.6117173784
 40
0.7404729263
 40
0.8699521629
 40
1.0
 40
1.0
 40
1.0
 40
1.0
 10
38.8814376867
 20
95.8558880251
 30
0.0
 10
38.911132967
 20
95.81600212
 30
0.0
 10
38.9659807947
 20
95.7306880957
 30
0.0
 10
39.0612194454
 20
95.5458952964
 30
0.0
 10
39.1586497411
 20
95.2955191127
 30
0.0
 10
39.2522074953
 20
94.9799329549
 30
0.0
 10
39.3292685583
 20
94.6522673708
 30
0.0
 10
39.3935062761
 20
94.3166077654
 30
0.0
 10
39.4656007635
 20
93.8597120512
 30
0.0
 10
39.5340319175
 20
93.2793538439
 30
0.0
 10
39.5909409261
 20
92.5751533283
 30
0.0
 10
39.6279906278
 20
91.8640025838
 30
0.0
 10
39.6485363152
 20
91.1480475473
 30
0.0
 10
39.6527255695
 20
90.6693285495
 30
0.0
 10
39.6527255695
 20
90.4294516922
 30
0.0
  0
SPLINE
  5
2A1
100
AcDbEntity
  8
0
100
AcDbSpline
 62
7
  6
BYLAYER
 70
0
 71
3
 72
19
 73
15
 74
0
 42
0.0000001
 43
0.0000001
 44
0.0000000001
 40
0.0
 40
0.0
 40
0.0
 40
0.0
 40
0.0286105674
 40
0.0579856588
 40
0.1181851821
 40
0.1795707632
 40
0.241643723
 40
0.3041462537
 40
0.3669329376
 40
0.4930317485
 40
0.6195439618
 40
0.7462742149
 40
0.8731147772
 40
1.0
 40
1.0
 40
1.0
 40
1.0
 10
38.0139578884
 20
95.8558880251
 30
0.0
 10
37.9734568124
 20
95.8161040679
 30
0.0
 10
37.89555472
 20
95.7311793151
 30
0.0
 10
37.7500198068
 20
95.5471250077
 30
0.0
 10
37.5836581874
 20
95.2974913898
 30
0.0
 10
37.4018188831
 20
94.9815124378
 30
0.0
 10
37.2324732259
 20
94.6535470316
 30
0.0
 10
37.0729771493
 20
94.3176575658
 30
0.0
 10
36.8706645997
 20
93.8616471756
 30
0.0
 10
36.6343954883
 20
93.2819622203
 30
0.0
 10
36.3698105534
 20
92.5771978802
 30
0.0
 10
36.1195254129
 20
91.8656865828
 30
0.0
 10
35.8806934463
 20
91.1494892322
 30
0.0
 10
35.7278208639
 20
90.6697721916
 30
0.0
 10
35.6527255695
 20
90.4294516922
 30
0.0
  0
SPLINE
  5
2A2
100
AcDbEntity
  8
0
100
AcDbSpline
 62
7
  6
BYLAYER
 70
0
 71
3
 72
15
 73
11
 74
0
 42
0.0000001
 43
0.0000001
 44
0.0000000001
 40
0.0
 40
0.0
 40
0.0
 40
0.0
 40
0.1441637358
 40
0.279712553
 40
0.4076071165
 40
0.5290175955
 40
0.6456029885
 40
0.7599603449
 40
0.8761616129
 40
1.0
 40
1.0
 40
1.0
 40
1.0
 10
38.0139578884
 20
95.8558880251
 30
0.0
 10
38.0474520632
 20
95.8887891466
 30
0.0
 10
38.1198051018
 20
95.9455124596
 30
0.0
 10
38.2391719667
 20
96.0052732341
 30
0.0
 10
38.3602884732
 20
96.0401315755
 30
0.0
 10
38.4795513994
 20
96.0518806527
 30
0.0
 10
38.594564913
 20
96.0410050124
 30
0.0
 10
38.7032192272
 20
96.0063825075
 30
0.0
 10
38.8026717235
 20
95.9455489577
 30
0.0
 10
38.8573529977
 20
95.8882379344
 30
0.0
 10
38.8814376867
 20
95.8558880251
 30
0.0
  0
ENDSEC
  0
SECTION
  2
OBJECTS
  0
DICTIONARY
  5
C
100
AcDbDictionary
280
0
281
1
  3
ACAD_GROUP
350
D
  3
ACAD_MLINESTYLE
350
17
  3
ACAD_LAYOUT
350
1A
  3
ACAD_PLOTSETTINGS
350
19
  3
ACAD_PLOTSTYLENAME
350
E
  0
DICTIONARY
  5
D
102
{ACAD_REACTORS
330
C
102
}
100
AcDbDictionary
280
0
281
1
  0
ACDBDICTIONARYWDFLT
  5
E
102
{ACAD_REACTORS
330
C
102
}
100
AcDbDictionary
281
1
  3
Normal
350
F
100
AcDbDictionaryWithDefault
340
F
  0
DICTIONARY
  5
17
102
{ACAD_REACTORS
330
C
102
}
100
AcDbDictionary
280
0
281
1
  3
Standard
350
18
  0
DICTIONARY
  5
19
102
{ACAD_REACTORS
330
C
102
}
100
AcDbDictionary
281
1
  0
DICTIONARY
  5
1A
102
{ACAD_REACTORS
330
C
102
}
100
AcDbDictionary
281
1
  3
Model
350
2A3
  3
Layout1
350
2A4
  0
ACDBPLACEHOLDER
  5
F
102
{ACAD_REACTORS
330
E
102
}
  0
MLINESTYLE
  5
18
102
{ACAD_REACTORS
330
17
102
}
100
AcDbMlineStyle
  2
STANDARD
 70
0
  3

 62
256
 51
90.0
 52
90.0
 71
2
 49
0.5
 62
256
  6
BYLAYER
 49
-0.5
 62
256
  6
BYLAYER
  0
LAYOUT
  5
2A3
102
{ACAD_REACTORS
330
1A
102
}
100
AcDbPlotSettings
  1

  2
none_device
  4

  6

 40
0.0
 41
0.0
 42
0.0
 43
0.0
 44
210.0
 45
297.0
 46
0.0
 47
0.0
 48
0.0
 49
0.0
140
0.0
141
0.0
142
1.0
143
1.0
 70
1024
 72
1
 73
0
 74
0
  7

 75
0
147
1.0
148
0.0
149
0.0
100
AcDbLayout
  1
Model
 70
0
 71
0
 10
0.0
 20
0.0
 11
210.0
 21
297.0
 12
0.0
 22
0.0
 32
0.0
 14
0.0
 24
0.0
 34
0.0
 15
0.0
 25
0.0
 35
0.0
146
0.0
 13
0.0
 23
0.0
 33
0.0
 16
1.0
 26
0.0
 36
0.0
 17
0.0
 27
1.0
 37
0.0
 76
0
330
210
345
0
346
0
  0
LAYOUT
  5
2A4
102
{ACAD_REACTORS
330
1A
102
}
100
AcDbPlotSettings
  1

  2
none_device
  4

  6

 40
0.0
 41
0.0
 42
0.0
 43
0.0
 44
210.0
 45
297.0
 46
0.0
 47
0.0
 48
0.0
 49
0.0
140
0.0
141
0.0
142
1.0
143
1.0
 70
0
 72
1
 73
0
 74
0
  7

 75
0
147
1.0
148
0.0
149
0.0
100
AcDbLayout
  1
Layout1
 70
0
 71
1
 10
0.0
 20
0.0
 11
210.0
 21
297.0
 12
0.0
 22
0.0
 32
0.0
 14
0.0
 24
0.0
 34
0.0
 15
0.0
 25
0.0
 35
0.0
146
0.0
 13
0.0
 23
0.0
 33
0.0
 16
1.0
 26
0.0
 36
0.0
 17
0.0
 27
1.0
 37
0.0
 76
0
330
211
345
0
346
0
  0
ENDSEC
  0
EOF
