  0
SECTION
  2
HEADER
  9
$ACADVER
  1
AC1006
  9
$EXTMIN
 10
-2.335000
 20
-4.059504
  9
$EXTMAX
 10
2.335000
 20
4.064000
  9
$LTSCALE
 40
0.000394
  9
$PDMODE
 70
    35
  9
$PDSIZE
 40
0.000315
  0
ENDSEC
  0
SECTION
  2
TABLES
  0
TABLE
  2
LTYPE
 70
     9
  0
LTYPE
  2
CONTINUOUS
 70
    64
  3
Solid line
 72
    65
 73
     0
 40
0.000000
  0
LTYPE
  2
DASHED
 70
    64
  3
__ __ __ __ __ __ __ __ __ __ __ __ __ __ __
 72
    65
 73
     2
 40
0.000003
 49
0.000002
 49
-0.000001
  0
LTYPE
  2
HIDDEN
 70
    64
  3
 _ _ _ _ _ _ _ _ _ _ _ _ _ _ _ _ _ _ _ _ _ _
 72
    65
 73
     2
 40
0.000001
 49
0.000001
 49
-0.000000
  0
LTYPE
  2
CENTER
 70
    64
  3
____ _ ____ _ ____ _ ____ _ ____ _ ____ _ ____
 72
    65
 73
     4
 40
0.000008
 49
0.000005
 49
-0.000001
 49
0.000001
 49
-0.000001
  0
LTYPE
  2
PHANTOM
 70
    64
  3
_____ _ _ _____ _ _ _____ _ _ _____ _ _ ____
 72
    65
 73
     6
 40
0.000010
 49
0.000005
 49
-0.000001
 49
0.000001
 49
-0.000001
 49
0.000001
 49
-0.000001
  0
LTYPE
  2
DOT
 70
    64
  3
...............................................
 72
    65
 73
     2
 40
0.000001
 49
0.000000
 49
-0.000001
  0
LTYPE
  2
DASHDOT
 70
    64
  3
__ . __ . __ . __ . __ . __ . __ . __ . __ . __
 72
    65
 73
     4
 40
0.000004
 49
0.000002
 49
-0.000001
 49
0.000000
 49
-0.000001
  0
LTYPE
  2
BORDER
 70
    64
  3
__ __ . __ __ . __ __ . __ __ . __ __ . __ __
 72
    65
 73
     6
 40
0.000007
 49
0.000002
 49
-0.000001
 49
0.000002
 49
-0.000001
 49
0.000000
 49
-0.000001
  0
LTYPE
  2
DIVIDE
 70
    64
  3
__ . . __ . . __ . . __ . . __ . . __ . . __
 72
    65
 73
     6
 40
0.000005
 49
0.000002
 49
-0.000001
 49
0.000000
 49
-0.000001
 49
0.000000
 49
-0.000001
  0
LTYPE
  2
DOTDOT
 70
    64
  3
 . .  . .  . .  . .  . .  . . 
 72
    65
 73
     5
 40
0.000002
 49
-0.000001
 49
0.000000
 49
-0.000001
 49
0.000000
 49
-0.000001
  0
ENDTAB
  0
TABLE
  2
STYLE
 70
     0
  0
ENDTAB
  0
TABLE
  2
LAYER
 70
     3
  0
LAYER
  2
FOREGROUND
 70
    64
 62
     7
  6
CONTINUOUS
  0
LAYER
  2
BACKGROUND
 70
    65
 62
    -7
  6
CONTINUOUS
  0
LAYER
  2
PLAN_1
 70
    64
 62
     7
  6
CONTINUOUS
  0
ENDTAB
  0
ENDSEC
  0
SECTION
  2
ENTITIES
  0
POLYLINE
  8
PLAN_1
  6
CONTINUOUS
 66
     1
 40
0.003000
 41
0.003000
  0
VERTEX
  8
PLAN_1
  6
CONTINUOUS
 10
0.271122
 20
-4.054429
  0
VERTEX
  8
PLAN_1
  6
CONTINUOUS
 10
0.237614
 20
-4.054429
  0
VERTEX
  8
PLAN_1
  6
CONTINUOUS
 10
0.183795
 20
-3.972177
  0
VERTEX
  8
PLAN_1
  6
CONTINUOUS
 10
0.128961
 20
-4.054429
  0
VERTEX
  8
PLAN_1
  6
CONTINUOUS
 10
0.096469
 20
-4.054429
  0
VERTEX
  8
PLAN_1
  6
CONTINUOUS
 10
0.167547
 20
-3.951870
  0
VERTEX
  8
PLAN_1
  6
CONTINUOUS
 10
0.100528
 20
-3.854894
  0
VERTEX
  8
PLAN_1
  6
CONTINUOUS
 10
0.134547
 20
-3.854894
  0
VERTEX
  8
PLAN_1
  6
CONTINUOUS
 10
0.185319
 20
-3.931051
  0
VERTEX
  8
PLAN_1
  6
CONTINUOUS
 10
0.235583
 20
-3.854894
  0
VERTEX
  8
PLAN_1
  6
CONTINUOUS
 10
0.267567
 20
-3.854894
  0
VERTEX
  8
PLAN_1
  6
CONTINUOUS
 10
0.201055
 20
-3.951870
  0
VERTEX
  8
PLAN_1
  6
CONTINUOUS
 10
0.271122
 20
-4.054429
  0
SEQEND
  8
0
  0
POLYLINE
  8
PLAN_1
  6
CONTINUOUS
 66
     1
 40
0.003000
 41
0.003000
  0
VERTEX
  8
PLAN_1
  6
CONTINUOUS
 10
0.437146
 20
-3.914807
  0
VERTEX
  8
PLAN_1
  6
CONTINUOUS
 10
0.435622
 20
-3.908713
  0
VERTEX
  8
PLAN_1
  6
CONTINUOUS
 10
0.433591
 20
-3.903126
  0
VERTEX
  8
PLAN_1
  6
CONTINUOUS
 10
0.431055
 20
-3.898051
  0
VERTEX
  8
PLAN_1
  6
CONTINUOUS
 10
0.428008
 20
-3.893480
  0
VERTEX
  8
PLAN_1
  6
CONTINUOUS
 10
0.424961
 20
-3.889925
  0
VERTEX
  8
PLAN_1
  6
CONTINUOUS
 10
0.421406
 20
-3.886374
  0
VERTEX
  8
PLAN_1
  6
CONTINUOUS
 10
0.417854
 20
-3.883327
  0
VERTEX
  8
PLAN_1
  6
CONTINUOUS
 10
0.413791
 20
-3.881295
  0
VERTEX
  8
PLAN_1
  6
CONTINUOUS
 10
0.409728
 20
-3.879264
  0
VERTEX
  8
PLAN_1
  6
CONTINUOUS
 10
0.405669
 20
-3.877232
  0
VERTEX
  8
PLAN_1
  6
CONTINUOUS
 10
0.401606
 20
-3.876220
  0
VERTEX
  8
PLAN_1
  6
CONTINUOUS
 10
0.397035
 20
-3.875205
  0
VERTEX
  8
PLAN_1
  6
CONTINUOUS
 10
0.388913
 20
-3.873681
  0
VERTEX
  8
PLAN_1
  6
CONTINUOUS
 10
0.381295
 20
-3.873681
  0
VERTEX
  8
PLAN_1
  6
CONTINUOUS
 10
0.374697
 20
-3.873681
  0
VERTEX
  8
PLAN_1
  6
CONTINUOUS
 10
0.368094
 20
-3.874697
  0
VERTEX
  8
PLAN_1
  6
CONTINUOUS
 10
0.362004
 20
-3.876220
  0
VERTEX
  8
PLAN_1
  6
CONTINUOUS
 10
0.355909
 20
-3.878756
  0
VERTEX
  8
PLAN_1
  6
CONTINUOUS
 10
0.350327
 20
-3.881295
  0
VERTEX
  8
PLAN_1
  6
CONTINUOUS
 10
0.344740
 20
-3.884850
  0
VERTEX
  8
PLAN_1
  6
CONTINUOUS
 10
0.340173
 20
-3.888913
  0
VERTEX
  8
PLAN_1
  6
CONTINUOUS
 10
0.335094
 20
-3.893480
  0
VERTEX
  8
PLAN_1
  6
CONTINUOUS
 10
0.331031
 20
-3.898559
  0
VERTEX
  8
PLAN_1
  6
CONTINUOUS
 10
0.327480
 20
-3.904650
  0
VERTEX
  8
PLAN_1
  6
CONTINUOUS
 10
0.323925
 20
-3.911252
  0
VERTEX
  8
PLAN_1
  6
CONTINUOUS
 10
0.321386
 20
-3.918358
  0
VERTEX
  8
PLAN_1
  6
CONTINUOUS
 10
0.319354
 20
-3.925976
  0
VERTEX
  8
PLAN_1
  6
CONTINUOUS
 10
0.317323
 20
-3.934098
  0
VERTEX
  8
PLAN_1
  6
CONTINUOUS
 10
0.316307
 20
-3.943236
  0
VERTEX
  8
PLAN_1
  6
CONTINUOUS
 10
0.316307
 20
-3.952886
  0
VERTEX
  8
PLAN_1
  6
CONTINUOUS
 10
0.316307
 20
-3.961516
  0
VERTEX
  8
PLAN_1
  6
CONTINUOUS
 10
0.316815
 20
-3.969638
  0
VERTEX
  8
PLAN_1
  6
CONTINUOUS
 10
0.317831
 20
-3.977764
  0
VERTEX
  8
PLAN_1
  6
CONTINUOUS
 10
0.319354
 20
-3.985378
  0
VERTEX
  8
PLAN_1
  6
CONTINUOUS
 10
0.321386
 20
-3.992484
  0
VERTEX
  8
PLAN_1
  6
CONTINUOUS
 10
0.323925
 20
-3.999594
  0
VERTEX
  8
PLAN_1
  6
CONTINUOUS
 10
0.326972
 20
-4.005685
  0
VERTEX
  8
PLAN_1
  6
CONTINUOUS
 10
0.330524
 20
-4.011780
  0
VERTEX
  8
PLAN_1
  6
CONTINUOUS
 10
0.335094
 20
-4.016858
  0
VERTEX
  8
PLAN_1
  6
CONTINUOUS
 10
0.339665
 20
-4.021933
  0
VERTEX
  8
PLAN_1
  6
CONTINUOUS
 10
0.345248
 20
-4.025996
  0
VERTEX
  8
PLAN_1
  6
CONTINUOUS
 10
0.351343
 20
-4.029043
  0
VERTEX
  8
PLAN_1
  6
CONTINUOUS
 10
0.357941
 20
-4.032087
  0
VERTEX
  8
PLAN_1
  6
CONTINUOUS
 10
0.365051
 20
-4.034118
  0
VERTEX
  8
PLAN_1
  6
CONTINUOUS
 10
0.373173
 20
-4.035134
  0
VERTEX
  8
PLAN_1
  6
CONTINUOUS
 10
0.382311
 20
-4.035642
  0
VERTEX
  8
PLAN_1
  6
CONTINUOUS
 10
0.389421
 20
-4.035134
  0
VERTEX
  8
PLAN_1
  6
CONTINUOUS
 10
0.397035
 20
-4.033610
  0
VERTEX
  8
PLAN_1
  6
CONTINUOUS
 10
0.401606
 20
-4.032087
  0
VERTEX
  8
PLAN_1
  6
CONTINUOUS
 10
0.405669
 20
-4.030567
  0
VERTEX
  8
PLAN_1
  6
CONTINUOUS
 10
0.409728
 20
-4.028535
  0
VERTEX
  8
PLAN_1
  6
CONTINUOUS
 10
0.413791
 20
-4.025488
  0
VERTEX
  8
PLAN_1
  6
CONTINUOUS
 10
0.417854
 20
-4.022441
  0
VERTEX
  8
PLAN_1
  6
CONTINUOUS
 10
0.421913
 20
-4.018378
  0
VERTEX
  8
PLAN_1
  6
CONTINUOUS
 10
0.425469
 20
-4.014319
  0
VERTEX
  8
PLAN_1
  6
CONTINUOUS
 10
0.429024
 20
-4.009240
  0
VERTEX
  8
PLAN_1
  6
CONTINUOUS
 10
0.432071
 20
-4.003150
  0
VERTEX
  8
PLAN_1
  6
CONTINUOUS
 10
0.434606
 20
-3.996547
  0
VERTEX
  8
PLAN_1
  6
CONTINUOUS
 10
0.437146
 20
-3.989441
  0
VERTEX
  8
PLAN_1
  6
CONTINUOUS
 10
0.439177
 20
-3.980807
  0
VERTEX
  8
PLAN_1
  6
CONTINUOUS
 10
0.465071
 20
-3.980807
  0
VERTEX
  8
PLAN_1
  6
CONTINUOUS
 10
0.464055
 20
-3.987917
  0
VERTEX
  8
PLAN_1
  6
CONTINUOUS
 10
0.462531
 20
-3.994008
  0
VERTEX
  8
PLAN_1
  6
CONTINUOUS
 10
0.461008
 20
-4.000102
  0
VERTEX
  8
PLAN_1
  6
CONTINUOUS
 10
0.458976
 20
-4.005685
  0
VERTEX
  8
PLAN_1
  6
CONTINUOUS
 10
0.456949
 20
-4.011272
  0
VERTEX
  8
PLAN_1
  6
CONTINUOUS
 10
0.454409
 20
-4.016350
  0
VERTEX
  8
PLAN_1
  6
CONTINUOUS
 10
0.451870
 20
-4.020917
  0
VERTEX
  8
PLAN_1
  6
CONTINUOUS
 10
0.448823
 20
-4.024980
  0
VERTEX
  8
PLAN_1
  6
CONTINUOUS
 10
0.446283
 20
-4.029043
  0
VERTEX
  8
PLAN_1
  6
CONTINUOUS
 10
0.443240
 20
-4.032594
  0
VERTEX
  8
PLAN_1
  6
CONTINUOUS
 10
0.440193
 20
-4.035642
  0
VERTEX
  8
PLAN_1
  6
CONTINUOUS
 10
0.436638
 20
-4.038689
  0
VERTEX
  8
PLAN_1
  6
CONTINUOUS
 10
0.430039
 20
-4.044272
  0
VERTEX
  8
PLAN_1
  6
CONTINUOUS
 10
0.422929
 20
-4.048335
  0
VERTEX
  8
PLAN_1
  6
CONTINUOUS
 10
0.416331
 20
-4.051890
  0
VERTEX
  8
PLAN_1
  6
CONTINUOUS
 10
0.409220
 20
-4.054429
  0
VERTEX
  8
PLAN_1
  6
CONTINUOUS
 10
0.402622
 20
-4.056461
  0
VERTEX
  8
PLAN_1
  6
CONTINUOUS
 10
0.396528
 20
-4.057980
  0
VERTEX
  8
PLAN_1
  6
CONTINUOUS
 10
0.385866
 20
-4.058996
  0
VERTEX
  8
PLAN_1
  6
CONTINUOUS
 10
0.378252
 20
-4.059504
  0
VERTEX
  8
PLAN_1
  6
CONTINUOUS
 10
0.369618
 20
-4.058996
  0
VERTEX
  8
PLAN_1
  6
CONTINUOUS
 10
0.361496
 20
-4.057980
  0
VERTEX
  8
PLAN_1
  6
CONTINUOUS
 10
0.352866
 20
-4.056461
  0
VERTEX
  8
PLAN_1
  6
CONTINUOUS
 10
0.345248
 20
-4.053921
  0
VERTEX
  8
PLAN_1
  6
CONTINUOUS
 10
0.337126
 20
-4.050366
  0
VERTEX
  8
PLAN_1
  6
CONTINUOUS
 10
0.330016
 20
-4.046303
  0
VERTEX
  8
PLAN_1
  6
CONTINUOUS
 10
0.322909
 20
-4.041228
  0
VERTEX
  8
PLAN_1
  6
CONTINUOUS
 10
0.316307
 20
-4.035134
  0
VERTEX
  8
PLAN_1
  6
CONTINUOUS
 10
0.313264
 20
-4.032087
  0
VERTEX
  8
PLAN_1
  6
CONTINUOUS
 10
0.310217
 20
-4.028535
  0
VERTEX
  8
PLAN_1
  6
CONTINUOUS
 10
0.307677
 20
-4.024472
  0
VERTEX
  8
PLAN_1
  6
CONTINUOUS
 10
0.305138
 20
-4.020917
  0
VERTEX
  8
PLAN_1
  6
CONTINUOUS
 10
0.302602
 20
-4.016350
  0
VERTEX
  8
PLAN_1
  6
CONTINUOUS
 10
0.300063
 20
-4.011780
  0
VERTEX
  8
PLAN_1
  6
CONTINUOUS
 10
0.298031
 20
-4.007209
  0
VERTEX
  8
PLAN_1
  6
CONTINUOUS
 10
0.296000
 20
-4.002134
  0
VERTEX
  8
PLAN_1
  6
CONTINUOUS
 10
0.294476
 20
-3.997055
  0
VERTEX
  8
PLAN_1
  6
CONTINUOUS
 10
0.292953
 20
-3.991472
  0
VERTEX
  8
PLAN_1
  6
CONTINUOUS
 10
0.291429
 20
-3.985886
  0
VERTEX
  8
PLAN_1
  6
CONTINUOUS
 10
0.290413
 20
-3.979791
  0
VERTEX
  8
PLAN_1
  6
CONTINUOUS
 10
0.289402
 20
-3.973701
  0
VERTEX
  8
PLAN_1
  6
CONTINUOUS
 10
0.288894
 20
-3.967098
  0
VERTEX
  8
PLAN_1
  6
CONTINUOUS
 10
0.288386
 20
-3.960500
  0
VERTEX
  8
PLAN_1
  6
CONTINUOUS
 10
0.288386
 20
-3.953394
  0
VERTEX
  8
PLAN_1
  6
CONTINUOUS
 10
0.288894
 20
-3.942220
  0
VERTEX
  8
PLAN_1
  6
CONTINUOUS
 10
0.289909
 20
-3.931559
  0
VERTEX
  8
PLAN_1
  6
CONTINUOUS
 10
0.291937
 20
-3.920898
  0
VERTEX
  8
PLAN_1
  6
CONTINUOUS
 10
0.294984
 20
-3.911252
  0
VERTEX
  8
PLAN_1
  6
CONTINUOUS
 10
0.298539
 20
-3.902110
  0
VERTEX
  8
PLAN_1
  6
CONTINUOUS
 10
0.302602
 20
-3.893480
  0
VERTEX
  8
PLAN_1
  6
CONTINUOUS
 10
0.307677
 20
-3.885866
  0
VERTEX
  8
PLAN_1
  6
CONTINUOUS
 10
0.313264
 20
-3.878756
  0
VERTEX
  8
PLAN_1
  6
CONTINUOUS
 10
0.319354
 20
-3.872157
  0
VERTEX
  8
PLAN_1
  6
CONTINUOUS
 10
0.326465
 20
-3.866571
  0
VERTEX
  8
PLAN_1
  6
CONTINUOUS
 10
0.330016
 20
-3.863524
  0
VERTEX
  8
PLAN_1
  6
CONTINUOUS
 10
0.334079
 20
-3.861496
  0
VERTEX
  8
PLAN_1
  6
CONTINUOUS
 10
0.338142
 20
-3.859465
  0
VERTEX
  8
PLAN_1
  6
CONTINUOUS
 10
0.342201
 20
-3.857433
  0
VERTEX
  8
PLAN_1
  6
CONTINUOUS
 10
0.346772
 20
-3.855402
  0
VERTEX
  8
PLAN_1
  6
CONTINUOUS
 10
0.351343
 20
-3.853878
  0
VERTEX
  8
PLAN_1
  6
CONTINUOUS
 10
0.355909
 20
-3.852862
  0
VERTEX
  8
PLAN_1
  6
CONTINUOUS
 10
0.360988
 20
-3.851846
  0
VERTEX
  8
PLAN_1
  6
CONTINUOUS
 10
0.370634
 20
-3.850327
  0
VERTEX
  8
PLAN_1
  6
CONTINUOUS
 10
0.381295
 20
-3.849819
  0
VERTEX
  8
PLAN_1
  6
CONTINUOUS
 10
0.390945
 20
-3.849819
  0
VERTEX
  8
PLAN_1
  6
CONTINUOUS
 10
0.399575
 20
-3.851339
  0
VERTEX
  8
PLAN_1
  6
CONTINUOUS
 10
0.407697
 20
-3.852862
  0
VERTEX
  8
PLAN_1
  6
CONTINUOUS
 10
0.415315
 20
-3.855402
  0
VERTEX
  8
PLAN_1
  6
CONTINUOUS
 10
0.422421
 20
-3.857941
  0
VERTEX
  8
PLAN_1
  6
CONTINUOUS
 10
0.429024
 20
-3.861496
  0
VERTEX
  8
PLAN_1
  6
CONTINUOUS
 10
0.434606
 20
-3.865555
  0
VERTEX
  8
PLAN_1
  6
CONTINUOUS
 10
0.440193
 20
-3.869618
  0
VERTEX
  8
PLAN_1
  6
CONTINUOUS
 10
0.444764
 20
-3.874697
  0
VERTEX
  8
PLAN_1
  6
CONTINUOUS
 10
0.449331
 20
-3.879772
  0
VERTEX
  8
PLAN_1
  6
CONTINUOUS
 10
0.452886
 20
-3.884850
  0
VERTEX
  8
PLAN_1
  6
CONTINUOUS
 10
0.455933
 20
-3.890433
  0
VERTEX
  8
PLAN_1
  6
CONTINUOUS
 10
0.458469
 20
-3.896528
  0
VERTEX
  8
PLAN_1
  6
CONTINUOUS
 10
0.461008
 20
-3.902618
  0
VERTEX
  8
PLAN_1
  6
CONTINUOUS
 10
0.462531
 20
-3.908713
  0
VERTEX
  8
PLAN_1
  6
CONTINUOUS
 10
0.463547
 20
-3.914807
  0
VERTEX
  8
PLAN_1
  6
CONTINUOUS
 10
0.437146
 20
-3.914807
  0
SEQEND
  8
0
  0
POLYLINE
  8
PLAN_1
  6
CONTINUOUS
 66
     1
 40
0.003000
 41
0.003000
  0
VERTEX
  8
PLAN_1
  6
CONTINUOUS
 10
0.524980
 20
-4.054429
  0
VERTEX
  8
PLAN_1
  6
CONTINUOUS
 10
0.498071
 20
-4.054429
  0
VERTEX
  8
PLAN_1
  6
CONTINUOUS
 10
0.498071
 20
-3.854894
  0
VERTEX
  8
PLAN_1
  6
CONTINUOUS
 10
0.524980
 20
-3.854894
  0
VERTEX
  8
PLAN_1
  6
CONTINUOUS
 10
0.524980
 20
-3.951362
  0
VERTEX
  8
PLAN_1
  6
CONTINUOUS
 10
0.621449
 20
-3.854894
  0
VERTEX
  8
PLAN_1
  6
CONTINUOUS
 10
0.658512
 20
-3.854894
  0
VERTEX
  8
PLAN_1
  6
CONTINUOUS
 10
0.575752
 20
-3.935622
  0
VERTEX
  8
PLAN_1
  6
CONTINUOUS
 10
0.660543
 20
-4.054429
  0
VERTEX
  8
PLAN_1
  6
CONTINUOUS
 10
0.626016
 20
-4.054429
  0
VERTEX
  8
PLAN_1
  6
CONTINUOUS
 10
0.555953
 20
-3.954406
  0
VERTEX
  8
PLAN_1
  6
CONTINUOUS
 10
0.524980
 20
-3.984362
  0
VERTEX
  8
PLAN_1
  6
CONTINUOUS
 10
0.524980
 20
-4.054429
  0
SEQEND
  8
0
  0
POLYLINE
  8
PLAN_1
  6
CONTINUOUS
 66
     1
 40
0.003000
 41
0.003000
  0
VERTEX
  8
PLAN_1
  6
CONTINUOUS
 10
0.846874
 20
-4.054429
  0
VERTEX
  8
PLAN_1
  6
CONTINUOUS
 10
0.846874
 20
-3.936638
  0
VERTEX
  8
PLAN_1
  6
CONTINUOUS
 10
0.847382
 20
-3.933591
  0
VERTEX
  8
PLAN_1
  6
CONTINUOUS
 10
0.847382
 20
-3.929020
  0
VERTEX
  8
PLAN_1
  6
CONTINUOUS
 10
0.847382
 20
-3.922929
  0
VERTEX
  8
PLAN_1
  6
CONTINUOUS
 10
0.847382
 20
-3.916327
  0
VERTEX
  8
PLAN_1
  6
CONTINUOUS
 10
0.847382
 20
-3.909220
  0
VERTEX
  8
PLAN_1
  6
CONTINUOUS
 10
0.847382
 20
-3.901606
  0
VERTEX
  8
PLAN_1
  6
CONTINUOUS
 10
0.847890
 20
-3.893988
  0
VERTEX
  8
PLAN_1
  6
CONTINUOUS
 10
0.847890
 20
-3.886882
  0
VERTEX
  8
PLAN_1
  6
CONTINUOUS
 10
0.846874
 20
-3.886882
  0
VERTEX
  8
PLAN_1
  6
CONTINUOUS
 10
0.791028
 20
-4.054429
  0
VERTEX
  8
PLAN_1
  6
CONTINUOUS
 10
0.764626
 20
-4.054429
  0
VERTEX
  8
PLAN_1
  6
CONTINUOUS
 10
0.708268
 20
-3.886882
  0
VERTEX
  8
PLAN_1
  6
CONTINUOUS
 10
0.707760
 20
-3.886882
  0
VERTEX
  8
PLAN_1
  6
CONTINUOUS
 10
0.707760
 20
-3.894496
  0
VERTEX
  8
PLAN_1
  6
CONTINUOUS
 10
0.707760
 20
-3.901606
  0
VERTEX
  8
PLAN_1
  6
CONTINUOUS
 10
0.707760
 20
-3.909220
  0
VERTEX
  8
PLAN_1
  6
CONTINUOUS
 10
0.708268
 20
-3.916327
  0
VERTEX
  8
PLAN_1
  6
CONTINUOUS
 10
0.708268
 20
-3.922929
  0
VERTEX
  8
PLAN_1
  6
CONTINUOUS
 10
0.708268
 20
-3.929020
  0
VERTEX
  8
PLAN_1
  6
CONTINUOUS
 10
0.708268
 20
-3.933591
  0
VERTEX
  8
PLAN_1
  6
CONTINUOUS
 10
0.708268
 20
-3.936638
  0
VERTEX
  8
PLAN_1
  6
CONTINUOUS
 10
0.708268
 20
-4.054429
  0
VERTEX
  8
PLAN_1
  6
CONTINUOUS
 10
0.682374
 20
-4.054429
  0
VERTEX
  8
PLAN_1
  6
CONTINUOUS
 10
0.682374
 20
-3.854894
  0
VERTEX
  8
PLAN_1
  6
CONTINUOUS
 10
0.720961
 20
-3.854894
  0
VERTEX
  8
PLAN_1
  6
CONTINUOUS
 10
0.777827
 20
-4.023457
  0
VERTEX
  8
PLAN_1
  6
CONTINUOUS
 10
0.778335
 20
-4.023457
  0
VERTEX
  8
PLAN_1
  6
CONTINUOUS
 10
0.834689
 20
-3.854894
  0
VERTEX
  8
PLAN_1
  6
CONTINUOUS
 10
0.873276
 20
-3.854894
  0
VERTEX
  8
PLAN_1
  6
CONTINUOUS
 10
0.873276
 20
-4.054429
  0
VERTEX
  8
PLAN_1
  6
CONTINUOUS
 10
0.846874
 20
-4.054429
  0
SEQEND
  8
0
  0
POLYLINE
  8
PLAN_1
  6
CONTINUOUS
 66
     1
 40
0.003000
 41
0.003000
  0
VERTEX
  8
PLAN_1
  6
CONTINUOUS
 10
1.076874
 20
-3.900083
  0
VERTEX
  8
PLAN_1
  6
CONTINUOUS
 10
1.095657
 20
-3.900083
  0
VERTEX
  8
PLAN_1
  6
CONTINUOUS
 10
1.091594
 20
-3.914807
  0
VERTEX
  8
PLAN_1
  6
CONTINUOUS
 10
1.087535
 20
-3.929528
  0
VERTEX
  8
PLAN_1
  6
CONTINUOUS
 10
1.083472
 20
-3.943744
  0
VERTEX
  8
PLAN_1
  6
CONTINUOUS
 10
1.079409
 20
-3.956945
  0
VERTEX
  8
PLAN_1
  6
CONTINUOUS
 10
1.075858
 20
-3.968622
  0
VERTEX
  8
PLAN_1
  6
CONTINUOUS
 10
1.073319
 20
-3.978780
  0
VERTEX
  8
PLAN_1
  6
CONTINUOUS
 10
1.071795
 20
-3.985886
  0
VERTEX
  8
PLAN_1
  6
CONTINUOUS
 10
1.070780
 20
-3.990457
  0
VERTEX
  8
PLAN_1
  6
CONTINUOUS
 10
1.070780
 20
-3.992484
  0
VERTEX
  8
PLAN_1
  6
CONTINUOUS
 10
1.071287
 20
-3.994008
  0
VERTEX
  8
PLAN_1
  6
CONTINUOUS
 10
1.071795
 20
-3.995024
  0
VERTEX
  8
PLAN_1
  6
CONTINUOUS
 10
1.072303
 20
-3.996547
  0
VERTEX
  8
PLAN_1
  6
CONTINUOUS
 10
1.072811
 20
-3.997055
  0
VERTEX
  8
PLAN_1
  6
CONTINUOUS
 10
1.073827
 20
-3.998071
  0
VERTEX
  8
PLAN_1
  6
CONTINUOUS
 10
1.075350
 20
-3.998071
  0
VERTEX
  8
PLAN_1
  6
CONTINUOUS
 10
1.076874
 20
-3.998579
  0
VERTEX
  8
PLAN_1
  6
CONTINUOUS
 10
1.080425
 20
-3.998071
  0
VERTEX
  8
PLAN_1
  6
CONTINUOUS
 10
1.083980
 20
-3.997055
  0
VERTEX
  8
PLAN_1
  6
CONTINUOUS
 10
1.087535
 20
-3.995531
  0
VERTEX
  8
PLAN_1
  6
CONTINUOUS
 10
1.091087
 20
-3.993500
  0
VERTEX
  8
PLAN_1
  6
CONTINUOUS
 10
1.094134
 20
-3.990457
  0
VERTEX
  8
PLAN_1
  6
CONTINUOUS
 10
1.097689
 20
-3.987409
  0
VERTEX
  8
PLAN_1
  6
CONTINUOUS
 10
1.100736
 20
-3.983854
  0
VERTEX
  8
PLAN_1
  6
CONTINUOUS
 10
1.103272
 20
-3.979791
  0
VERTEX
  8
PLAN_1
  6
CONTINUOUS
 10
1.106319
 20
-3.975224
  0
VERTEX
  8
PLAN_1
  6
CONTINUOUS
 10
1.108858
 20
-3.970654
  0
VERTEX
  8
PLAN_1
  6
CONTINUOUS
 10
1.110890
 20
-3.965579
  0
VERTEX
  8
PLAN_1
  6
CONTINUOUS
 10
1.112413
 20
-3.960500
  0
VERTEX
  8
PLAN_1
  6
CONTINUOUS
 10
1.113937
 20
-3.954913
  0
VERTEX
  8
PLAN_1
  6
CONTINUOUS
 10
1.115461
 20
-3.949839
  0
VERTEX
  8
PLAN_1
  6
CONTINUOUS
 10
1.115965
 20
-3.944252
  0
VERTEX
  8
PLAN_1
  6
CONTINUOUS
 10
1.115965
 20
-3.938669
  0
VERTEX
  8
PLAN_1
  6
CONTINUOUS
 10
1.115965
 20
-3.930543
  0
VERTEX
  8
PLAN_1
  6
CONTINUOUS
 10
1.114445
 20
-3.922421
  0
VERTEX
  8
PLAN_1
  6
CONTINUOUS
 10
1.112413
 20
-3.915311
  0
VERTEX
  8
PLAN_1
  6
CONTINUOUS
 10
1.109874
 20
-3.908713
  0
VERTEX
  8
PLAN_1
  6
CONTINUOUS
 10
1.106827
 20
-3.902110
  0
VERTEX
  8
PLAN_1
  6
CONTINUOUS
 10
1.102768
 20
-3.896528
  0
VERTEX
  8
PLAN_1
  6
CONTINUOUS
 10
1.098197
 20
-3.890941
  0
VERTEX
  8
PLAN_1
  6
CONTINUOUS
 10
1.093118
 20
-3.885866
  0
VERTEX
  8
PLAN_1
  6
CONTINUOUS
 10
1.087535
 20
-3.881803
  0
VERTEX
  8
PLAN_1
  6
CONTINUOUS
 10
1.081441
 20
-3.877740
  0
VERTEX
  8
PLAN_1
  6
CONTINUOUS
 10
1.075350
 20
-3.874697
  0
VERTEX
  8
PLAN_1
  6
CONTINUOUS
 10
1.068240
 20
-3.871650
  0
VERTEX
  8
PLAN_1
  6
CONTINUOUS
 10
1.061642
 20
-3.869618
  0
VERTEX
  8
PLAN_1
  6
CONTINUOUS
 10
1.054024
 20
-3.868094
  0
VERTEX
  8
PLAN_1
  6
CONTINUOUS
 10
1.046409
 20
-3.867079
  0
VERTEX
  8
PLAN_1
  6
CONTINUOUS
 10
1.038791
 20
-3.867079
  0
VERTEX
  8
PLAN_1
  6
CONTINUOUS
 10
1.029654
 20
-3.867079
  0
VERTEX
  8
PLAN_1
  6
CONTINUOUS
 10
1.021024
 20
-3.868602
  0
VERTEX
  8
PLAN_1
  6
CONTINUOUS
 10
1.012394
 20
-3.870634
  0
VERTEX
  8
PLAN_1
  6
CONTINUOUS
 10
1.004776
 20
-3.873681
  0
VERTEX
  8
PLAN_1
  6
CONTINUOUS
 10
0.997161
 20
-3.877740
  0
VERTEX
  8
PLAN_1
  6
CONTINUOUS
 10
0.990051
 20
-3.881803
  0
VERTEX
  8
PLAN_1
  6
CONTINUOUS
 10
0.983961
 20
-3.886882
  0
VERTEX
  8
PLAN_1
  6
CONTINUOUS
 10
0.977866
 20
-3.892972
  0
VERTEX
  8
PLAN_1
  6
CONTINUOUS
 10
0.972791
 20
-3.899067
  0
VERTEX
  8
PLAN_1
  6
CONTINUOUS
 10
0.968220
 20
-3.906173
  0
VERTEX
  8
PLAN_1
  6
CONTINUOUS
 10
0.964157
 20
-3.913283
  0
VERTEX
  8
PLAN_1
  6
CONTINUOUS
 10
0.960606
 20
-3.920898
  0
VERTEX
  8
PLAN_1
  6
CONTINUOUS
 10
0.958067
 20
-3.929020
  0
VERTEX
  8
PLAN_1
  6
CONTINUOUS
 10
0.956035
 20
-3.937654
  0
VERTEX
  8
PLAN_1
  6
CONTINUOUS
 10
0.954512
 20
-3.946791
  0
VERTEX
  8
PLAN_1
  6
CONTINUOUS
 10
0.954512
 20
-3.955929
  0
VERTEX
  8
PLAN_1
  6
CONTINUOUS
 10
0.954512
 20
-3.964563
  0
VERTEX
  8
PLAN_1
  6
CONTINUOUS
 10
0.956035
 20
-3.973701
  0
VERTEX
  8
PLAN_1
  6
CONTINUOUS
 10
0.958067
 20
-3.981823
  0
VERTEX
  8
PLAN_1
  6
CONTINUOUS
 10
0.961110
 20
-3.989949
  0
VERTEX
  8
PLAN_1
  6
CONTINUOUS
 10
0.964665
 20
-3.997563
  0
VERTEX
  8
PLAN_1
  6
CONTINUOUS
 10
0.968728
 20
-4.004673
  0
VERTEX
  8
PLAN_1
  6
CONTINUOUS
 10
0.973807
 20
-4.011272
  0
VERTEX
  8
PLAN_1
  6
CONTINUOUS
 10
0.979390
 20
-4.017366
  0
VERTEX
  8
PLAN_1
  6
CONTINUOUS
 10
0.985484
 20
-4.022949
  0
VERTEX
  8
PLAN_1
  6
CONTINUOUS
 10
0.992083
 20
-4.028028
  0
VERTEX
  8
PLAN_1
  6
CONTINUOUS
 10
0.999193
 20
-4.032087
  0
VERTEX
  8
PLAN_1
  6
CONTINUOUS
 10
1.006807
 20
-4.035642
  0
VERTEX
  8
PLAN_1
  6
CONTINUOUS
 10
1.014421
 20
-4.038689
  0
VERTEX
  8
PLAN_1
  6
CONTINUOUS
 10
1.023055
 20
-4.040720
  0
VERTEX
  8
PLAN_1
  6
CONTINUOUS
 10
1.031685
 20
-4.041736
  0
VERTEX
  8
PLAN_1
  6
CONTINUOUS
 10
1.040823
 20
-4.042244
  0
VERTEX
  8
PLAN_1
  6
CONTINUOUS
 10
1.045394
 20
-4.042244
  0
VERTEX
  8
PLAN_1
  6
CONTINUOUS
 10
1.050472
 20
-4.041736
  0
VERTEX
  8
PLAN_1
  6
CONTINUOUS
 10
1.055039
 20
-4.041228
  0
VERTEX
  8
PLAN_1
  6
CONTINUOUS
 10
1.059610
 20
-4.040213
  0
VERTEX
  8
PLAN_1
  6
CONTINUOUS
 10
1.064685
 20
-4.038689
  0
VERTEX
  8
PLAN_1
  6
CONTINUOUS
 10
1.069256
 20
-4.037165
  0
VERTEX
  8
PLAN_1
  6
CONTINUOUS
 10
1.073827
 20
-4.035642
  0
VERTEX
  8
PLAN_1
  6
CONTINUOUS
 10
1.077886
 20
-4.033610
  0
VERTEX
  8
PLAN_1
  6
CONTINUOUS
 10
1.082457
 20
-4.031579
  0
VERTEX
  8
PLAN_1
  6
CONTINUOUS
 10
1.086520
 20
-4.029043
  0
VERTEX
  8
PLAN_1
  6
CONTINUOUS
 10
1.090579
 20
-4.026504
  0
VERTEX
  8
PLAN_1
  6
CONTINUOUS
 10
1.094642
 20
-4.023965
  0
VERTEX
  8
PLAN_1
  6
CONTINUOUS
 10
1.098197
 20
-4.020917
  0
VERTEX
  8
PLAN_1
  6
CONTINUOUS
 10
1.101752
 20
-4.017366
  0
VERTEX
  8
PLAN_1
  6
CONTINUOUS
 10
1.104795
 20
-4.014319
  0
VERTEX
  8
PLAN_1
  6
CONTINUOUS
 10
1.108350
 20
-4.010764
  0
VERTEX
  8
PLAN_1
  6
CONTINUOUS
 10
1.126630
 20
-4.010764
  0
VERTEX
  8
PLAN_1
  6
CONTINUOUS
 10
1.123075
 20
-4.016350
  0
VERTEX
  8
PLAN_1
  6
CONTINUOUS
 10
1.119012
 20
-4.021425
  0
VERTEX
  8
PLAN_1
  6
CONTINUOUS
 10
1.114953
 20
-4.026504
  0
VERTEX
  8
PLAN_1
  6
CONTINUOUS
 10
1.110382
 20
-4.031075
  0
VERTEX
  8
PLAN_1
  6
CONTINUOUS
 10
1.105811
 20
-4.035642
  0
VERTEX
  8
PLAN_1
  6
CONTINUOUS
 10
1.100736
 20
-4.039197
  0
VERTEX
  8
PLAN_1
  6
CONTINUOUS
 10
1.095657
 20
-4.043260
  0
VERTEX
  8
PLAN_1
  6
CONTINUOUS
 10
1.090075
 20
-4.046303
  0
VERTEX
  8
PLAN_1
  6
CONTINUOUS
 10
1.084488
 20
-4.049350
  0
VERTEX
  8
PLAN_1
  6
CONTINUOUS
 10
1.078394
 20
-4.051890
  0
VERTEX
  8
PLAN_1
  6
CONTINUOUS
 10
1.072303
 20
-4.054429
  0
VERTEX
  8
PLAN_1
  6
CONTINUOUS
 10
1.066209
 20
-4.055953
  0
VERTEX
  8
PLAN_1
  6
CONTINUOUS
 10
1.059610
 20
-4.057472
  0
VERTEX
  8
PLAN_1
  6
CONTINUOUS
 10
1.053516
 20
-4.058488
  0
VERTEX
  8
PLAN_1
  6
CONTINUOUS
 10
1.046917
 20
-4.059504
  0
VERTEX
  8
PLAN_1
  6
CONTINUOUS
 10
1.040315
 20
-4.059504
  0
VERTEX
  8
PLAN_1
  6
CONTINUOUS
 10
1.034732
 20
-4.059504
  0
VERTEX
  8
PLAN_1
  6
CONTINUOUS
 10
1.029146
 20
-4.058996
  0
VERTEX
  8
PLAN_1
  6
CONTINUOUS
 10
1.023563
 20
-4.058488
  0
VERTEX
  8
PLAN_1
  6
CONTINUOUS
 10
1.018484
 20
-4.057472
  0
VERTEX
  8
PLAN_1
  6
CONTINUOUS
 10
1.013406
 20
-4.056461
  0
VERTEX
  8
PLAN_1
  6
CONTINUOUS
 10
1.008331
 20
-4.054937
  0
VERTEX
  8
PLAN_1
  6
CONTINUOUS
 10
1.003252
 20
-4.053413
  0
VERTEX
  8
PLAN_1
  6
CONTINUOUS
 10
0.998685
 20
-4.051382
  0
VERTEX
  8
PLAN_1
  6
CONTINUOUS
 10
0.989035
 20
-4.046811
  0
VERTEX
  8
PLAN_1
  6
CONTINUOUS
 10
0.980406
 20
-4.041736
  0
VERTEX
  8
PLAN_1
  6
CONTINUOUS
 10
0.972283
 20
-4.035642
  0
VERTEX
  8
PLAN_1
  6
CONTINUOUS
 10
0.964665
 20
-4.029043
  0
VERTEX
  8
PLAN_1
  6
CONTINUOUS
 10
0.958067
 20
-4.021425
  0
VERTEX
  8
PLAN_1
  6
CONTINUOUS
 10
0.951972
 20
-4.013303
  0
VERTEX
  8
PLAN_1
  6
CONTINUOUS
 10
0.946898
 20
-4.004673
  0
VERTEX
  8
PLAN_1
  6
CONTINUOUS
 10
0.942327
 20
-3.995531
  0
VERTEX
  8
PLAN_1
  6
CONTINUOUS
 10
0.940295
 20
-3.990457
  0
VERTEX
  8
PLAN_1
  6
CONTINUOUS
 10
0.938772
 20
-3.985886
  0
VERTEX
  8
PLAN_1
  6
CONTINUOUS
 10
0.937248
 20
-3.980807
  0
VERTEX
  8
PLAN_1
  6
CONTINUOUS
 10
0.936232
 20
-3.975732
  0
VERTEX
  8
PLAN_1
  6
CONTINUOUS
 10
0.935220
 20
-3.970146
  0
VERTEX
  8
PLAN_1
  6
CONTINUOUS
 10
0.934713
 20
-3.965071
  0
VERTEX
  8
PLAN_1
  6
CONTINUOUS
 10
0.934205
 20
-3.959484
  0
VERTEX
  8
PLAN_1
  6
CONTINUOUS
 10
0.934205
 20
-3.953898
  0
VERTEX
  8
PLAN_1
  6
CONTINUOUS
 10
0.934205
 20
-3.948823
  0
VERTEX
  8
PLAN_1
  6
CONTINUOUS
 10
0.934713
 20
-3.943236
  0
VERTEX
  8
PLAN_1
  6
CONTINUOUS
 10
0.935220
 20
-3.938161
  0
VERTEX
  8
PLAN_1
  6
CONTINUOUS
 10
0.936232
 20
-3.933083
  0
VERTEX
  8
PLAN_1
  6
CONTINUOUS
 10
0.937248
 20
-3.928004
  0
VERTEX
  8
PLAN_1
  6
CONTINUOUS
 10
0.938772
 20
-3.922929
  0
VERTEX
  8
PLAN_1
  6
CONTINUOUS
 10
0.940295
 20
-3.917850
  0
VERTEX
  8
PLAN_1
  6
CONTINUOUS
 10
0.942327
 20
-3.913283
  0
VERTEX
  8
PLAN_1
  6
CONTINUOUS
 10
0.946898
 20
-3.904142
  0
VERTEX
  8
PLAN_1
  6
CONTINUOUS
 10
0.951972
 20
-3.895512
  0
VERTEX
  8
PLAN_1
  6
CONTINUOUS
 10
0.958067
 20
-3.887390
  0
VERTEX
  8
PLAN_1
  6
CONTINUOUS
 10
0.965173
 20
-3.880280
  0
VERTEX
  8
PLAN_1
  6
CONTINUOUS
 10
0.972283
 20
-3.873173
  0
VERTEX
  8
PLAN_1
  6
CONTINUOUS
 10
0.980406
 20
-3.867587
  0
VERTEX
  8
PLAN_1
  6
CONTINUOUS
 10
0.989035
 20
-3.862004
  0
VERTEX
  8
PLAN_1
  6
CONTINUOUS
 10
0.998177
 20
-3.857941
  0
VERTEX
  8
PLAN_1
  6
CONTINUOUS
 10
1.007823
 20
-3.854386
  0
VERTEX
  8
PLAN_1
  6
CONTINUOUS
 10
1.017976
 20
-3.851846
  0
VERTEX
  8
PLAN_1
  6
CONTINUOUS
 10
1.023055
 20
-3.850831
  0
VERTEX
  8
PLAN_1
  6
CONTINUOUS
 10
1.028130
 20
-3.850327
  0
VERTEX
  8
PLAN_1
  6
CONTINUOUS
 10
1.033209
 20
-3.849819
  0
VERTEX
  8
PLAN_1
  6
CONTINUOUS
 10
1.038791
 20
-3.849819
  0
VERTEX
  8
PLAN_1
  6
CONTINUOUS
 10
1.048441
 20
-3.850327
  0
VERTEX
  8
PLAN_1
  6
CONTINUOUS
 10
1.057579
 20
-3.851339
  0
VERTEX
  8
PLAN_1
  6
CONTINUOUS
 10
1.066717
 20
-3.853370
  0
VERTEX
  8
PLAN_1
  6
CONTINUOUS
 10
1.075350
 20
-3.855909
  0
VERTEX
  8
PLAN_1
  6
CONTINUOUS
 10
1.083472
 20
-3.859465
  0
VERTEX
  8
PLAN_1
  6
CONTINUOUS
 10
1.091594
 20
-3.863524
  0
VERTEX
  8
PLAN_1
  6
CONTINUOUS
 10
1.098705
 20
-3.868602
  0
VERTEX
  8
PLAN_1
  6
CONTINUOUS
 10
1.105811
 20
-3.874189
  0
VERTEX
  8
PLAN_1
  6
CONTINUOUS
 10
1.111906
 20
-3.880280
  0
VERTEX
  8
PLAN_1
  6
CONTINUOUS
 10
1.117488
 20
-3.886882
  0
VERTEX
  8
PLAN_1
  6
CONTINUOUS
 10
1.122567
 20
-3.893988
  0
VERTEX
  8
PLAN_1
  6
CONTINUOUS
 10
1.126630
 20
-3.901606
  0
VERTEX
  8
PLAN_1
  6
CONTINUOUS
 10
1.129673
 20
-3.909728
  0
VERTEX
  8
PLAN_1
  6
CONTINUOUS
 10
1.132213
 20
-3.917850
  0
VERTEX
  8
PLAN_1
  6
CONTINUOUS
 10
1.133736
 20
-3.926992
  0
VERTEX
  8
PLAN_1
  6
CONTINUOUS
 10
1.134244
 20
-3.936130
  0
VERTEX
  8
PLAN_1
  6
CONTINUOUS
 10
1.133736
 20
-3.945268
  0
VERTEX
  8
PLAN_1
  6
CONTINUOUS
 10
1.132213
 20
-3.953898
  0
VERTEX
  8
PLAN_1
  6
CONTINUOUS
 10
1.130181
 20
-3.962531
  0
VERTEX
  8
PLAN_1
  6
CONTINUOUS
 10
1.127138
 20
-3.970146
  0
VERTEX
  8
PLAN_1
  6
CONTINUOUS
 10
1.123583
 20
-3.977256
  0
VERTEX
  8
PLAN_1
  6
CONTINUOUS
 10
1.119520
 20
-3.983854
  0
VERTEX
  8
PLAN_1
  6
CONTINUOUS
 10
1.114953
 20
-3.989949
  0
VERTEX
  8
PLAN_1
  6
CONTINUOUS
 10
1.110382
 20
-3.995024
  0
VERTEX
  8
PLAN_1
  6
CONTINUOUS
 10
1.105303
 20
-4.000102
  0
VERTEX
  8
PLAN_1
  6
CONTINUOUS
 10
1.099720
 20
-4.004165
  0
VERTEX
  8
PLAN_1
  6
CONTINUOUS
 10
1.094134
 20
-4.008224
  0
VERTEX
  8
PLAN_1
  6
CONTINUOUS
 10
1.088551
 20
-4.010764
  0
VERTEX
  8
PLAN_1
  6
CONTINUOUS
 10
1.082965
 20
-4.013303
  0
VERTEX
  8
PLAN_1
  6
CONTINUOUS
 10
1.077886
 20
-4.015335
  0
VERTEX
  8
PLAN_1
  6
CONTINUOUS
 10
1.072811
 20
-4.016350
  0
VERTEX
  8
PLAN_1
  6
CONTINUOUS
 10
1.067732
 20
-4.016350
  0
VERTEX
  8
PLAN_1
  6
CONTINUOUS
 10
1.064181
 20
-4.016350
  0
VERTEX
  8
PLAN_1
  6
CONTINUOUS
 10
1.061134
 20
-4.015335
  0
VERTEX
  8
PLAN_1
  6
CONTINUOUS
 10
1.058087
 20
-4.014319
  0
VERTEX
  8
PLAN_1
  6
CONTINUOUS
 10
1.055547
 20
-4.012287
  0
VERTEX
  8
PLAN_1
  6
CONTINUOUS
 10
1.053516
 20
-4.009748
  0
VERTEX
  8
PLAN_1
  6
CONTINUOUS
 10
1.051992
 20
-4.006701
  0
VERTEX
  8
PLAN_1
  6
CONTINUOUS
 10
1.050472
 20
-4.003150
  0
VERTEX
  8
PLAN_1
  6
CONTINUOUS
 10
1.049965
 20
-3.999087
  0
VERTEX
  8
PLAN_1
  6
CONTINUOUS
 10
1.049457
 20
-3.999087
  0
VERTEX
  8
PLAN_1
  6
CONTINUOUS
 10
1.046409
 20
-4.002642
  0
VERTEX
  8
PLAN_1
  6
CONTINUOUS
 10
1.042854
 20
-4.005685
  0
VERTEX
  8
PLAN_1
  6
CONTINUOUS
 10
1.038791
 20
-4.008732
  0
VERTEX
  8
PLAN_1
  6
CONTINUOUS
 10
1.034732
 20
-4.011272
  0
VERTEX
  8
PLAN_1
  6
CONTINUOUS
 10
1.030161
 20
-4.013303
  0
VERTEX
  8
PLAN_1
  6
CONTINUOUS
 10
1.025594
 20
-4.014827
  0
VERTEX
  8
PLAN_1
  6
CONTINUOUS
 10
1.021024
 20
-4.016350
  0
VERTEX
  8
PLAN_1
  6
CONTINUOUS
 10
1.016453
 20
-4.016350
  0
VERTEX
  8
PLAN_1
  6
CONTINUOUS
 10
1.011886
 20
-4.016350
  0
VERTEX
  8
PLAN_1
  6
CONTINUOUS
 10
1.007823
 20
-4.015335
  0
VERTEX
  8
PLAN_1
  6
CONTINUOUS
 10
1.003760
 20
-4.014319
  0
VERTEX
  8
PLAN_1
  6
CONTINUOUS
 10
0.999701
 20
-4.012795
  0
VERTEX
  8
PLAN_1
  6
CONTINUOUS
 10
0.996146
 20
-4.011272
  0
VERTEX
  8
PLAN_1
  6
CONTINUOUS
 10
0.992591
 20
-4.008732
  0
VERTEX
  8
PLAN_1
  6
CONTINUOUS
 10
0.989543
 20
-4.006193
  0
VERTEX
  8
PLAN_1
  6
CONTINUOUS
 10
0.987004
 20
-4.003150
  0
VERTEX
  8
PLAN_1
  6
CONTINUOUS
 10
0.984469
 20
-4.000102
  0
VERTEX
  8
PLAN_1
  6
CONTINUOUS
 10
0.981929
 20
-3.996547
  0
VERTEX
  8
PLAN_1
  6
CONTINUOUS
 10
0.979898
 20
-3.992992
  0
VERTEX
  8
PLAN_1
  6
CONTINUOUS
 10
0.978374
 20
-3.989441
  0
VERTEX
  8
PLAN_1
  6
CONTINUOUS
 10
0.977358
 20
-3.985378
  0
VERTEX
  8
PLAN_1
  6
CONTINUOUS
 10
0.976343
 20
-3.980807
  0
VERTEX
  8
PLAN_1
  6
CONTINUOUS
 10
0.975835
 20
-3.976748
  0
VERTEX
  8
PLAN_1
  6
CONTINUOUS
 10
0.975327
 20
-3.972177
  0
VERTEX
  8
PLAN_1
  6
CONTINUOUS
 10
0.975835
 20
-3.965071
  0
VERTEX
  8
PLAN_1
  6
CONTINUOUS
 10
0.976850
 20
-3.957961
  0
VERTEX
  8
PLAN_1
  6
CONTINUOUS
 10
0.977866
 20
-3.950854
  0
VERTEX
  8
PLAN_1
  6
CONTINUOUS
 10
0.979898
 20
-3.944252
  0
VERTEX
  8
PLAN_1
  6
CONTINUOUS
 10
0.982437
 20
-3.937654
  0
VERTEX
  8
PLAN_1
  6
CONTINUOUS
 10
0.985484
 20
-3.931559
  0
VERTEX
  8
PLAN_1
  6
CONTINUOUS
 10
0.989035
 20
-3.925469
  0
VERTEX
  8
PLAN_1
  6
CONTINUOUS
 10
0.993098
 20
-3.919882
  0
VERTEX
  8
PLAN_1
  6
CONTINUOUS
 10
0.997669
 20
-3.914299
  0
VERTEX
  8
PLAN_1
  6
CONTINUOUS
 10
1.002236
 20
-3.909728
  0
VERTEX
  8
PLAN_1
  6
CONTINUOUS
 10
1.007823
 20
-3.905665
  0
VERTEX
  8
PLAN_1
  6
CONTINUOUS
 10
1.013406
 20
-3.902110
  0
VERTEX
  8
PLAN_1
  6
CONTINUOUS
 10
1.019500
 20
-3.899575
  0
VERTEX
  8
PLAN_1
  6
CONTINUOUS
 10
1.025594
 20
-3.897035
  0
VERTEX
  8
PLAN_1
  6
CONTINUOUS
 10
1.032701
 20
-3.896020
  0
VERTEX
  8
PLAN_1
  6
CONTINUOUS
 10
1.039299
 20
-3.895512
  0
VERTEX
  8
PLAN_1
  6
CONTINUOUS
 10
1.044378
 20
-3.895512
  0
VERTEX
  8
PLAN_1
  6
CONTINUOUS
 10
1.048949
 20
-3.896528
  0
VERTEX
  8
PLAN_1
  6
CONTINUOUS
 10
1.053516
 20
-3.898051
  0
VERTEX
  8
PLAN_1
  6
CONTINUOUS
 10
1.057579
 20
-3.900591
  0
VERTEX
  8
PLAN_1
  6
CONTINUOUS
 10
1.061642
 20
-3.903634
  0
VERTEX
  8
PLAN_1
  6
CONTINUOUS
 10
1.065193
 20
-3.907189
  0
VERTEX
  8
PLAN_1
  6
CONTINUOUS
 10
1.068748
 20
-3.911760
  0
VERTEX
  8
PLAN_1
  6
CONTINUOUS
 10
1.071287
 20
-3.917343
  0
VERTEX
  8
PLAN_1
  6
CONTINUOUS
 10
1.076874
 20
-3.900083
  0
SEQEND
  8
0
  0
POLYLINE
  8
PLAN_1
  6
CONTINUOUS
 66
     1
 40
0.003000
 41
0.003000
  0
VERTEX
  8
PLAN_1
  6
CONTINUOUS
 10
1.040315
 20
-3.915311
  0
VERTEX
  8
PLAN_1
  6
CONTINUOUS
 10
1.035748
 20
-3.915819
  0
VERTEX
  8
PLAN_1
  6
CONTINUOUS
 10
1.031177
 20
-3.916835
  0
VERTEX
  8
PLAN_1
  6
CONTINUOUS
 10
1.027114
 20
-3.918358
  0
VERTEX
  8
PLAN_1
  6
CONTINUOUS
 10
1.023055
 20
-3.920898
  0
VERTEX
  8
PLAN_1
  6
CONTINUOUS
 10
1.019500
 20
-3.923437
  0
VERTEX
  8
PLAN_1
  6
CONTINUOUS
 10
1.015945
 20
-3.926484
  0
VERTEX
  8
PLAN_1
  6
CONTINUOUS
 10
1.012898
 20
-3.930035
  0
VERTEX
  8
PLAN_1
  6
CONTINUOUS
 10
1.009854
 20
-3.934098
  0
VERTEX
  8
PLAN_1
  6
CONTINUOUS
 10
1.007315
 20
-3.938161
  0
VERTEX
  8
PLAN_1
  6
CONTINUOUS
 10
1.004776
 20
-3.942220
  0
VERTEX
  8
PLAN_1
  6
CONTINUOUS
 10
1.002744
 20
-3.946791
  0
VERTEX
  8
PLAN_1
  6
CONTINUOUS
 10
1.001220
 20
-3.951362
  0
VERTEX
  8
PLAN_1
  6
CONTINUOUS
 10
0.999701
 20
-3.955929
  0
VERTEX
  8
PLAN_1
  6
CONTINUOUS
 10
0.999193
 20
-3.960500
  0
VERTEX
  8
PLAN_1
  6
CONTINUOUS
 10
0.998177
 20
-3.965071
  0
VERTEX
  8
PLAN_1
  6
CONTINUOUS
 10
0.998177
 20
-3.969638
  0
VERTEX
  8
PLAN_1
  6
CONTINUOUS
 10
0.998685
 20
-3.975224
  0
VERTEX
  8
PLAN_1
  6
CONTINUOUS
 10
0.999701
 20
-3.980299
  0
VERTEX
  8
PLAN_1
  6
CONTINUOUS
 10
1.001728
 20
-3.984870
  0
VERTEX
  8
PLAN_1
  6
CONTINUOUS
 10
1.004776
 20
-3.988933
  0
VERTEX
  8
PLAN_1
  6
CONTINUOUS
 10
1.006299
 20
-3.990457
  0
VERTEX
  8
PLAN_1
  6
CONTINUOUS
 10
1.007823
 20
-3.991980
  0
VERTEX
  8
PLAN_1
  6
CONTINUOUS
 10
1.009854
 20
-3.993500
  0
VERTEX
  8
PLAN_1
  6
CONTINUOUS
 10
1.011886
 20
-3.994516
  0
VERTEX
  8
PLAN_1
  6
CONTINUOUS
 10
1.014421
 20
-3.995531
  0
VERTEX
  8
PLAN_1
  6
CONTINUOUS
 10
1.016453
 20
-3.996039
  0
VERTEX
  8
PLAN_1
  6
CONTINUOUS
 10
1.018992
 20
-3.996547
  0
VERTEX
  8
PLAN_1
  6
CONTINUOUS
 10
1.021531
 20
-3.996547
  0
VERTEX
  8
PLAN_1
  6
CONTINUOUS
 10
1.026098
 20
-3.996039
  0
VERTEX
  8
PLAN_1
  6
CONTINUOUS
 10
1.030161
 20
-3.995024
  0
VERTEX
  8
PLAN_1
  6
CONTINUOUS
 10
1.034224
 20
-3.993500
  0
VERTEX
  8
PLAN_1
  6
CONTINUOUS
 10
1.037780
 20
-3.990965
  0
VERTEX
  8
PLAN_1
  6
CONTINUOUS
 10
1.041331
 20
-3.987917
  0
VERTEX
  8
PLAN_1
  6
CONTINUOUS
 10
1.044886
 20
-3.984870
  0
VERTEX
  8
PLAN_1
  6
CONTINUOUS
 10
1.047933
 20
-3.981315
  0
VERTEX
  8
PLAN_1
  6
CONTINUOUS
 10
1.050980
 20
-3.977256
  0
VERTEX
  8
PLAN_1
  6
CONTINUOUS
 10
1.053516
 20
-3.972685
  0
VERTEX
  8
PLAN_1
  6
CONTINUOUS
 10
1.056055
 20
-3.968114
  0
VERTEX
  8
PLAN_1
  6
CONTINUOUS
 10
1.058087
 20
-3.963547
  0
VERTEX
  8
PLAN_1
  6
CONTINUOUS
 10
1.059610
 20
-3.958976
  0
VERTEX
  8
PLAN_1
  6
CONTINUOUS
 10
1.061134
 20
-3.954406
  0
VERTEX
  8
PLAN_1
  6
CONTINUOUS
 10
1.062150
 20
-3.949839
  0
VERTEX
  8
PLAN_1
  6
CONTINUOUS
 10
1.062657
 20
-3.945268
  0
VERTEX
  8
PLAN_1
  6
CONTINUOUS
 10
1.062657
 20
-3.941205
  0
VERTEX
  8
PLAN_1
  6
CONTINUOUS
 10
1.062150
 20
-3.936130
  0
VERTEX
  8
PLAN_1
  6
CONTINUOUS
 10
1.061134
 20
-3.931051
  0
VERTEX
  8
PLAN_1
  6
CONTINUOUS
 10
1.059102
 20
-3.926992
  0
VERTEX
  8
PLAN_1
  6
CONTINUOUS
 10
1.056055
 20
-3.922929
  0
VERTEX
  8
PLAN_1
  6
CONTINUOUS
 10
1.052500
 20
-3.919882
  0
VERTEX
  8
PLAN_1
  6
CONTINUOUS
 10
1.048949
 20
-3.917343
  0
VERTEX
  8
PLAN_1
  6
CONTINUOUS
 10
1.046917
 20
-3.916835
  0
VERTEX
  8
PLAN_1
  6
CONTINUOUS
 10
1.044378
 20
-3.915819
  0
VERTEX
  8
PLAN_1
  6
CONTINUOUS
 10
1.042346
 20
-3.915819
  0
VERTEX
  8
PLAN_1
  6
CONTINUOUS
 10
1.040315
 20
-3.915311
  0
SEQEND
  8
0
  0
POLYLINE
  8
PLAN_1
  6
CONTINUOUS
 66
     1
 40
0.003000
 41
0.003000
  0
VERTEX
  8
PLAN_1
  6
CONTINUOUS
 10
1.195677
 20
-3.854894
  0
VERTEX
  8
PLAN_1
  6
CONTINUOUS
 10
1.283516
 20
-3.854894
  0
VERTEX
  8
PLAN_1
  6
CONTINUOUS
 10
1.290114
 20
-3.855402
  0
VERTEX
  8
PLAN_1
  6
CONTINUOUS
 10
1.296713
 20
-3.855909
  0
VERTEX
  8
PLAN_1
  6
CONTINUOUS
 10
1.302299
 20
-3.857433
  0
VERTEX
  8
PLAN_1
  6
CONTINUOUS
 10
1.307886
 20
-3.858957
  0
VERTEX
  8
PLAN_1
  6
CONTINUOUS
 10
1.312961
 20
-3.860988
  0
VERTEX
  8
PLAN_1
  6
CONTINUOUS
 10
1.317531
 20
-3.863524
  0
VERTEX
  8
PLAN_1
  6
CONTINUOUS
 10
1.321594
 20
-3.866571
  0
VERTEX
  8
PLAN_1
  6
CONTINUOUS
 10
1.325654
 20
-3.869618
  0
VERTEX
  8
PLAN_1
  6
CONTINUOUS
 10
1.328701
 20
-3.873681
  0
VERTEX
  8
PLAN_1
  6
CONTINUOUS
 10
1.331748
 20
-3.877232
  0
VERTEX
  8
PLAN_1
  6
CONTINUOUS
 10
1.334287
 20
-3.881295
  0
VERTEX
  8
PLAN_1
  6
CONTINUOUS
 10
1.336315
 20
-3.885866
  0
VERTEX
  8
PLAN_1
  6
CONTINUOUS
 10
1.337839
 20
-3.890433
  0
VERTEX
  8
PLAN_1
  6
CONTINUOUS
 10
1.338854
 20
-3.895004
  0
VERTEX
  8
PLAN_1
  6
CONTINUOUS
 10
1.339362
 20
-3.900083
  0
VERTEX
  8
PLAN_1
  6
CONTINUOUS
 10
1.339870
 20
-3.905157
  0
VERTEX
  8
PLAN_1
  6
CONTINUOUS
 10
1.339362
 20
-3.910236
  0
VERTEX
  8
PLAN_1
  6
CONTINUOUS
 10
1.338854
 20
-3.915819
  0
VERTEX
  8
PLAN_1
  6
CONTINUOUS
 10
1.336823
 20
-3.921406
  0
VERTEX
  8
PLAN_1
  6
CONTINUOUS
 10
1.334795
 20
-3.926992
  0
VERTEX
  8
PLAN_1
  6
CONTINUOUS
 10
1.333272
 20
-3.930035
  0
VERTEX
  8
PLAN_1
  6
CONTINUOUS
 10
1.331240
 20
-3.932575
  0
VERTEX
  8
PLAN_1
  6
CONTINUOUS
 10
1.329209
 20
-3.935114
  0
VERTEX
  8
PLAN_1
  6
CONTINUOUS
 10
1.326669
 20
-3.937654
  0
VERTEX
  8
PLAN_1
  6
CONTINUOUS
 10
1.323622
 20
-3.940193
  0
VERTEX
  8
PLAN_1
  6
CONTINUOUS
 10
1.320579
 20
-3.942728
  0
VERTEX
  8
PLAN_1
  6
CONTINUOUS
 10
1.317024
 20
-3.944760
  0
VERTEX
  8
PLAN_1
  6
CONTINUOUS
 10
1.312961
 20
-3.946791
  0
VERTEX
  8
PLAN_1
  6
CONTINUOUS
 10
1.318547
 20
-3.948823
  0
VERTEX
  8
PLAN_1
  6
CONTINUOUS
 10
1.324130
 20
-3.951870
  0
VERTEX
  8
PLAN_1
  6
CONTINUOUS
 10
1.327177
 20
-3.953394
  0
VERTEX
  8
PLAN_1
  6
CONTINUOUS
 10
1.330224
 20
-3.955421
  0
VERTEX
  8
PLAN_1
  6
CONTINUOUS
 10
1.333272
 20
-3.957961
  0
VERTEX
  8
PLAN_1
  6
CONTINUOUS
 10
1.335807
 20
-3.960500
  0
VERTEX
  8
PLAN_1
  6
CONTINUOUS
 10
1.338854
 20
-3.963039
  0
VERTEX
  8
PLAN_1
  6
CONTINUOUS
 10
1.341394
 20
-3.966594
  0
VERTEX
  8
PLAN_1
  6
CONTINUOUS
 10
1.343425
 20
-3.970146
  0
VERTEX
  8
PLAN_1
  6
CONTINUOUS
 10
1.345457
 20
-3.974209
  0
VERTEX
  8
PLAN_1
  6
CONTINUOUS
 10
1.346980
 20
-3.978780
  0
VERTEX
  8
PLAN_1
  6
CONTINUOUS
 10
1.347996
 20
-3.983854
  0
VERTEX
  8
PLAN_1
  6
CONTINUOUS
 10
1.349008
 20
-3.989441
  0
VERTEX
  8
PLAN_1
  6
CONTINUOUS
 10
1.349008
 20
-3.995531
  0
VERTEX
  8
PLAN_1
  6
CONTINUOUS
 10
1.349008
 20
-4.001118
  0
VERTEX
  8
PLAN_1
  6
CONTINUOUS
 10
1.347996
 20
-4.007209
  0
VERTEX
  8
PLAN_1
  6
CONTINUOUS
 10
1.346472
 20
-4.012795
  0
VERTEX
  8
PLAN_1
  6
CONTINUOUS
 10
1.344949
 20
-4.017874
  0
VERTEX
  8
PLAN_1
  6
CONTINUOUS
 10
1.342409
 20
-4.022949
  0
VERTEX
  8
PLAN_1
  6
CONTINUOUS
 10
1.339362
 20
-4.028028
  0
VERTEX
  8
PLAN_1
  6
CONTINUOUS
 10
1.335807
 20
-4.032594
  0
VERTEX
  8
PLAN_1
  6
CONTINUOUS
 10
1.331748
 20
-4.036657
  0
VERTEX
  8
PLAN_1
  6
CONTINUOUS
 10
1.327177
 20
-4.040720
  0
VERTEX
  8
PLAN_1
  6
CONTINUOUS
 10
1.322102
 20
-4.044272
  0
VERTEX
  8
PLAN_1
  6
CONTINUOUS
 10
1.316516
 20
-4.046811
  0
VERTEX
  8
PLAN_1
  6
CONTINUOUS
 10
1.310421
 20
-4.049350
  0
VERTEX
  8
PLAN_1
  6
CONTINUOUS
 10
1.303823
 20
-4.051382
  0
VERTEX
  8
PLAN_1
  6
CONTINUOUS
 10
1.297220
 20
-4.052906
  0
VERTEX
  8
PLAN_1
  6
CONTINUOUS
 10
1.289606
 20
-4.053921
  0
VERTEX
  8
PLAN_1
  6
CONTINUOUS
 10
1.281484
 20
-4.054429
  0
VERTEX
  8
PLAN_1
  6
CONTINUOUS
 10
1.195677
 20
-4.054429
  0
VERTEX
  8
PLAN_1
  6
CONTINUOUS
 10
1.195677
 20
-3.854894
  0
SEQEND
  8
0
  0
POLYLINE
  8
PLAN_1
  6
CONTINUOUS
 66
     1
 40
0.003000
 41
0.003000
  0
VERTEX
  8
PLAN_1
  6
CONTINUOUS
 10
1.222587
 20
-3.939177
  0
VERTEX
  8
PLAN_1
  6
CONTINUOUS
 10
1.271327
 20
-3.939177
  0
VERTEX
  8
PLAN_1
  6
CONTINUOUS
 10
1.280469
 20
-3.939177
  0
VERTEX
  8
PLAN_1
  6
CONTINUOUS
 10
1.288591
 20
-3.937654
  0
VERTEX
  8
PLAN_1
  6
CONTINUOUS
 10
1.292146
 20
-3.936638
  0
VERTEX
  8
PLAN_1
  6
CONTINUOUS
 10
1.295701
 20
-3.935622
  0
VERTEX
  8
PLAN_1
  6
CONTINUOUS
 10
1.298744
 20
-3.934098
  0
VERTEX
  8
PLAN_1
  6
CONTINUOUS
 10
1.301791
 20
-3.932575
  0
VERTEX
  8
PLAN_1
  6
CONTINUOUS
 10
1.304331
 20
-3.930543
  0
VERTEX
  8
PLAN_1
  6
CONTINUOUS
 10
1.306362
 20
-3.928004
  0
VERTEX
  8
PLAN_1
  6
CONTINUOUS
 10
1.308394
 20
-3.925469
  0
VERTEX
  8
PLAN_1
  6
CONTINUOUS
 10
1.309913
 20
-3.922421
  0
VERTEX
  8
PLAN_1
  6
CONTINUOUS
 10
1.310929
 20
-3.919374
  0
VERTEX
  8
PLAN_1
  6
CONTINUOUS
 10
1.311945
 20
-3.915311
  0
VERTEX
  8
PLAN_1
  6
CONTINUOUS
 10
1.312453
 20
-3.911760
  0
VERTEX
  8
PLAN_1
  6
CONTINUOUS
 10
1.312961
 20
-3.907189
  0
VERTEX
  8
PLAN_1
  6
CONTINUOUS
 10
1.312453
 20
-3.903634
  0
VERTEX
  8
PLAN_1
  6
CONTINUOUS
 10
1.312453
 20
-3.900591
  0
VERTEX
  8
PLAN_1
  6
CONTINUOUS
 10
1.311437
 20
-3.897543
  0
VERTEX
  8
PLAN_1
  6
CONTINUOUS
 10
1.310421
 20
-3.894496
  0
VERTEX
  8
PLAN_1
  6
CONTINUOUS
 10
1.309406
 20
-3.891957
  0
VERTEX
  8
PLAN_1
  6
CONTINUOUS
 10
1.307378
 20
-3.889925
  0
VERTEX
  8
PLAN_1
  6
CONTINUOUS
 10
1.305854
 20
-3.887390
  0
VERTEX
  8
PLAN_1
  6
CONTINUOUS
 10
1.303315
 20
-3.885358
  0
VERTEX
  8
PLAN_1
  6
CONTINUOUS
 10
1.300776
 20
-3.883835
  0
VERTEX
  8
PLAN_1
  6
CONTINUOUS
 10
1.297728
 20
-3.882311
  0
VERTEX
  8
PLAN_1
  6
CONTINUOUS
 10
1.294177
 20
-3.880787
  0
VERTEX
  8
PLAN_1
  6
CONTINUOUS
 10
1.290622
 20
-3.879772
  0
VERTEX
  8
PLAN_1
  6
CONTINUOUS
 10
1.286559
 20
-3.879264
  0
VERTEX
  8
PLAN_1
  6
CONTINUOUS
 10
1.281992
 20
-3.878248
  0
VERTEX
  8
PLAN_1
  6
CONTINUOUS
 10
1.276913
 20
-3.878248
  0
VERTEX
  8
PLAN_1
  6
CONTINUOUS
 10
1.271327
 20
-3.877740
  0
VERTEX
  8
PLAN_1
  6
CONTINUOUS
 10
1.222587
 20
-3.877740
  0
VERTEX
  8
PLAN_1
  6
CONTINUOUS
 10
1.222587
 20
-3.939177
  0
SEQEND
  8
0
  0
POLYLINE
  8
PLAN_1
  6
CONTINUOUS
 66
     1
 40
0.003000
 41
0.003000
  0
VERTEX
  8
PLAN_1
  6
CONTINUOUS
 10
1.222587
 20
-4.031075
  0
VERTEX
  8
PLAN_1
  6
CONTINUOUS
 10
1.279961
 20
-4.031075
  0
VERTEX
  8
PLAN_1
  6
CONTINUOUS
 10
1.285035
 20
-4.031075
  0
VERTEX
  8
PLAN_1
  6
CONTINUOUS
 10
1.290114
 20
-4.030567
  0
VERTEX
  8
PLAN_1
  6
CONTINUOUS
 10
1.294177
 20
-4.029551
  0
VERTEX
  8
PLAN_1
  6
CONTINUOUS
 10
1.298236
 20
-4.028535
  0
VERTEX
  8
PLAN_1
  6
CONTINUOUS
 10
1.302299
 20
-4.027012
  0
VERTEX
  8
PLAN_1
  6
CONTINUOUS
 10
1.305854
 20
-4.025488
  0
VERTEX
  8
PLAN_1
  6
CONTINUOUS
 10
1.308902
 20
-4.023457
  0
VERTEX
  8
PLAN_1
  6
CONTINUOUS
 10
1.311437
 20
-4.021425
  0
VERTEX
  8
PLAN_1
  6
CONTINUOUS
 10
1.313976
 20
-4.018886
  0
VERTEX
  8
PLAN_1
  6
CONTINUOUS
 10
1.316516
 20
-4.015843
  0
VERTEX
  8
PLAN_1
  6
CONTINUOUS
 10
1.318039
 20
-4.013303
  0
VERTEX
  8
PLAN_1
  6
CONTINUOUS
 10
1.319563
 20
-4.009748
  0
VERTEX
  8
PLAN_1
  6
CONTINUOUS
 10
1.320579
 20
-4.006193
  0
VERTEX
  8
PLAN_1
  6
CONTINUOUS
 10
1.321594
 20
-4.002642
  0
VERTEX
  8
PLAN_1
  6
CONTINUOUS
 10
1.322102
 20
-3.999087
  0
VERTEX
  8
PLAN_1
  6
CONTINUOUS
 10
1.322102
 20
-3.995024
  0
VERTEX
  8
PLAN_1
  6
CONTINUOUS
 10
1.322102
 20
-3.989949
  0
VERTEX
  8
PLAN_1
  6
CONTINUOUS
 10
1.321087
 20
-3.985378
  0
VERTEX
  8
PLAN_1
  6
CONTINUOUS
 10
1.319563
 20
-3.981315
  0
VERTEX
  8
PLAN_1
  6
CONTINUOUS
 10
1.318039
 20
-3.977764
  0
VERTEX
  8
PLAN_1
  6
CONTINUOUS
 10
1.316008
 20
-3.974717
  0
VERTEX
  8
PLAN_1
  6
CONTINUOUS
 10
1.313469
 20
-3.971669
  0
VERTEX
  8
PLAN_1
  6
CONTINUOUS
 10
1.310421
 20
-3.969638
  0
VERTEX
  8
PLAN_1
  6
CONTINUOUS
 10
1.307378
 20
-3.967606
  0
VERTEX
  8
PLAN_1
  6
CONTINUOUS
 10
1.303823
 20
-3.966087
  0
VERTEX
  8
PLAN_1
  6
CONTINUOUS
 10
1.299760
 20
-3.964563
  0
VERTEX
  8
PLAN_1
  6
CONTINUOUS
 10
1.296209
 20
-3.963547
  0
VERTEX
  8
PLAN_1
  6
CONTINUOUS
 10
1.292146
 20
-3.962531
  0
VERTEX
  8
PLAN_1
  6
CONTINUOUS
 10
1.284020
 20
-3.961516
  0
VERTEX
  8
PLAN_1
  6
CONTINUOUS
 10
1.275390
 20
-3.961008
  0
VERTEX
  8
PLAN_1
  6
CONTINUOUS
 10
1.222587
 20
-3.961008
  0
VERTEX
  8
PLAN_1
  6
CONTINUOUS
 10
1.222587
 20
-4.031075
  0
SEQEND
  8
0
  0
POLYLINE
  8
PLAN_1
  6
CONTINUOUS
 66
     1
 40
0.003000
 41
0.003000
  0
VERTEX
  8
PLAN_1
  6
CONTINUOUS
 10
1.370843
 20
-3.863020
  0
VERTEX
  8
PLAN_1
  6
CONTINUOUS
 10
1.505386
 20
-3.863020
  0
VERTEX
  8
PLAN_1
  6
CONTINUOUS
 10
1.505386
 20
-3.884850
  0
VERTEX
  8
PLAN_1
  6
CONTINUOUS
 10
1.497264
 20
-3.893988
  0
VERTEX
  8
PLAN_1
  6
CONTINUOUS
 10
1.486602
 20
-3.907189
  0
VERTEX
  8
PLAN_1
  6
CONTINUOUS
 10
1.481016
 20
-3.915311
  0
VERTEX
  8
PLAN_1
  6
CONTINUOUS
 10
1.475433
 20
-3.924453
  0
VERTEX
  8
PLAN_1
  6
CONTINUOUS
 10
1.469339
 20
-3.934098
  0
VERTEX
  8
PLAN_1
  6
CONTINUOUS
 10
1.463248
 20
-3.944252
  0
VERTEX
  8
PLAN_1
  6
CONTINUOUS
 10
1.457661
 20
-3.955421
  0
VERTEX
  8
PLAN_1
  6
CONTINUOUS
 10
1.451567
 20
-3.967606
  0
VERTEX
  8
PLAN_1
  6
CONTINUOUS
 10
1.446492
 20
-3.980299
  0
VERTEX
  8
PLAN_1
  6
CONTINUOUS
 10
1.440906
 20
-3.994008
  0
VERTEX
  8
PLAN_1
  6
CONTINUOUS
 10
1.436339
 20
-4.007717
  0
VERTEX
  8
PLAN_1
  6
CONTINUOUS
 10
1.432276
 20
-4.022949
  0
VERTEX
  8
PLAN_1
  6
CONTINUOUS
 10
1.428213
 20
-4.038181
  0
VERTEX
  8
PLAN_1
  6
CONTINUOUS
 10
1.425169
 20
-4.054429
  0
VERTEX
  8
PLAN_1
  6
CONTINUOUS
 10
1.398260
 20
-4.054429
  0
VERTEX
  8
PLAN_1
  6
CONTINUOUS
 10
1.399780
 20
-4.043768
  0
VERTEX
  8
PLAN_1
  6
CONTINUOUS
 10
1.402319
 20
-4.033610
  0
VERTEX
  8
PLAN_1
  6
CONTINUOUS
 10
1.404858
 20
-4.022441
  0
VERTEX
  8
PLAN_1
  6
CONTINUOUS
 10
1.408413
 20
-4.011780
  0
VERTEX
  8
PLAN_1
  6
CONTINUOUS
 10
1.412476
 20
-4.000610
  0
VERTEX
  8
PLAN_1
  6
CONTINUOUS
 10
1.416535
 20
-3.989441
  0
VERTEX
  8
PLAN_1
  6
CONTINUOUS
 10
1.421614
 20
-3.978272
  0
VERTEX
  8
PLAN_1
  6
CONTINUOUS
 10
1.426689
 20
-3.967098
  0
VERTEX
  8
PLAN_1
  6
CONTINUOUS
 10
1.432276
 20
-3.955929
  0
VERTEX
  8
PLAN_1
  6
CONTINUOUS
 10
1.438370
 20
-3.945268
  0
VERTEX
  8
PLAN_1
  6
CONTINUOUS
 10
1.444461
 20
-3.934606
  0
VERTEX
  8
PLAN_1
  6
CONTINUOUS
 10
1.450555
 20
-3.923945
  0
VERTEX
  8
PLAN_1
  6
CONTINUOUS
 10
1.457154
 20
-3.914299
  0
VERTEX
  8
PLAN_1
  6
CONTINUOUS
 10
1.464260
 20
-3.904650
  0
VERTEX
  8
PLAN_1
  6
CONTINUOUS
 10
1.470862
 20
-3.895512
  0
VERTEX
  8
PLAN_1
  6
CONTINUOUS
 10
1.477969
 20
-3.886882
  0
VERTEX
  8
PLAN_1
  6
CONTINUOUS
 10
1.370843
 20
-3.886882
  0
VERTEX
  8
PLAN_1
  6
CONTINUOUS
 10
1.370843
 20
-3.863020
  0
SEQEND
  8
0
  0
POLYLINE
  8
PLAN_1
  6
CONTINUOUS
 66
     1
 40
0.003000
 41
0.003000
  0
VERTEX
  8
PLAN_1
  6
CONTINUOUS
 10
1.566315
 20
-4.054429
  0
VERTEX
  8
PLAN_1
  6
CONTINUOUS
 10
1.539406
 20
-4.054429
  0
VERTEX
  8
PLAN_1
  6
CONTINUOUS
 10
1.539406
 20
-3.854894
  0
VERTEX
  8
PLAN_1
  6
CONTINUOUS
 10
1.631303
 20
-3.854894
  0
VERTEX
  8
PLAN_1
  6
CONTINUOUS
 10
1.637394
 20
-3.854894
  0
VERTEX
  8
PLAN_1
  6
CONTINUOUS
 10
1.643488
 20
-3.855402
  0
VERTEX
  8
PLAN_1
  6
CONTINUOUS
 10
1.649579
 20
-3.856417
  0
VERTEX
  8
PLAN_1
  6
CONTINUOUS
 10
1.655165
 20
-3.857433
  0
VERTEX
  8
PLAN_1
  6
CONTINUOUS
 10
1.661256
 20
-3.858957
  0
VERTEX
  8
PLAN_1
  6
CONTINUOUS
 10
1.666335
 20
-3.860988
  0
VERTEX
  8
PLAN_1
  6
CONTINUOUS
 10
1.671409
 20
-3.863020
  0
VERTEX
  8
PLAN_1
  6
CONTINUOUS
 10
1.676488
 20
-3.866063
  0
VERTEX
  8
PLAN_1
  6
CONTINUOUS
 10
1.680551
 20
-3.869110
  0
VERTEX
  8
PLAN_1
  6
CONTINUOUS
 10
1.684610
 20
-3.873173
  0
VERTEX
  8
PLAN_1
  6
CONTINUOUS
 10
1.688165
 20
-3.877232
  0
VERTEX
  8
PLAN_1
  6
CONTINUOUS
 10
1.691213
 20
-3.882311
  0
VERTEX
  8
PLAN_1
  6
CONTINUOUS
 10
1.693752
 20
-3.887898
  0
VERTEX
  8
PLAN_1
  6
CONTINUOUS
 10
1.695276
 20
-3.893988
  0
VERTEX
  8
PLAN_1
  6
CONTINUOUS
 10
1.696291
 20
-3.901098
  0
VERTEX
  8
PLAN_1
  6
CONTINUOUS
 10
1.696795
 20
-3.908713
  0
VERTEX
  8
PLAN_1
  6
CONTINUOUS
 10
1.696795
 20
-3.913791
  0
VERTEX
  8
PLAN_1
  6
CONTINUOUS
 10
1.696291
 20
-3.918866
  0
VERTEX
  8
PLAN_1
  6
CONTINUOUS
 10
1.695276
 20
-3.923437
  0
VERTEX
  8
PLAN_1
  6
CONTINUOUS
 10
1.694260
 20
-3.927500
  0
VERTEX
  8
PLAN_1
  6
CONTINUOUS
 10
1.692736
 20
-3.931051
  0
VERTEX
  8
PLAN_1
  6
CONTINUOUS
 10
1.691213
 20
-3.934606
  0
VERTEX
  8
PLAN_1
  6
CONTINUOUS
 10
1.689689
 20
-3.937654
  0
VERTEX
  8
PLAN_1
  6
CONTINUOUS
 10
1.687657
 20
-3.940701
  0
VERTEX
  8
PLAN_1
  6
CONTINUOUS
 10
1.683594
 20
-3.945776
  0
VERTEX
  8
PLAN_1
  6
CONTINUOUS
 10
1.679028
 20
-3.949839
  0
VERTEX
  8
PLAN_1
  6
CONTINUOUS
 10
1.673949
 20
-3.953394
  0
VERTEX
  8
PLAN_1
  6
CONTINUOUS
 10
1.668874
 20
-3.956437
  0
VERTEX
  8
PLAN_1
  6
CONTINUOUS
 10
1.673441
 20
-3.957961
  0
VERTEX
  8
PLAN_1
  6
CONTINUOUS
 10
1.677504
 20
-3.959992
  0
VERTEX
  8
PLAN_1
  6
CONTINUOUS
 10
1.681567
 20
-3.963039
  0
VERTEX
  8
PLAN_1
  6
CONTINUOUS
 10
1.685118
 20
-3.966594
  0
VERTEX
  8
PLAN_1
  6
CONTINUOUS
 10
1.686642
 20
-3.968622
  0
VERTEX
  8
PLAN_1
  6
CONTINUOUS
 10
1.688165
 20
-3.971161
  0
VERTEX
  8
PLAN_1
  6
CONTINUOUS
 10
1.689181
 20
-3.973701
  0
VERTEX
  8
PLAN_1
  6
CONTINUOUS
 10
1.690197
 20
-3.976748
  0
VERTEX
  8
PLAN_1
  6
CONTINUOUS
 10
1.691213
 20
-3.980299
  0
VERTEX
  8
PLAN_1
  6
CONTINUOUS
 10
1.692228
 20
-3.984362
  0
VERTEX
  8
PLAN_1
  6
CONTINUOUS
 10
1.692736
 20
-3.988933
  0
VERTEX
  8
PLAN_1
  6
CONTINUOUS
 10
1.692736
 20
-3.993500
  0
VERTEX
  8
PLAN_1
  6
CONTINUOUS
 10
1.694768
 20
-4.030059
  0
VERTEX
  8
PLAN_1
  6
CONTINUOUS
 10
1.694768
 20
-4.033610
  0
VERTEX
  8
PLAN_1
  6
CONTINUOUS
 10
1.695276
 20
-4.037165
  0
VERTEX
  8
PLAN_1
  6
CONTINUOUS
 10
1.695783
 20
-4.039705
  0
VERTEX
  8
PLAN_1
  6
CONTINUOUS
 10
1.696795
 20
-4.042244
  0
VERTEX
  8
PLAN_1
  6
CONTINUOUS
 10
1.697811
 20
-4.044272
  0
VERTEX
  8
PLAN_1
  6
CONTINUOUS
 10
1.699335
 20
-4.046303
  0
VERTEX
  8
PLAN_1
  6
CONTINUOUS
 10
1.701874
 20
-4.047827
  0
VERTEX
  8
PLAN_1
  6
CONTINUOUS
 10
1.704413
 20
-4.049858
  0
VERTEX
  8
PLAN_1
  6
CONTINUOUS
 10
1.704413
 20
-4.054429
  0
VERTEX
  8
PLAN_1
  6
CONTINUOUS
 10
1.671409
 20
-4.054429
  0
VERTEX
  8
PLAN_1
  6
CONTINUOUS
 10
1.670398
 20
-4.048843
  0
VERTEX
  8
PLAN_1
  6
CONTINUOUS
 10
1.669382
 20
-4.042244
  0
VERTEX
  8
PLAN_1
  6
CONTINUOUS
 10
1.668366
 20
-4.035134
  0
VERTEX
  8
PLAN_1
  6
CONTINUOUS
 10
1.667858
 20
-4.027520
  0
VERTEX
  8
PLAN_1
  6
CONTINUOUS
 10
1.667350
 20
-4.019902
  0
VERTEX
  8
PLAN_1
  6
CONTINUOUS
 10
1.666843
 20
-4.013303
  0
VERTEX
  8
PLAN_1
  6
CONTINUOUS
 10
1.666843
 20
-4.008224
  0
VERTEX
  8
PLAN_1
  6
CONTINUOUS
 10
1.666843
 20
-4.004165
  0
VERTEX
  8
PLAN_1
  6
CONTINUOUS
 10
1.666843
 20
-3.998071
  0
VERTEX
  8
PLAN_1
  6
CONTINUOUS
 10
1.665827
 20
-3.991980
  0
VERTEX
  8
PLAN_1
  6
CONTINUOUS
 10
1.665319
 20
-3.988933
  0
VERTEX
  8
PLAN_1
  6
CONTINUOUS
 10
1.664303
 20
-3.985886
  0
VERTEX
  8
PLAN_1
  6
CONTINUOUS
 10
1.662780
 20
-3.982839
  0
VERTEX
  8
PLAN_1
  6
CONTINUOUS
 10
1.661256
 20
-3.980299
  0
VERTEX
  8
PLAN_1
  6
CONTINUOUS
 10
1.659224
 20
-3.977764
  0
VERTEX
  8
PLAN_1
  6
CONTINUOUS
 10
1.656689
 20
-3.975732
  0
VERTEX
  8
PLAN_1
  6
CONTINUOUS
 10
1.653642
 20
-3.973701
  0
VERTEX
  8
PLAN_1
  6
CONTINUOUS
 10
1.650594
 20
-3.972177
  0
VERTEX
  8
PLAN_1
  6
CONTINUOUS
 10
1.646531
 20
-3.970654
  0
VERTEX
  8
PLAN_1
  6
CONTINUOUS
 10
1.641965
 20
-3.969638
  0
VERTEX
  8
PLAN_1
  6
CONTINUOUS
 10
1.636886
 20
-3.969130
  0
VERTEX
  8
PLAN_1
  6
CONTINUOUS
 10
1.631303
 20
-3.968622
  0
VERTEX
  8
PLAN_1
  6
CONTINUOUS
 10
1.566315
 20
-3.968622
  0
VERTEX
  8
PLAN_1
  6
CONTINUOUS
 10
1.566315
 20
-4.054429
  0
SEQEND
  8
0
  0
POLYLINE
  8
PLAN_1
  6
CONTINUOUS
 66
     1
 40
0.003000
 41
0.003000
  0
VERTEX
  8
PLAN_1
  6
CONTINUOUS
 10
1.566315
 20
-3.945776
  0
VERTEX
  8
PLAN_1
  6
CONTINUOUS
 10
1.628764
 20
-3.945776
  0
VERTEX
  8
PLAN_1
  6
CONTINUOUS
 10
1.635870
 20
-3.945268
  0
VERTEX
  8
PLAN_1
  6
CONTINUOUS
 10
1.642980
 20
-3.944252
  0
VERTEX
  8
PLAN_1
  6
CONTINUOUS
 10
1.646531
 20
-3.943744
  0
VERTEX
  8
PLAN_1
  6
CONTINUOUS
 10
1.650087
 20
-3.942728
  0
VERTEX
  8
PLAN_1
  6
CONTINUOUS
 10
1.653134
 20
-3.941205
  0
VERTEX
  8
PLAN_1
  6
CONTINUOUS
 10
1.656181
 20
-3.939685
  0
VERTEX
  8
PLAN_1
  6
CONTINUOUS
 10
1.658717
 20
-3.937654
  0
VERTEX
  8
PLAN_1
  6
CONTINUOUS
 10
1.661256
 20
-3.935114
  0
VERTEX
  8
PLAN_1
  6
CONTINUOUS
 10
1.663795
 20
-3.932067
  0
VERTEX
  8
PLAN_1
  6
CONTINUOUS
 10
1.665319
 20
-3.929020
  0
VERTEX
  8
PLAN_1
  6
CONTINUOUS
 10
1.666843
 20
-3.925469
  0
VERTEX
  8
PLAN_1
  6
CONTINUOUS
 10
1.668366
 20
-3.921406
  0
VERTEX
  8
PLAN_1
  6
CONTINUOUS
 10
1.668874
 20
-3.916327
  0
VERTEX
  8
PLAN_1
  6
CONTINUOUS
 10
1.668874
 20
-3.911252
  0
VERTEX
  8
PLAN_1
  6
CONTINUOUS
 10
1.668874
 20
-3.905665
  0
VERTEX
  8
PLAN_1
  6
CONTINUOUS
 10
1.667858
 20
-3.901098
  0
VERTEX
  8
PLAN_1
  6
CONTINUOUS
 10
1.666843
 20
-3.896528
  0
VERTEX
  8
PLAN_1
  6
CONTINUOUS
 10
1.665319
 20
-3.892972
  0
VERTEX
  8
PLAN_1
  6
CONTINUOUS
 10
1.663287
 20
-3.889925
  0
VERTEX
  8
PLAN_1
  6
CONTINUOUS
 10
1.661256
 20
-3.887390
  0
VERTEX
  8
PLAN_1
  6
CONTINUOUS
 10
1.658717
 20
-3.884850
  0
VERTEX
  8
PLAN_1
  6
CONTINUOUS
 10
1.656181
 20
-3.882819
  0
VERTEX
  8
PLAN_1
  6
CONTINUOUS
 10
1.653134
 20
-3.881803
  0
VERTEX
  8
PLAN_1
  6
CONTINUOUS
 10
1.650594
 20
-3.880280
  0
VERTEX
  8
PLAN_1
  6
CONTINUOUS
 10
1.647547
 20
-3.879264
  0
VERTEX
  8
PLAN_1
  6
CONTINUOUS
 10
1.644504
 20
-3.878756
  0
VERTEX
  8
PLAN_1
  6
CONTINUOUS
 10
1.638409
 20
-3.878248
  0
VERTEX
  8
PLAN_1
  6
CONTINUOUS
 10
1.633331
 20
-3.877740
  0
VERTEX
  8
PLAN_1
  6
CONTINUOUS
 10
1.566315
 20
-3.877740
  0
VERTEX
  8
PLAN_1
  6
CONTINUOUS
 10
1.566315
 20
-3.945776
  0
SEQEND
  8
0
  0
SOLID
  8
PLAN_1
 10
1.768386
 20
-4.054429
 11
1.739445
 21
-4.054429
 12
1.768386
 22
-4.024980
 13
1.739445
 23
-4.024980
  0
POLYLINE
  8
PLAN_1
  6
CONTINUOUS
 66
     1
 40
0.003000
 41
0.003000
  0
VERTEX
  8
PLAN_1
  6
CONTINUOUS
 10
1.768386
 20
-4.054429
  0
VERTEX
  8
PLAN_1
  6
CONTINUOUS
 10
1.739445
 20
-4.054429
  0
VERTEX
  8
PLAN_1
  6
CONTINUOUS
 10
1.739445
 20
-4.024980
  0
VERTEX
  8
PLAN_1
  6
CONTINUOUS
 10
1.768386
 20
-4.024980
  0
VERTEX
  8
PLAN_1
  6
CONTINUOUS
 10
1.768386
 20
-4.054429
  0
SEQEND
  8
0
  0
POLYLINE
  8
PLAN_1
  6
CONTINUOUS
 66
     1
 40
0.003000
 41
0.003000
  0
VERTEX
  8
PLAN_1
  6
CONTINUOUS
 10
1.963350
 20
-4.054429
  0
VERTEX
  8
PLAN_1
  6
CONTINUOUS
 10
1.816110
 20
-4.054429
  0
VERTEX
  8
PLAN_1
  6
CONTINUOUS
 10
1.816110
 20
-3.854894
  0
VERTEX
  8
PLAN_1
  6
CONTINUOUS
 10
1.961319
 20
-3.854894
  0
VERTEX
  8
PLAN_1
  6
CONTINUOUS
 10
1.961319
 20
-3.878756
  0
VERTEX
  8
PLAN_1
  6
CONTINUOUS
 10
1.843020
 20
-3.878756
  0
VERTEX
  8
PLAN_1
  6
CONTINUOUS
 10
1.843020
 20
-3.939685
  0
VERTEX
  8
PLAN_1
  6
CONTINUOUS
 10
1.952181
 20
-3.939685
  0
VERTEX
  8
PLAN_1
  6
CONTINUOUS
 10
1.952181
 20
-3.963547
  0
VERTEX
  8
PLAN_1
  6
CONTINUOUS
 10
1.843020
 20
-3.963547
  0
VERTEX
  8
PLAN_1
  6
CONTINUOUS
 10
1.843020
 20
-4.030567
  0
VERTEX
  8
PLAN_1
  6
CONTINUOUS
 10
1.963350
 20
-4.030567
  0
VERTEX
  8
PLAN_1
  6
CONTINUOUS
 10
1.963350
 20
-4.054429
  0
SEQEND
  8
0
  0
POLYLINE
  8
PLAN_1
  6
CONTINUOUS
 66
     1
 40
0.003000
 41
0.003000
  0
VERTEX
  8
PLAN_1
  6
CONTINUOUS
 10
2.028339
 20
-4.054429
  0
VERTEX
  8
PLAN_1
  6
CONTINUOUS
 10
2.001429
 20
-4.054429
  0
VERTEX
  8
PLAN_1
  6
CONTINUOUS
 10
2.001429
 20
-3.854894
  0
VERTEX
  8
PLAN_1
  6
CONTINUOUS
 10
2.091295
 20
-3.854894
  0
VERTEX
  8
PLAN_1
  6
CONTINUOUS
 10
2.097894
 20
-3.855402
  0
VERTEX
  8
PLAN_1
  6
CONTINUOUS
 10
2.104496
 20
-3.855909
  0
VERTEX
  8
PLAN_1
  6
CONTINUOUS
 10
2.110587
 20
-3.857433
  0
VERTEX
  8
PLAN_1
  6
CONTINUOUS
 10
2.116173
 20
-3.858957
  0
VERTEX
  8
PLAN_1
  6
CONTINUOUS
 10
2.121252
 20
-3.861496
  0
VERTEX
  8
PLAN_1
  6
CONTINUOUS
 10
2.126327
 20
-3.864031
  0
VERTEX
  8
PLAN_1
  6
CONTINUOUS
 10
2.130390
 20
-3.867587
  0
VERTEX
  8
PLAN_1
  6
CONTINUOUS
 10
2.134453
 20
-3.871142
  0
VERTEX
  8
PLAN_1
  6
CONTINUOUS
 10
2.138004
 20
-3.874697
  0
VERTEX
  8
PLAN_1
  6
CONTINUOUS
 10
2.141559
 20
-3.879264
  0
VERTEX
  8
PLAN_1
  6
CONTINUOUS
 10
2.144098
 20
-3.883835
  0
VERTEX
  8
PLAN_1
  6
CONTINUOUS
 10
2.146130
 20
-3.888406
  0
VERTEX
  8
PLAN_1
  6
CONTINUOUS
 10
2.148157
 20
-3.893988
  0
VERTEX
  8
PLAN_1
  6
CONTINUOUS
 10
2.149173
 20
-3.899575
  0
VERTEX
  8
PLAN_1
  6
CONTINUOUS
 10
2.150189
 20
-3.905157
  0
VERTEX
  8
PLAN_1
  6
CONTINUOUS
 10
2.150189
 20
-3.910744
  0
VERTEX
  8
PLAN_1
  6
CONTINUOUS
 10
2.150189
 20
-3.916327
  0
VERTEX
  8
PLAN_1
  6
CONTINUOUS
 10
2.149681
 20
-3.921406
  0
VERTEX
  8
PLAN_1
  6
CONTINUOUS
 10
2.148665
 20
-3.926992
  0
VERTEX
  8
PLAN_1
  6
CONTINUOUS
 10
2.147146
 20
-3.932067
  0
VERTEX
  8
PLAN_1
  6
CONTINUOUS
 10
2.145114
 20
-3.937146
  0
VERTEX
  8
PLAN_1
  6
CONTINUOUS
 10
2.143083
 20
-3.941713
  0
VERTEX
  8
PLAN_1
  6
CONTINUOUS
 10
2.140035
 20
-3.946791
  0
VERTEX
  8
PLAN_1
  6
CONTINUOUS
 10
2.136988
 20
-3.950854
  0
VERTEX
  8
PLAN_1
  6
CONTINUOUS
 10
2.133437
 20
-3.954913
  0
VERTEX
  8
PLAN_1
  6
CONTINUOUS
 10
2.128866
 20
-3.958976
  0
VERTEX
  8
PLAN_1
  6
CONTINUOUS
 10
2.124295
 20
-3.962024
  0
VERTEX
  8
PLAN_1
  6
CONTINUOUS
 10
2.118713
 20
-3.964563
  0
VERTEX
  8
PLAN_1
  6
CONTINUOUS
 10
2.112618
 20
-3.967098
  0
VERTEX
  8
PLAN_1
  6
CONTINUOUS
 10
2.106020
 20
-3.968622
  0
VERTEX
  8
PLAN_1
  6
CONTINUOUS
 10
2.098909
 20
-3.969638
  0
VERTEX
  8
PLAN_1
  6
CONTINUOUS
 10
2.091295
 20
-3.970146
  0
VERTEX
  8
PLAN_1
  6
CONTINUOUS
 10
2.028339
 20
-3.970146
  0
VERTEX
  8
PLAN_1
  6
CONTINUOUS
 10
2.028339
 20
-4.054429
  0
SEQEND
  8
0
  0
POLYLINE
  8
PLAN_1
  6
CONTINUOUS
 66
     1
 40
0.003000
 41
0.003000
  0
VERTEX
  8
PLAN_1
  6
CONTINUOUS
 10
2.028339
 20
-3.947299
  0
VERTEX
  8
PLAN_1
  6
CONTINUOUS
 10
2.082157
 20
-3.947299
  0
VERTEX
  8
PLAN_1
  6
CONTINUOUS
 10
2.086217
 20
-3.946791
  0
VERTEX
  8
PLAN_1
  6
CONTINUOUS
 10
2.090787
 20
-3.946791
  0
VERTEX
  8
PLAN_1
  6
CONTINUOUS
 10
2.094850
 20
-3.946283
  0
VERTEX
  8
PLAN_1
  6
CONTINUOUS
 10
2.098402
 20
-3.945268
  0
VERTEX
  8
PLAN_1
  6
CONTINUOUS
 10
2.101957
 20
-3.944252
  0
VERTEX
  8
PLAN_1
  6
CONTINUOUS
 10
2.105512
 20
-3.942728
  0
VERTEX
  8
PLAN_1
  6
CONTINUOUS
 10
2.108559
 20
-3.941205
  0
VERTEX
  8
PLAN_1
  6
CONTINUOUS
 10
2.111094
 20
-3.939177
  0
VERTEX
  8
PLAN_1
  6
CONTINUOUS
 10
2.113634
 20
-3.937146
  0
VERTEX
  8
PLAN_1
  6
CONTINUOUS
 10
2.116173
 20
-3.934606
  0
VERTEX
  8
PLAN_1
  6
CONTINUOUS
 10
2.118205
 20
-3.931559
  0
VERTEX
  8
PLAN_1
  6
CONTINUOUS
 10
2.119728
 20
-3.928004
  0
VERTEX
  8
PLAN_1
  6
CONTINUOUS
 10
2.120744
 20
-3.924453
  0
VERTEX
  8
PLAN_1
  6
CONTINUOUS
 10
2.121760
 20
-3.920390
  0
VERTEX
  8
PLAN_1
  6
CONTINUOUS
 10
2.122264
 20
-3.916327
  0
VERTEX
  8
PLAN_1
  6
CONTINUOUS
 10
2.122772
 20
-3.911252
  0
VERTEX
  8
PLAN_1
  6
CONTINUOUS
 10
2.122264
 20
-3.906681
  0
VERTEX
  8
PLAN_1
  6
CONTINUOUS
 10
2.121760
 20
-3.902618
  0
VERTEX
  8
PLAN_1
  6
CONTINUOUS
 10
2.120744
 20
-3.899067
  0
VERTEX
  8
PLAN_1
  6
CONTINUOUS
 10
2.119728
 20
-3.895512
  0
VERTEX
  8
PLAN_1
  6
CONTINUOUS
 10
2.117697
 20
-3.892465
  0
VERTEX
  8
PLAN_1
  6
CONTINUOUS
 10
2.116173
 20
-3.889417
  0
VERTEX
  8
PLAN_1
  6
CONTINUOUS
 10
2.113634
 20
-3.887390
  0
VERTEX
  8
PLAN_1
  6
CONTINUOUS
 10
2.111094
 20
-3.885358
  0
VERTEX
  8
PLAN_1
  6
CONTINUOUS
 10
2.108559
 20
-3.883327
  0
VERTEX
  8
PLAN_1
  6
CONTINUOUS
 10
2.105512
 20
-3.881803
  0
VERTEX
  8
PLAN_1
  6
CONTINUOUS
 10
2.101957
 20
-3.880787
  0
VERTEX
  8
PLAN_1
  6
CONTINUOUS
 10
2.098909
 20
-3.879772
  0
VERTEX
  8
PLAN_1
  6
CONTINUOUS
 10
2.091295
 20
-3.878248
  0
VERTEX
  8
PLAN_1
  6
CONTINUOUS
 10
2.083173
 20
-3.877740
  0
VERTEX
  8
PLAN_1
  6
CONTINUOUS
 10
2.028339
 20
-3.877740
  0
VERTEX
  8
PLAN_1
  6
CONTINUOUS
 10
2.028339
 20
-3.947299
  0
SEQEND
  8
0
  0
POLYLINE
  8
PLAN_1
  6
CONTINUOUS
 66
     1
 40
0.003000
 41
0.003000
  0
VERTEX
  8
PLAN_1
  6
CONTINUOUS
 10
2.304028
 20
-3.913283
  0
VERTEX
  8
PLAN_1
  6
CONTINUOUS
 10
2.303520
 20
-3.907697
  0
VERTEX
  8
PLAN_1
  6
CONTINUOUS
 10
2.302508
 20
-3.902618
  0
VERTEX
  8
PLAN_1
  6
CONTINUOUS
 10
2.300984
 20
-3.898051
  0
VERTEX
  8
PLAN_1
  6
CONTINUOUS
 10
2.298953
 20
-3.893988
  0
VERTEX
  8
PLAN_1
  6
CONTINUOUS
 10
2.296413
 20
-3.889925
  0
VERTEX
  8
PLAN_1
  6
CONTINUOUS
 10
2.293874
 20
-3.886882
  0
VERTEX
  8
PLAN_1
  6
CONTINUOUS
 10
2.290827
 20
-3.883835
  0
VERTEX
  8
PLAN_1
  6
CONTINUOUS
 10
2.287276
 20
-3.881295
  0
VERTEX
  8
PLAN_1
  6
CONTINUOUS
 10
2.283720
 20
-3.879264
  0
VERTEX
  8
PLAN_1
  6
CONTINUOUS
 10
2.280165
 20
-3.877232
  0
VERTEX
  8
PLAN_1
  6
CONTINUOUS
 10
2.276106
 20
-3.875713
  0
VERTEX
  8
PLAN_1
  6
CONTINUOUS
 10
2.271535
 20
-3.874697
  0
VERTEX
  8
PLAN_1
  6
CONTINUOUS
 10
2.267472
 20
-3.873681
  0
VERTEX
  8
PLAN_1
  6
CONTINUOUS
 10
2.263413
 20
-3.873173
  0
VERTEX
  8
PLAN_1
  6
CONTINUOUS
 10
2.258843
 20
-3.872665
  0
VERTEX
  8
PLAN_1
  6
CONTINUOUS
 10
2.254780
 20
-3.872665
  0
VERTEX
  8
PLAN_1
  6
CONTINUOUS
 10
2.248181
 20
-3.873173
  0
VERTEX
  8
PLAN_1
  6
CONTINUOUS
 10
2.240563
 20
-3.873681
  0
VERTEX
  8
PLAN_1
  6
CONTINUOUS
 10
2.236504
 20
-3.874697
  0
VERTEX
  8
PLAN_1
  6
CONTINUOUS
 10
2.232949
 20
-3.875713
  0
VERTEX
  8
PLAN_1
  6
CONTINUOUS
 10
2.229394
 20
-3.877232
  0
VERTEX
  8
PLAN_1
  6
CONTINUOUS
 10
2.225839
 20
-3.878756
  0
VERTEX
  8
PLAN_1
  6
CONTINUOUS
 10
2.222287
 20
-3.880787
  0
VERTEX
  8
PLAN_1
  6
CONTINUOUS
 10
2.219240
 20
-3.883327
  0
VERTEX
  8
PLAN_1
  6
CONTINUOUS
 10
2.216193
 20
-3.886374
  0
VERTEX
  8
PLAN_1
  6
CONTINUOUS
 10
2.214161
 20
-3.889417
  0
VERTEX
  8
PLAN_1
  6
CONTINUOUS
 10
2.212134
 20
-3.892972
  0
VERTEX
  8
PLAN_1
  6
CONTINUOUS
 10
2.210610
 20
-3.897543
  0
VERTEX
  8
PLAN_1
  6
CONTINUOUS
 10
2.209594
 20
-3.902110
  0
VERTEX
  8
PLAN_1
  6
CONTINUOUS
 10
2.209087
 20
-3.907697
  0
VERTEX
  8
PLAN_1
  6
CONTINUOUS
 10
2.209594
 20
-3.910744
  0
VERTEX
  8
PLAN_1
  6
CONTINUOUS
 10
2.209594
 20
-3.913283
  0
VERTEX
  8
PLAN_1
  6
CONTINUOUS
 10
2.210610
 20
-3.915819
  0
VERTEX
  8
PLAN_1
  6
CONTINUOUS
 10
2.211118
 20
-3.918358
  0
VERTEX
  8
PLAN_1
  6
CONTINUOUS
 10
2.213654
 20
-3.922421
  0
VERTEX
  8
PLAN_1
  6
CONTINUOUS
 10
2.216701
 20
-3.925469
  0
VERTEX
  8
PLAN_1
  6
CONTINUOUS
 10
2.220256
 20
-3.928004
  0
VERTEX
  8
PLAN_1
  6
CONTINUOUS
 10
2.224319
 20
-3.930035
  0
VERTEX
  8
PLAN_1
  6
CONTINUOUS
 10
2.228378
 20
-3.931559
  0
VERTEX
  8
PLAN_1
  6
CONTINUOUS
 10
2.232949
 20
-3.933083
  0
VERTEX
  8
PLAN_1
  6
CONTINUOUS
 10
2.289815
 20
-3.945776
  0
VERTEX
  8
PLAN_1
  6
CONTINUOUS
 10
2.294382
 20
-3.947299
  0
VERTEX
  8
PLAN_1
  6
CONTINUOUS
 10
2.298953
 20
-3.948823
  0
VERTEX
  8
PLAN_1
  6
CONTINUOUS
 10
2.303520
 20
-3.950346
  0
VERTEX
  8
PLAN_1
  6
CONTINUOUS
 10
2.307583
 20
-3.952378
  0
VERTEX
  8
PLAN_1
  6
CONTINUOUS
 10
2.311646
 20
-3.954913
  0
VERTEX
  8
PLAN_1
  6
CONTINUOUS
 10
2.315201
 20
-3.956945
  0
VERTEX
  8
PLAN_1
  6
CONTINUOUS
 10
2.318752
 20
-3.959992
  0
VERTEX
  8
PLAN_1
  6
CONTINUOUS
 10
2.322307
 20
-3.963039
  0
VERTEX
  8
PLAN_1
  6
CONTINUOUS
 10
2.324846
 20
-3.966594
  0
VERTEX
  8
PLAN_1
  6
CONTINUOUS
 10
2.327386
 20
-3.970146
  0
VERTEX
  8
PLAN_1
  6
CONTINUOUS
 10
2.329921
 20
-3.974209
  0
VERTEX
  8
PLAN_1
  6
CONTINUOUS
 10
2.331445
 20
-3.978272
  0
VERTEX
  8
PLAN_1
  6
CONTINUOUS
 10
2.332969
 20
-3.983346
  0
VERTEX
  8
PLAN_1
  6
CONTINUOUS
 10
2.333984
 20
-3.987917
  0
VERTEX
  8
PLAN_1
  6
CONTINUOUS
 10
2.335000
 20
-3.993500
  0
VERTEX
  8
PLAN_1
  6
CONTINUOUS
 10
2.335000
 20
-3.999087
  0
VERTEX
  8
PLAN_1
  6
CONTINUOUS
 10
2.335000
 20
-4.003657
  0
VERTEX
  8
PLAN_1
  6
CONTINUOUS
 10
2.334492
 20
-4.007717
  0
VERTEX
  8
PLAN_1
  6
CONTINUOUS
 10
2.333984
 20
-4.011780
  0
VERTEX
  8
PLAN_1
  6
CONTINUOUS
 10
2.332969
 20
-4.015335
  0
VERTEX
  8
PLAN_1
  6
CONTINUOUS
 10
2.330937
 20
-4.022441
  0
VERTEX
  8
PLAN_1
  6
CONTINUOUS
 10
2.327386
 20
-4.028535
  0
VERTEX
  8
PLAN_1
  6
CONTINUOUS
 10
2.323831
 20
-4.034118
  0
VERTEX
  8
PLAN_1
  6
CONTINUOUS
 10
2.319260
 20
-4.039197
  0
VERTEX
  8
PLAN_1
  6
CONTINUOUS
 10
2.314185
 20
-4.043260
  0
VERTEX
  8
PLAN_1
  6
CONTINUOUS
 10
2.308598
 20
-4.047319
  0
VERTEX
  8
PLAN_1
  6
CONTINUOUS
 10
2.303012
 20
-4.050366
  0
VERTEX
  8
PLAN_1
  6
CONTINUOUS
 10
2.296921
 20
-4.052906
  0
VERTEX
  8
PLAN_1
  6
CONTINUOUS
 10
2.290319
 20
-4.054937
  0
VERTEX
  8
PLAN_1
  6
CONTINUOUS
 10
2.283720
 20
-4.056965
  0
VERTEX
  8
PLAN_1
  6
CONTINUOUS
 10
2.277118
 20
-4.057980
  0
VERTEX
  8
PLAN_1
  6
CONTINUOUS
 10
2.270012
 20
-4.058996
  0
VERTEX
  8
PLAN_1
  6
CONTINUOUS
 10
2.263413
 20
-4.059504
  0
VERTEX
  8
PLAN_1
  6
CONTINUOUS
 10
2.256811
 20
-4.059504
  0
VERTEX
  8
PLAN_1
  6
CONTINUOUS
 10
2.250213
 20
-4.059504
  0
VERTEX
  8
PLAN_1
  6
CONTINUOUS
 10
2.244118
 20
-4.058996
  0
VERTEX
  8
PLAN_1
  6
CONTINUOUS
 10
2.238531
 20
-4.058488
  0
VERTEX
  8
PLAN_1
  6
CONTINUOUS
 10
2.233457
 20
-4.057472
  0
VERTEX
  8
PLAN_1
  6
CONTINUOUS
 10
2.223811
 20
-4.055445
  0
VERTEX
  8
PLAN_1
  6
CONTINUOUS
 10
2.216193
 20
-4.052906
  0
VERTEX
  8
PLAN_1
  6
CONTINUOUS
 10
2.210102
 20
-4.049858
  0
VERTEX
  8
PLAN_1
  6
CONTINUOUS
 10
2.204516
 20
-4.046811
  0
VERTEX
  8
PLAN_1
  6
CONTINUOUS
 10
2.200453
 20
-4.043260
  0
VERTEX
  8
PLAN_1
  6
CONTINUOUS
 10
2.196902
 20
-4.040213
  0
VERTEX
  8
PLAN_1
  6
CONTINUOUS
 10
2.190807
 20
-4.034626
  0
VERTEX
  8
PLAN_1
  6
CONTINUOUS
 10
2.186240
 20
-4.028535
  0
VERTEX
  8
PLAN_1
  6
CONTINUOUS
 10
2.182685
 20
-4.022441
  0
VERTEX
  8
PLAN_1
  6
CONTINUOUS
 10
2.180146
 20
-4.016350
  0
VERTEX
  8
PLAN_1
  6
CONTINUOUS
 10
2.178622
 20
-4.009748
  0
VERTEX
  8
PLAN_1
  6
CONTINUOUS
 10
2.177098
 20
-4.003657
  0
VERTEX
  8
PLAN_1
  6
CONTINUOUS
 10
2.176591
 20
-3.996547
  0
VERTEX
  8
PLAN_1
  6
CONTINUOUS
 10
2.176591
 20
-3.989949
  0
VERTEX
  8
PLAN_1
  6
CONTINUOUS
 10
2.201976
 20
-3.989949
  0
VERTEX
  8
PLAN_1
  6
CONTINUOUS
 10
2.201976
 20
-3.996547
  0
VERTEX
  8
PLAN_1
  6
CONTINUOUS
 10
2.202992
 20
-4.002134
  0
VERTEX
  8
PLAN_1
  6
CONTINUOUS
 10
2.204516
 20
-4.007717
  0
VERTEX
  8
PLAN_1
  6
CONTINUOUS
 10
2.206547
 20
-4.012287
  0
VERTEX
  8
PLAN_1
  6
CONTINUOUS
 10
2.209594
 20
-4.016858
  0
VERTEX
  8
PLAN_1
  6
CONTINUOUS
 10
2.212638
 20
-4.020409
  0
VERTEX
  8
PLAN_1
  6
CONTINUOUS
 10
2.215685
 20
-4.023965
  0
VERTEX
  8
PLAN_1
  6
CONTINUOUS
 10
2.219748
 20
-4.026504
  0
VERTEX
  8
PLAN_1
  6
CONTINUOUS
 10
2.223811
 20
-4.029043
  0
VERTEX
  8
PLAN_1
  6
CONTINUOUS
 10
2.227870
 20
-4.031075
  0
VERTEX
  8
PLAN_1
  6
CONTINUOUS
 10
2.232441
 20
-4.033102
  0
VERTEX
  8
PLAN_1
  6
CONTINUOUS
 10
2.237520
 20
-4.034118
  0
VERTEX
  8
PLAN_1
  6
CONTINUOUS
 10
2.242087
 20
-4.035134
  0
VERTEX
  8
PLAN_1
  6
CONTINUOUS
 10
2.247165
 20
-4.036150
  0
VERTEX
  8
PLAN_1
  6
CONTINUOUS
 10
2.251732
 20
-4.036150
  0
VERTEX
  8
PLAN_1
  6
CONTINUOUS
 10
2.256811
 20
-4.036657
  0
VERTEX
  8
PLAN_1
  6
CONTINUOUS
 10
2.264425
 20
-4.036150
  0
VERTEX
  8
PLAN_1
  6
CONTINUOUS
 10
2.273059
 20
-4.035134
  0
VERTEX
  8
PLAN_1
  6
CONTINUOUS
 10
2.277626
 20
-4.034626
  0
VERTEX
  8
PLAN_1
  6
CONTINUOUS
 10
2.281689
 20
-4.033610
  0
VERTEX
  8
PLAN_1
  6
CONTINUOUS
 10
2.286260
 20
-4.032087
  0
VERTEX
  8
PLAN_1
  6
CONTINUOUS
 10
2.290319
 20
-4.030567
  0
VERTEX
  8
PLAN_1
  6
CONTINUOUS
 10
2.293874
 20
-4.028535
  0
VERTEX
  8
PLAN_1
  6
CONTINUOUS
 10
2.297429
 20
-4.025996
  0
VERTEX
  8
PLAN_1
  6
CONTINUOUS
 10
2.300476
 20
-4.023457
  0
VERTEX
  8
PLAN_1
  6
CONTINUOUS
 10
2.303520
 20
-4.020409
  0
VERTEX
  8
PLAN_1
  6
CONTINUOUS
 10
2.305551
 20
-4.016350
  0
VERTEX
  8
PLAN_1
  6
CONTINUOUS
 10
2.307583
 20
-4.012287
  0
VERTEX
  8
PLAN_1
  6
CONTINUOUS
 10
2.308598
 20
-4.007717
  0
VERTEX
  8
PLAN_1
  6
CONTINUOUS
 10
2.309106
 20
-4.002642
  0
VERTEX
  8
PLAN_1
  6
CONTINUOUS
 10
2.308598
 20
-3.999087
  0
VERTEX
  8
PLAN_1
  6
CONTINUOUS
 10
2.308598
 20
-3.995531
  0
VERTEX
  8
PLAN_1
  6
CONTINUOUS
 10
2.307583
 20
-3.992484
  0
VERTEX
  8
PLAN_1
  6
CONTINUOUS
 10
2.307075
 20
-3.989441
  0
VERTEX
  8
PLAN_1
  6
CONTINUOUS
 10
2.305551
 20
-3.986902
  0
VERTEX
  8
PLAN_1
  6
CONTINUOUS
 10
2.304028
 20
-3.984870
  0
VERTEX
  8
PLAN_1
  6
CONTINUOUS
 10
2.302000
 20
-3.982331
  0
VERTEX
  8
PLAN_1
  6
CONTINUOUS
 10
2.299969
 20
-3.980299
  0
VERTEX
  8
PLAN_1
  6
CONTINUOUS
 10
2.297429
 20
-3.978272
  0
VERTEX
  8
PLAN_1
  6
CONTINUOUS
 10
2.294382
 20
-3.976748
  0
VERTEX
  8
PLAN_1
  6
CONTINUOUS
 10
2.290827
 20
-3.975224
  0
VERTEX
  8
PLAN_1
  6
CONTINUOUS
 10
2.286768
 20
-3.973701
  0
VERTEX
  8
PLAN_1
  6
CONTINUOUS
 10
2.277626
 20
-3.970654
  0
VERTEX
  8
PLAN_1
  6
CONTINUOUS
 10
2.266457
 20
-3.967606
  0
VERTEX
  8
PLAN_1
  6
CONTINUOUS
 10
2.225839
 20
-3.957961
  0
VERTEX
  8
PLAN_1
  6
CONTINUOUS
 10
2.220256
 20
-3.956945
  0
VERTEX
  8
PLAN_1
  6
CONTINUOUS
 10
2.213654
 20
-3.954406
  0
VERTEX
  8
PLAN_1
  6
CONTINUOUS
 10
2.210102
 20
-3.952886
  0
VERTEX
  8
PLAN_1
  6
CONTINUOUS
 10
2.206547
 20
-3.951362
  0
VERTEX
  8
PLAN_1
  6
CONTINUOUS
 10
2.202992
 20
-3.948823
  0
VERTEX
  8
PLAN_1
  6
CONTINUOUS
 10
2.199441
 20
-3.946791
  0
VERTEX
  8
PLAN_1
  6
CONTINUOUS
 10
2.196394
 20
-3.943744
  0
VERTEX
  8
PLAN_1
  6
CONTINUOUS
 10
2.193346
 20
-3.940701
  0
VERTEX
  8
PLAN_1
  6
CONTINUOUS
 10
2.190299
 20
-3.937146
  0
VERTEX
  8
PLAN_1
  6
CONTINUOUS
 10
2.187760
 20
-3.932575
  0
VERTEX
  8
PLAN_1
  6
CONTINUOUS
 10
2.185732
 20
-3.928004
  0
VERTEX
  8
PLAN_1
  6
CONTINUOUS
 10
2.184209
 20
-3.922929
  0
VERTEX
  8
PLAN_1
  6
CONTINUOUS
 10
2.183701
 20
-3.917343
  0
VERTEX
  8
PLAN_1
  6
CONTINUOUS
 10
2.183193
 20
-3.911252
  0
VERTEX
  8
PLAN_1
  6
CONTINUOUS
 10
2.183193
 20
-3.905665
  0
VERTEX
  8
PLAN_1
  6
CONTINUOUS
 10
2.184209
 20
-3.899575
  0
VERTEX
  8
PLAN_1
  6
CONTINUOUS
 10
2.185224
 20
-3.893988
  0
VERTEX
  8
PLAN_1
  6
CONTINUOUS
 10
2.187252
 20
-3.888406
  0
VERTEX
  8
PLAN_1
  6
CONTINUOUS
 10
2.189283
 20
-3.883327
  0
VERTEX
  8
PLAN_1
  6
CONTINUOUS
 10
2.192331
 20
-3.878248
  0
VERTEX
  8
PLAN_1
  6
CONTINUOUS
 10
2.195378
 20
-3.873173
  0
VERTEX
  8
PLAN_1
  6
CONTINUOUS
 10
2.199441
 20
-3.868602
  0
VERTEX
  8
PLAN_1
  6
CONTINUOUS
 10
2.204008
 20
-3.864539
  0
VERTEX
  8
PLAN_1
  6
CONTINUOUS
 10
2.208579
 20
-3.860988
  0
VERTEX
  8
PLAN_1
  6
CONTINUOUS
 10
2.214161
 20
-3.857941
  0
VERTEX
  8
PLAN_1
  6
CONTINUOUS
 10
2.220764
 20
-3.854894
  0
VERTEX
  8
PLAN_1
  6
CONTINUOUS
 10
2.227362
 20
-3.852862
  0
VERTEX
  8
PLAN_1
  6
CONTINUOUS
 10
2.234980
 20
-3.850831
  0
VERTEX
  8
PLAN_1
  6
CONTINUOUS
 10
2.243102
 20
-3.849819
  0
VERTEX
  8
PLAN_1
  6
CONTINUOUS
 10
2.251732
 20
-3.849819
  0
VERTEX
  8
PLAN_1
  6
CONTINUOUS
 10
2.263921
 20
-3.850327
  0
VERTEX
  8
PLAN_1
  6
CONTINUOUS
 10
2.275091
 20
-3.851339
  0
VERTEX
  8
PLAN_1
  6
CONTINUOUS
 10
2.284736
 20
-3.853878
  0
VERTEX
  8
PLAN_1
  6
CONTINUOUS
 10
2.292858
 20
-3.856417
  0
VERTEX
  8
PLAN_1
  6
CONTINUOUS
 10
2.300476
 20
-3.859972
  0
VERTEX
  8
PLAN_1
  6
CONTINUOUS
 10
2.306567
 20
-3.864031
  0
VERTEX
  8
PLAN_1
  6
CONTINUOUS
 10
2.312154
 20
-3.868602
  0
VERTEX
  8
PLAN_1
  6
CONTINUOUS
 10
2.316213
 20
-3.873173
  0
VERTEX
  8
PLAN_1
  6
CONTINUOUS
 10
2.319768
 20
-3.878248
  0
VERTEX
  8
PLAN_1
  6
CONTINUOUS
 10
2.322815
 20
-3.883327
  0
VERTEX
  8
PLAN_1
  6
CONTINUOUS
 10
2.324846
 20
-3.888913
  0
VERTEX
  8
PLAN_1
  6
CONTINUOUS
 10
2.326878
 20
-3.893988
  0
VERTEX
  8
PLAN_1
  6
CONTINUOUS
 10
2.327894
 20
-3.899067
  0
VERTEX
  8
PLAN_1
  6
CONTINUOUS
 10
2.328402
 20
-3.904142
  0
VERTEX
  8
PLAN_1
  6
CONTINUOUS
 10
2.328906
 20
-3.908713
  0
VERTEX
  8
PLAN_1
  6
CONTINUOUS
 10
2.329413
 20
-3.913283
  0
VERTEX
  8
PLAN_1
  6
CONTINUOUS
 10
2.304028
 20
-3.913283
  0
SEQEND
  8
0
  0
POLYLINE
  8
PLAN_1
  6
CONTINUOUS
 66
     1
 40
0.008122
 41
0.008122
  0
VERTEX
  8
PLAN_1
  6
CONTINUOUS
 10
-1.209386
 20
2.329630
  0
VERTEX
  8
PLAN_1
  6
CONTINUOUS
 10
-1.209386
 20
2.492102
  0
VERTEX
  8
PLAN_1
  6
CONTINUOUS
 10
-1.291130
 20
2.818567
  0
VERTEX
  8
PLAN_1
  6
CONTINUOUS
 10
-2.107035
 20
2.818567
  0
VERTEX
  8
PLAN_1
  6
CONTINUOUS
 10
-2.188776
 20
2.492102
  0
VERTEX
  8
PLAN_1
  6
CONTINUOUS
 10
-2.188776
 20
2.328110
  0
SEQEND
  8
0
  0
POLYLINE
  8
PLAN_1
  6
CONTINUOUS
 66
     1
 40
0.008122
 41
0.008122
  0
VERTEX
  8
PLAN_1
  6
CONTINUOUS
 10
-2.188776
 20
2.270228
  0
VERTEX
  8
PLAN_1
  6
CONTINUOUS
 10
-1.209386
 20
2.270228
  0
SEQEND
  8
0
  0
POLYLINE
  8
PLAN_1
  6
CONTINUOUS
 66
     1
 40
0.008122
 41
0.008122
  0
VERTEX
  8
PLAN_1
  6
CONTINUOUS
 10
-1.147953
 20
-0.650173
  0
VERTEX
  8
PLAN_1
  6
CONTINUOUS
 10
-1.147953
 20
1.941228
  0
VERTEX
  8
PLAN_1
  6
CONTINUOUS
 10
-2.249705
 20
1.941228
  0
VERTEX
  8
PLAN_1
  6
CONTINUOUS
 10
-2.249705
 20
-0.650173
  0
VERTEX
  8
PLAN_1
  6
CONTINUOUS
 10
-1.147953
 20
-0.650173
  0
SEQEND
  8
0
  0
POLYLINE
  8
PLAN_1
  6
CONTINUOUS
 66
     1
 40
0.008122
 41
0.008122
  0
VERTEX
  8
PLAN_1
  6
CONTINUOUS
 10
-2.195378
 20
-0.384634
  0
VERTEX
  8
PLAN_1
  6
CONTINUOUS
 10
-2.195378
 20
1.493417
  0
VERTEX
  8
PLAN_1
  6
CONTINUOUS
 10
-2.249197
 20
1.493417
  0
VERTEX
  8
PLAN_1
  6
CONTINUOUS
 10
-2.249197
 20
-0.384634
  0
VERTEX
  8
PLAN_1
  6
CONTINUOUS
 10
-2.249705
 20
-0.384634
  0
VERTEX
  8
PLAN_1
  6
CONTINUOUS
 10
-2.195378
 20
-0.384634
  0
SEQEND
  8
0
  0
POLYLINE
  8
PLAN_1
  6
CONTINUOUS
 66
     1
 40
0.008122
 41
0.008122
  0
VERTEX
  8
PLAN_1
  6
CONTINUOUS
 10
-2.141559
 20
-0.384634
  0
VERTEX
  8
PLAN_1
  6
CONTINUOUS
 10
-2.141051
 20
-0.384634
  0
VERTEX
  8
PLAN_1
  6
CONTINUOUS
 10
-2.141051
 20
1.207571
  0
VERTEX
  8
PLAN_1
  6
CONTINUOUS
 10
-2.195378
 20
1.207571
  0
VERTEX
  8
PLAN_1
  6
CONTINUOUS
 10
-2.195378
 20
-0.384634
  0
VERTEX
  8
PLAN_1
  6
CONTINUOUS
 10
-2.141559
 20
-0.384634
  0
SEQEND
  8
0
  0
POLYLINE
  8
PLAN_1
  6
CONTINUOUS
 66
     1
 40
0.008122
 41
0.008122
  0
VERTEX
  8
PLAN_1
  6
CONTINUOUS
 10
-2.249705
 20
1.492909
  0
VERTEX
  8
PLAN_1
  6
CONTINUOUS
 10
-1.352563
 20
1.492909
  0
VERTEX
  8
PLAN_1
  6
CONTINUOUS
 10
-1.352563
 20
1.941228
  0
SEQEND
  8
0
  0
POLYLINE
  8
PLAN_1
  6
CONTINUOUS
 66
     1
 40
0.008122
 41
0.008122
  0
VERTEX
  8
PLAN_1
  6
CONTINUOUS
 10
-2.249197
 20
1.170508
  0
VERTEX
  8
PLAN_1
  6
CONTINUOUS
 10
-2.249197
 20
1.394921
  0
VERTEX
  8
PLAN_1
  6
CONTINUOUS
 10
-2.330937
 20
1.394921
  0
VERTEX
  8
PLAN_1
  6
CONTINUOUS
 10
-2.330937
 20
1.170508
  0
VERTEX
  8
PLAN_1
  6
CONTINUOUS
 10
-2.249197
 20
1.170508
  0
SEQEND
  8
0
  0
POLYLINE
  8
PLAN_1
  6
CONTINUOUS
 66
     1
 40
0.008122
 41
0.008122
  0
VERTEX
  8
PLAN_1
  6
CONTINUOUS
 10
-1.209894
 20
-0.711098
  0
VERTEX
  8
PLAN_1
  6
CONTINUOUS
 10
-1.209894
 20
-0.650173
  0
VERTEX
  8
PLAN_1
  6
CONTINUOUS
 10
-2.107543
 20
-0.650173
  0
VERTEX
  8
PLAN_1
  6
CONTINUOUS
 10
-2.107543
 20
-0.711098
  0
VERTEX
  8
PLAN_1
  6
CONTINUOUS
 10
-1.209894
 20
-0.711098
  0
SEQEND
  8
0
  0
POLYLINE
  8
PLAN_1
  6
CONTINUOUS
 66
     1
 40
0.008122
 41
0.008122
  0
VERTEX
  8
PLAN_1
  6
CONTINUOUS
 10
-1.645008
 20
-0.447083
  0
VERTEX
  8
PLAN_1
  6
CONTINUOUS
 10
-1.624193
 20
-0.446575
  0
VERTEX
  8
PLAN_1
  6
CONTINUOUS
 10
-1.603378
 20
-0.445051
  0
VERTEX
  8
PLAN_1
  6
CONTINUOUS
 10
-1.583067
 20
-0.442516
  0
VERTEX
  8
PLAN_1
  6
CONTINUOUS
 10
-1.562760
 20
-0.438961
  0
VERTEX
  8
PLAN_1
  6
CONTINUOUS
 10
-1.542957
 20
-0.434390
  0
VERTEX
  8
PLAN_1
  6
CONTINUOUS
 10
-1.523665
 20
-0.428807
  0
VERTEX
  8
PLAN_1
  6
CONTINUOUS
 10
-1.504878
 20
-0.422205
  0
VERTEX
  8
PLAN_1
  6
CONTINUOUS
 10
-1.486094
 20
-0.415098
  0
VERTEX
  8
PLAN_1
  6
CONTINUOUS
 10
-1.468323
 20
-0.406972
  0
VERTEX
  8
PLAN_1
  6
CONTINUOUS
 10
-1.450555
 20
-0.397835
  0
VERTEX
  8
PLAN_1
  6
CONTINUOUS
 10
-1.433291
 20
-0.388189
  0
VERTEX
  8
PLAN_1
  6
CONTINUOUS
 10
-1.417043
 20
-0.377528
  0
VERTEX
  8
PLAN_1
  6
CONTINUOUS
 10
-1.400795
 20
-0.365850
  0
VERTEX
  8
PLAN_1
  6
CONTINUOUS
 10
-1.385567
 20
-0.354173
  0
VERTEX
  8
PLAN_1
  6
CONTINUOUS
 10
-1.370843
 20
-0.340972
  0
VERTEX
  8
PLAN_1
  6
CONTINUOUS
 10
-1.356626
 20
-0.327772
  0
VERTEX
  8
PLAN_1
  6
CONTINUOUS
 10
-1.342917
 20
-0.313555
  0
VERTEX
  8
PLAN_1
  6
CONTINUOUS
 10
-1.330224
 20
-0.298831
  0
VERTEX
  8
PLAN_1
  6
CONTINUOUS
 10
-1.318039
 20
-0.283091
  0
VERTEX
  8
PLAN_1
  6
CONTINUOUS
 10
-1.306870
 20
-0.267350
  0
VERTEX
  8
PLAN_1
  6
CONTINUOUS
 10
-1.296209
 20
-0.250598
  0
VERTEX
  8
PLAN_1
  6
CONTINUOUS
 10
-1.286051
 20
-0.233843
  0
VERTEX
  8
PLAN_1
  6
CONTINUOUS
 10
-1.277421
 20
-0.216071
  0
VERTEX
  8
PLAN_1
  6
CONTINUOUS
 10
-1.268791
 20
-0.197795
  0
VERTEX
  8
PLAN_1
  6
CONTINUOUS
 10
-1.261681
 20
-0.179516
  0
VERTEX
  8
PLAN_1
  6
CONTINUOUS
 10
-1.255083
 20
-0.160224
  0
VERTEX
  8
PLAN_1
  6
CONTINUOUS
 10
-1.250004
 20
-0.140929
  0
VERTEX
  8
PLAN_1
  6
CONTINUOUS
 10
-1.245433
 20
-0.121130
  0
VERTEX
  8
PLAN_1
  6
CONTINUOUS
 10
-1.241882
 20
-0.101327
  0
VERTEX
  8
PLAN_1
  6
CONTINUOUS
 10
-1.238835
 20
-0.081020
  0
VERTEX
  8
PLAN_1
  6
CONTINUOUS
 10
-1.237311
 20
-0.060201
  0
VERTEX
  8
PLAN_1
  6
CONTINUOUS
 10
-1.236803
 20
-0.038878
  0
VERTEX
  8
PLAN_1
  6
CONTINUOUS
 10
-1.237311
 20
-0.018063
  0
VERTEX
  8
PLAN_1
  6
CONTINUOUS
 10
-1.238835
 20
0.002756
  0
VERTEX
  8
PLAN_1
  6
CONTINUOUS
 10
-1.241882
 20
0.023063
  0
VERTEX
  8
PLAN_1
  6
CONTINUOUS
 10
-1.245433
 20
0.042866
  0
VERTEX
  8
PLAN_1
  6
CONTINUOUS
 10
-1.250004
 20
0.062665
  0
VERTEX
  8
PLAN_1
  6
CONTINUOUS
 10
-1.255083
 20
0.082469
  0
VERTEX
  8
PLAN_1
  6
CONTINUOUS
 10
-1.261681
 20
0.101252
  0
VERTEX
  8
PLAN_1
  6
CONTINUOUS
 10
-1.268791
 20
0.119531
  0
VERTEX
  8
PLAN_1
  6
CONTINUOUS
 10
-1.277421
 20
0.137807
  0
VERTEX
  8
PLAN_1
  6
CONTINUOUS
 10
-1.286051
 20
0.155579
  0
VERTEX
  8
PLAN_1
  6
CONTINUOUS
 10
-1.296209
 20
0.172335
  0
VERTEX
  8
PLAN_1
  6
CONTINUOUS
 10
-1.306870
 20
0.189087
  0
VERTEX
  8
PLAN_1
  6
CONTINUOUS
 10
-1.318039
 20
0.204827
  0
VERTEX
  8
PLAN_1
  6
CONTINUOUS
 10
-1.330224
 20
0.220567
  0
VERTEX
  8
PLAN_1
  6
CONTINUOUS
 10
-1.342917
 20
0.235291
  0
VERTEX
  8
PLAN_1
  6
CONTINUOUS
 10
-1.356626
 20
0.249508
  0
VERTEX
  8
PLAN_1
  6
CONTINUOUS
 10
-1.370843
 20
0.262709
  0
VERTEX
  8
PLAN_1
  6
CONTINUOUS
 10
-1.385567
 20
0.275909
  0
VERTEX
  8
PLAN_1
  6
CONTINUOUS
 10
-1.400795
 20
0.288094
  0
VERTEX
  8
PLAN_1
  6
CONTINUOUS
 10
-1.417043
 20
0.299264
  0
VERTEX
  8
PLAN_1
  6
CONTINUOUS
 10
-1.433291
 20
0.309925
  0
VERTEX
  8
PLAN_1
  6
CONTINUOUS
 10
-1.450555
 20
0.319571
  0
VERTEX
  8
PLAN_1
  6
CONTINUOUS
 10
-1.468323
 20
0.328713
  0
VERTEX
  8
PLAN_1
  6
CONTINUOUS
 10
-1.486094
 20
0.336835
  0
VERTEX
  8
PLAN_1
  6
CONTINUOUS
 10
-1.504878
 20
0.343941
  0
VERTEX
  8
PLAN_1
  6
CONTINUOUS
 10
-1.523665
 20
0.350543
  0
VERTEX
  8
PLAN_1
  6
CONTINUOUS
 10
-1.542957
 20
0.356126
  0
VERTEX
  8
PLAN_1
  6
CONTINUOUS
 10
-1.562760
 20
0.360697
  0
VERTEX
  8
PLAN_1
  6
CONTINUOUS
 10
-1.583067
 20
0.364252
  0
VERTEX
  8
PLAN_1
  6
CONTINUOUS
 10
-1.603378
 20
0.366791
  0
VERTEX
  8
PLAN_1
  6
CONTINUOUS
 10
-1.624193
 20
0.368311
  0
VERTEX
  8
PLAN_1
  6
CONTINUOUS
 10
-1.645008
 20
0.368819
  0
VERTEX
  8
PLAN_1
  6
CONTINUOUS
 10
-1.665827
 20
0.368311
  0
VERTEX
  8
PLAN_1
  6
CONTINUOUS
 10
-1.686642
 20
0.366791
  0
VERTEX
  8
PLAN_1
  6
CONTINUOUS
 10
-1.706953
 20
0.364252
  0
VERTEX
  8
PLAN_1
  6
CONTINUOUS
 10
-1.727260
 20
0.360697
  0
VERTEX
  8
PLAN_1
  6
CONTINUOUS
 10
-1.747063
 20
0.356126
  0
VERTEX
  8
PLAN_1
  6
CONTINUOUS
 10
-1.766354
 20
0.350543
  0
VERTEX
  8
PLAN_1
  6
CONTINUOUS
 10
-1.785142
 20
0.343941
  0
VERTEX
  8
PLAN_1
  6
CONTINUOUS
 10
-1.803925
 20
0.336835
  0
VERTEX
  8
PLAN_1
  6
CONTINUOUS
 10
-1.821697
 20
0.328713
  0
VERTEX
  8
PLAN_1
  6
CONTINUOUS
 10
-1.839465
 20
0.319571
  0
VERTEX
  8
PLAN_1
  6
CONTINUOUS
 10
-1.856728
 20
0.309925
  0
VERTEX
  8
PLAN_1
  6
CONTINUOUS
 10
-1.872976
 20
0.299264
  0
VERTEX
  8
PLAN_1
  6
CONTINUOUS
 10
-1.889224
 20
0.288094
  0
VERTEX
  8
PLAN_1
  6
CONTINUOUS
 10
-1.904453
 20
0.275909
  0
VERTEX
  8
PLAN_1
  6
CONTINUOUS
 10
-1.919177
 20
0.262709
  0
VERTEX
  8
PLAN_1
  6
CONTINUOUS
 10
-1.933394
 20
0.249508
  0
VERTEX
  8
PLAN_1
  6
CONTINUOUS
 10
-1.947102
 20
0.235291
  0
VERTEX
  8
PLAN_1
  6
CONTINUOUS
 10
-1.959795
 20
0.220567
  0
VERTEX
  8
PLAN_1
  6
CONTINUOUS
 10
-1.971980
 20
0.204827
  0
VERTEX
  8
PLAN_1
  6
CONTINUOUS
 10
-1.983150
 20
0.189087
  0
VERTEX
  8
PLAN_1
  6
CONTINUOUS
 10
-1.993811
 20
0.172335
  0
VERTEX
  8
PLAN_1
  6
CONTINUOUS
 10
-2.003969
 20
0.155579
  0
VERTEX
  8
PLAN_1
  6
CONTINUOUS
 10
-2.012598
 20
0.137807
  0
VERTEX
  8
PLAN_1
  6
CONTINUOUS
 10
-2.020720
 20
0.119531
  0
VERTEX
  8
PLAN_1
  6
CONTINUOUS
 10
-2.028339
 20
0.101252
  0
VERTEX
  8
PLAN_1
  6
CONTINUOUS
 10
-2.034937
 20
0.082469
  0
VERTEX
  8
PLAN_1
  6
CONTINUOUS
 10
-2.040016
 20
0.062665
  0
VERTEX
  8
PLAN_1
  6
CONTINUOUS
 10
-2.044587
 20
0.042866
  0
VERTEX
  8
PLAN_1
  6
CONTINUOUS
 10
-2.048138
 20
0.023063
  0
VERTEX
  8
PLAN_1
  6
CONTINUOUS
 10
-2.050677
 20
0.002756
  0
VERTEX
  8
PLAN_1
  6
CONTINUOUS
 10
-2.052709
 20
-0.018063
  0
VERTEX
  8
PLAN_1
  6
CONTINUOUS
 10
-2.053217
 20
-0.038878
  0
VERTEX
  8
PLAN_1
  6
CONTINUOUS
 10
-2.052709
 20
-0.060201
  0
VERTEX
  8
PLAN_1
  6
CONTINUOUS
 10
-2.050677
 20
-0.081020
  0
VERTEX
  8
PLAN_1
  6
CONTINUOUS
 10
-2.048138
 20
-0.101327
  0
VERTEX
  8
PLAN_1
  6
CONTINUOUS
 10
-2.044587
 20
-0.121130
  0
VERTEX
  8
PLAN_1
  6
CONTINUOUS
 10
-2.040016
 20
-0.140929
  0
VERTEX
  8
PLAN_1
  6
CONTINUOUS
 10
-2.034937
 20
-0.160224
  0
VERTEX
  8
PLAN_1
  6
CONTINUOUS
 10
-2.028339
 20
-0.179516
  0
VERTEX
  8
PLAN_1
  6
CONTINUOUS
 10
-2.020720
 20
-0.197795
  0
VERTEX
  8
PLAN_1
  6
CONTINUOUS
 10
-2.012598
 20
-0.216071
  0
VERTEX
  8
PLAN_1
  6
CONTINUOUS
 10
-2.003969
 20
-0.233843
  0
VERTEX
  8
PLAN_1
  6
CONTINUOUS
 10
-1.993811
 20
-0.250598
  0
VERTEX
  8
PLAN_1
  6
CONTINUOUS
 10
-1.983150
 20
-0.267350
  0
VERTEX
  8
PLAN_1
  6
CONTINUOUS
 10
-1.971980
 20
-0.283091
  0
VERTEX
  8
PLAN_1
  6
CONTINUOUS
 10
-1.959795
 20
-0.298831
  0
VERTEX
  8
PLAN_1
  6
CONTINUOUS
 10
-1.947102
 20
-0.313555
  0
VERTEX
  8
PLAN_1
  6
CONTINUOUS
 10
-1.933394
 20
-0.327772
  0
VERTEX
  8
PLAN_1
  6
CONTINUOUS
 10
-1.919177
 20
-0.340972
  0
VERTEX
  8
PLAN_1
  6
CONTINUOUS
 10
-1.904453
 20
-0.354173
  0
VERTEX
  8
PLAN_1
  6
CONTINUOUS
 10
-1.889224
 20
-0.365850
  0
VERTEX
  8
PLAN_1
  6
CONTINUOUS
 10
-1.872976
 20
-0.377528
  0
VERTEX
  8
PLAN_1
  6
CONTINUOUS
 10
-1.856728
 20
-0.388189
  0
VERTEX
  8
PLAN_1
  6
CONTINUOUS
 10
-1.839465
 20
-0.397835
  0
VERTEX
  8
PLAN_1
  6
CONTINUOUS
 10
-1.821697
 20
-0.406972
  0
VERTEX
  8
PLAN_1
  6
CONTINUOUS
 10
-1.803925
 20
-0.415098
  0
VERTEX
  8
PLAN_1
  6
CONTINUOUS
 10
-1.785142
 20
-0.422205
  0
VERTEX
  8
PLAN_1
  6
CONTINUOUS
 10
-1.766354
 20
-0.428807
  0
VERTEX
  8
PLAN_1
  6
CONTINUOUS
 10
-1.747063
 20
-0.434390
  0
VERTEX
  8
PLAN_1
  6
CONTINUOUS
 10
-1.727260
 20
-0.438961
  0
VERTEX
  8
PLAN_1
  6
CONTINUOUS
 10
-1.706953
 20
-0.442516
  0
VERTEX
  8
PLAN_1
  6
CONTINUOUS
 10
-1.686642
 20
-0.445051
  0
VERTEX
  8
PLAN_1
  6
CONTINUOUS
 10
-1.665827
 20
-0.446575
  0
VERTEX
  8
PLAN_1
  6
CONTINUOUS
 10
-1.645008
 20
-0.447083
  0
SEQEND
  8
0
  0
POLYLINE
  8
PLAN_1
  6
CONTINUOUS
 66
     1
 40
0.008122
 41
0.008122
  0
VERTEX
  8
PLAN_1
  6
CONTINUOUS
 10
-1.971472
 20
-0.069850
  0
VERTEX
  8
PLAN_1
  6
CONTINUOUS
 10
-1.971472
 20
-0.008413
  0
VERTEX
  8
PLAN_1
  6
CONTINUOUS
 10
-1.675472
 20
-0.008413
  0
VERTEX
  8
PLAN_1
  6
CONTINUOUS
 10
-1.675472
 20
0.287079
  0
VERTEX
  8
PLAN_1
  6
CONTINUOUS
 10
-1.614547
 20
0.287079
  0
VERTEX
  8
PLAN_1
  6
CONTINUOUS
 10
-1.614547
 20
-0.008413
  0
VERTEX
  8
PLAN_1
  6
CONTINUOUS
 10
-1.318547
 20
-0.008413
  0
VERTEX
  8
PLAN_1
  6
CONTINUOUS
 10
-1.318547
 20
-0.069850
  0
VERTEX
  8
PLAN_1
  6
CONTINUOUS
 10
-1.614547
 20
-0.069850
  0
VERTEX
  8
PLAN_1
  6
CONTINUOUS
 10
-1.614547
 20
-0.365343
  0
VERTEX
  8
PLAN_1
  6
CONTINUOUS
 10
-1.675472
 20
-0.365343
  0
VERTEX
  8
PLAN_1
  6
CONTINUOUS
 10
-1.675472
 20
-0.069850
  0
VERTEX
  8
PLAN_1
  6
CONTINUOUS
 10
-1.971472
 20
-0.069850
  0
SEQEND
  8
0
  0
POLYLINE
  8
PLAN_1
  6
CONTINUOUS
 66
     1
 40
0.008122
 41
0.008122
  0
VERTEX
  8
PLAN_1
  6
CONTINUOUS
 10
-1.922732
 20
1.534035
  0
VERTEX
  8
PLAN_1
  6
CONTINUOUS
 10
-1.922732
 20
1.758449
  0
VERTEX
  8
PLAN_1
  6
CONTINUOUS
 10
-2.208579
 20
1.758449
  0
VERTEX
  8
PLAN_1
  6
CONTINUOUS
 10
-2.208579
 20
1.534035
  0
VERTEX
  8
PLAN_1
  6
CONTINUOUS
 10
-1.922732
 20
1.534035
  0
SEQEND
  8
0
  0
POLYLINE
  8
PLAN_1
  6
CONTINUOUS
 66
     1
 40
0.008122
 41
0.008122
  0
VERTEX
  8
PLAN_1
  6
CONTINUOUS
 10
-2.249705
 20
2.267181
  0
VERTEX
  8
PLAN_1
  6
CONTINUOUS
 10
-2.249705
 20
1.941228
  0
VERTEX
  8
PLAN_1
  6
CONTINUOUS
 10
-1.147953
 20
1.941228
  0
VERTEX
  8
PLAN_1
  6
CONTINUOUS
 10
-1.147953
 20
2.267181
  0
VERTEX
  8
PLAN_1
  6
CONTINUOUS
 10
-1.454106
 20
2.267689
  0
VERTEX
  8
PLAN_1
  6
CONTINUOUS
 10
-1.454106
 20
2.328618
  0
VERTEX
  8
PLAN_1
  6
CONTINUOUS
 10
-1.943547
 20
2.328618
  0
VERTEX
  8
PLAN_1
  6
CONTINUOUS
 10
-1.943547
 20
2.267689
  0
VERTEX
  8
PLAN_1
  6
CONTINUOUS
 10
-2.249705
 20
2.267181
  0
SEQEND
  8
0
  0
POLYLINE
  8
PLAN_1
  6
CONTINUOUS
 66
     1
 40
0.008122
 41
0.008122
  0
VERTEX
  8
PLAN_1
  6
CONTINUOUS
 10
-1.959795
 20
2.492102
  0
VERTEX
  8
PLAN_1
  6
CONTINUOUS
 10
-1.434307
 20
2.492102
  0
SEQEND
  8
0
  0
POLYLINE
  8
PLAN_1
  6
CONTINUOUS
 66
     1
 40
0.008122
 41
0.008122
  0
VERTEX
  8
PLAN_1
  6
CONTINUOUS
 10
-1.617087
 20
3.287697
  0
VERTEX
  8
PLAN_1
  6
CONTINUOUS
 10
-1.372366
 20
3.287697
  0
VERTEX
  8
PLAN_1
  6
CONTINUOUS
 10
-1.372366
 20
2.818567
  0
VERTEX
  8
PLAN_1
  6
CONTINUOUS
 10
-2.025291
 20
2.818567
  0
VERTEX
  8
PLAN_1
  6
CONTINUOUS
 10
-2.025291
 20
3.287697
  0
VERTEX
  8
PLAN_1
  6
CONTINUOUS
 10
-1.781079
 20
3.287697
  0
VERTEX
  8
PLAN_1
  6
CONTINUOUS
 10
-1.780571
 20
3.287697
  0
VERTEX
  8
PLAN_1
  6
CONTINUOUS
 10
-1.780571
 20
2.879492
  0
VERTEX
  8
PLAN_1
  6
CONTINUOUS
 10
-1.617594
 20
2.879492
  0
VERTEX
  8
PLAN_1
  6
CONTINUOUS
 10
-1.617594
 20
3.287697
  0
VERTEX
  8
PLAN_1
  6
CONTINUOUS
 10
-1.617087
 20
3.287697
  0
SEQEND
  8
0
  0
POLYLINE
  8
PLAN_1
  6
CONTINUOUS
 66
     1
 40
0.008122
 41
0.008122
  0
VERTEX
  8
PLAN_1
  6
CONTINUOUS
 10
-1.627748
 20
3.162799
  0
VERTEX
  8
PLAN_1
  6
CONTINUOUS
 10
-1.627748
 20
3.652240
  0
VERTEX
  8
PLAN_1
  6
CONTINUOUS
 10
-1.770417
 20
3.652240
  0
VERTEX
  8
PLAN_1
  6
CONTINUOUS
 10
-1.770417
 20
3.162799
  0
VERTEX
  8
PLAN_1
  6
CONTINUOUS
 10
-1.627748
 20
3.162799
  0
SEQEND
  8
0
  0
POLYLINE
  8
PLAN_1
  6
CONTINUOUS
 66
     1
 40
0.008122
 41
0.008122
  0
VERTEX
  8
PLAN_1
  6
CONTINUOUS
 10
-1.945579
 20
2.329630
  0
VERTEX
  8
PLAN_1
  6
CONTINUOUS
 10
-1.945579
 20
2.346894
  0
VERTEX
  8
PLAN_1
  6
CONTINUOUS
 10
-1.946087
 20
2.364157
  0
VERTEX
  8
PLAN_1
  6
CONTINUOUS
 10
-1.947102
 20
2.381417
  0
VERTEX
  8
PLAN_1
  6
CONTINUOUS
 10
-1.948626
 20
2.399189
  0
VERTEX
  8
PLAN_1
  6
CONTINUOUS
 10
-1.950150
 20
2.416961
  0
VERTEX
  8
PLAN_1
  6
CONTINUOUS
 10
-1.952181
 20
2.435236
  0
VERTEX
  8
PLAN_1
  6
CONTINUOUS
 10
-1.954213
 20
2.453008
  0
VERTEX
  8
PLAN_1
  6
CONTINUOUS
 10
-1.956748
 20
2.470780
  0
VERTEX
  8
PLAN_1
  6
CONTINUOUS
 10
-1.962335
 20
2.506319
  0
VERTEX
  8
PLAN_1
  6
CONTINUOUS
 10
-1.968425
 20
2.540843
  0
VERTEX
  8
PLAN_1
  6
CONTINUOUS
 10
-1.974520
 20
2.574350
  0
VERTEX
  8
PLAN_1
  6
CONTINUOUS
 10
-1.981626
 20
2.605831
  0
VERTEX
  8
PLAN_1
  6
CONTINUOUS
 10
-1.988228
 20
2.635280
  0
VERTEX
  8
PLAN_1
  6
CONTINUOUS
 10
-1.994827
 20
2.662697
  0
VERTEX
  8
PLAN_1
  6
CONTINUOUS
 10
-2.000921
 20
2.686559
  0
VERTEX
  8
PLAN_1
  6
CONTINUOUS
 10
-2.006000
 20
2.707374
  0
VERTEX
  8
PLAN_1
  6
CONTINUOUS
 10
-2.014122
 20
2.736823
  0
VERTEX
  8
PLAN_1
  6
CONTINUOUS
 10
-2.017677
 20
2.746976
  0
VERTEX
  8
PLAN_1
  6
CONTINUOUS
 10
-2.018693
 20
2.752055
  0
VERTEX
  8
PLAN_1
  6
CONTINUOUS
 10
-2.020213
 20
2.756114
  0
VERTEX
  8
PLAN_1
  6
CONTINUOUS
 10
-2.022752
 20
2.759669
  0
VERTEX
  8
PLAN_1
  6
CONTINUOUS
 10
-2.025799
 20
2.762209
  0
VERTEX
  8
PLAN_1
  6
CONTINUOUS
 10
-2.028846
 20
2.764240
  0
VERTEX
  8
PLAN_1
  6
CONTINUOUS
 10
-2.032906
 20
2.765256
  0
VERTEX
  8
PLAN_1
  6
CONTINUOUS
 10
-2.036461
 20
2.766272
  0
VERTEX
  8
PLAN_1
  6
CONTINUOUS
 10
-2.040524
 20
2.766780
  0
VERTEX
  8
PLAN_1
  6
CONTINUOUS
 10
-2.048138
 20
2.766780
  0
VERTEX
  8
PLAN_1
  6
CONTINUOUS
 10
-2.054232
 20
2.766272
  0
VERTEX
  8
PLAN_1
  6
CONTINUOUS
 10
-2.058799
 20
2.765764
  0
VERTEX
  8
PLAN_1
  6
CONTINUOUS
 10
-2.060831
 20
2.765256
  0
VERTEX
  8
PLAN_1
  6
CONTINUOUS
 10
-2.065909
 20
2.755606
  0
VERTEX
  8
PLAN_1
  6
CONTINUOUS
 10
-2.070984
 20
2.745453
  0
VERTEX
  8
PLAN_1
  6
CONTINUOUS
 10
-2.076063
 20
2.735299
  0
VERTEX
  8
PLAN_1
  6
CONTINUOUS
 10
-2.080634
 20
2.724638
  0
VERTEX
  8
PLAN_1
  6
CONTINUOUS
 10
-2.089772
 20
2.702299
  0
VERTEX
  8
PLAN_1
  6
CONTINUOUS
 10
-2.098402
 20
2.679957
  0
VERTEX
  8
PLAN_1
  6
CONTINUOUS
 10
-2.106020
 20
2.657110
  0
VERTEX
  8
PLAN_1
  6
CONTINUOUS
 10
-2.113126
 20
2.634264
  0
VERTEX
  8
PLAN_1
  6
CONTINUOUS
 10
-2.119728
 20
2.611925
  0
VERTEX
  8
PLAN_1
  6
CONTINUOUS
 10
-2.125311
 20
2.590598
  0
VERTEX
  8
PLAN_1
  6
CONTINUOUS
 10
-2.134961
 20
2.551504
  0
VERTEX
  8
PLAN_1
  6
CONTINUOUS
 10
-2.141559
 20
2.520028
  0
VERTEX
  8
PLAN_1
  6
CONTINUOUS
 10
-2.145622
 20
2.499209
  0
VERTEX
  8
PLAN_1
  6
CONTINUOUS
 10
-2.147146
 20
2.491594
  0
SEQEND
  8
0
  0
POLYLINE
  8
PLAN_1
  6
CONTINUOUS
 66
     1
 40
0.008122
 41
0.008122
  0
VERTEX
  8
PLAN_1
  6
CONTINUOUS
 10
-2.147146
 20
2.491594
  0
VERTEX
  8
PLAN_1
  6
CONTINUOUS
 10
-2.147146
 20
2.300693
  0
SEQEND
  8
0
  0
POLYLINE
  8
PLAN_1
  6
CONTINUOUS
 66
     1
 40
0.008122
 41
0.008122
  0
VERTEX
  8
PLAN_1
  6
CONTINUOUS
 10
-1.449031
 20
2.329630
  0
VERTEX
  8
PLAN_1
  6
CONTINUOUS
 10
-1.448524
 20
2.346894
  0
VERTEX
  8
PLAN_1
  6
CONTINUOUS
 10
-1.448016
 20
2.364157
  0
VERTEX
  8
PLAN_1
  6
CONTINUOUS
 10
-1.447000
 20
2.381417
  0
VERTEX
  8
PLAN_1
  6
CONTINUOUS
 10
-1.445984
 20
2.399189
  0
VERTEX
  8
PLAN_1
  6
CONTINUOUS
 10
-1.443953
 20
2.416961
  0
VERTEX
  8
PLAN_1
  6
CONTINUOUS
 10
-1.442429
 20
2.435236
  0
VERTEX
  8
PLAN_1
  6
CONTINUOUS
 10
-1.439890
 20
2.453008
  0
VERTEX
  8
PLAN_1
  6
CONTINUOUS
 10
-1.437862
 20
2.470780
  0
VERTEX
  8
PLAN_1
  6
CONTINUOUS
 10
-1.432276
 20
2.506319
  0
VERTEX
  8
PLAN_1
  6
CONTINUOUS
 10
-1.426181
 20
2.540843
  0
VERTEX
  8
PLAN_1
  6
CONTINUOUS
 10
-1.419583
 20
2.574350
  0
VERTEX
  8
PLAN_1
  6
CONTINUOUS
 10
-1.412980
 20
2.605831
  0
VERTEX
  8
PLAN_1
  6
CONTINUOUS
 10
-1.406382
 20
2.635280
  0
VERTEX
  8
PLAN_1
  6
CONTINUOUS
 10
-1.399780
 20
2.662697
  0
VERTEX
  8
PLAN_1
  6
CONTINUOUS
 10
-1.393689
 20
2.686559
  0
VERTEX
  8
PLAN_1
  6
CONTINUOUS
 10
-1.388102
 20
2.707374
  0
VERTEX
  8
PLAN_1
  6
CONTINUOUS
 10
-1.379980
 20
2.736823
  0
VERTEX
  8
PLAN_1
  6
CONTINUOUS
 10
-1.376933
 20
2.746976
  0
VERTEX
  8
PLAN_1
  6
CONTINUOUS
 10
-1.375917
 20
2.752055
  0
VERTEX
  8
PLAN_1
  6
CONTINUOUS
 10
-1.373890
 20
2.756114
  0
VERTEX
  8
PLAN_1
  6
CONTINUOUS
 10
-1.371350
 20
2.759669
  0
VERTEX
  8
PLAN_1
  6
CONTINUOUS
 10
-1.368811
 20
2.762209
  0
VERTEX
  8
PLAN_1
  6
CONTINUOUS
 10
-1.365256
 20
2.764240
  0
VERTEX
  8
PLAN_1
  6
CONTINUOUS
 10
-1.361701
 20
2.765256
  0
VERTEX
  8
PLAN_1
  6
CONTINUOUS
 10
-1.357642
 20
2.766272
  0
VERTEX
  8
PLAN_1
  6
CONTINUOUS
 10
-1.354087
 20
2.766780
  0
VERTEX
  8
PLAN_1
  6
CONTINUOUS
 10
-1.346472
 20
2.766780
  0
VERTEX
  8
PLAN_1
  6
CONTINUOUS
 10
-1.339870
 20
2.766272
  0
VERTEX
  8
PLAN_1
  6
CONTINUOUS
 10
-1.335299
 20
2.765764
  0
VERTEX
  8
PLAN_1
  6
CONTINUOUS
 10
-1.333780
 20
2.765256
  0
VERTEX
  8
PLAN_1
  6
CONTINUOUS
 10
-1.328193
 20
2.755606
  0
VERTEX
  8
PLAN_1
  6
CONTINUOUS
 10
-1.323114
 20
2.745453
  0
VERTEX
  8
PLAN_1
  6
CONTINUOUS
 10
-1.318039
 20
2.735299
  0
VERTEX
  8
PLAN_1
  6
CONTINUOUS
 10
-1.313469
 20
2.724638
  0
VERTEX
  8
PLAN_1
  6
CONTINUOUS
 10
-1.304331
 20
2.702299
  0
VERTEX
  8
PLAN_1
  6
CONTINUOUS
 10
-1.295701
 20
2.679957
  0
VERTEX
  8
PLAN_1
  6
CONTINUOUS
 10
-1.288083
 20
2.657110
  0
VERTEX
  8
PLAN_1
  6
CONTINUOUS
 10
-1.280976
 20
2.634264
  0
VERTEX
  8
PLAN_1
  6
CONTINUOUS
 10
-1.274882
 20
2.611925
  0
VERTEX
  8
PLAN_1
  6
CONTINUOUS
 10
-1.268791
 20
2.590598
  0
VERTEX
  8
PLAN_1
  6
CONTINUOUS
 10
-1.259650
 20
2.551504
  0
VERTEX
  8
PLAN_1
  6
CONTINUOUS
 10
-1.252543
 20
2.520028
  0
VERTEX
  8
PLAN_1
  6
CONTINUOUS
 10
-1.248480
 20
2.499209
  0
VERTEX
  8
PLAN_1
  6
CONTINUOUS
 10
-1.247465
 20
2.491594
  0
SEQEND
  8
0
  0
POLYLINE
  8
PLAN_1
  6
CONTINUOUS
 66
     1
 40
0.008122
 41
0.008122
  0
VERTEX
  8
PLAN_1
  6
CONTINUOUS
 10
-1.247465
 20
2.491594
  0
VERTEX
  8
PLAN_1
  6
CONTINUOUS
 10
-1.247465
 20
2.300693
  0
SEQEND
  8
0
  0
POLYLINE
  8
PLAN_1
  6
CONTINUOUS
 66
     1
 40
0.008122
 41
0.008122
  0
VERTEX
  8
PLAN_1
  6
CONTINUOUS
 10
-2.024783
 20
2.328618
  0
VERTEX
  8
PLAN_1
  6
CONTINUOUS
 10
-2.024783
 20
2.267181
  0
VERTEX
  8
PLAN_1
  6
CONTINUOUS
 10
-2.249197
 20
2.267181
  0
VERTEX
  8
PLAN_1
  6
CONTINUOUS
 10
-2.249197
 20
2.328618
  0
VERTEX
  8
PLAN_1
  6
CONTINUOUS
 10
-2.158315
 20
2.328110
  0
VERTEX
  8
PLAN_1
  6
CONTINUOUS
 10
-2.158315
 20
2.296630
  0
VERTEX
  8
PLAN_1
  6
CONTINUOUS
 10
-2.115665
 20
2.296630
  0
VERTEX
  8
PLAN_1
  6
CONTINUOUS
 10
-2.115665
 20
2.328110
  0
VERTEX
  8
PLAN_1
  6
CONTINUOUS
 10
-2.024783
 20
2.328618
  0
SEQEND
  8
0
  0
POLYLINE
  8
PLAN_1
  6
CONTINUOUS
 66
     1
 40
0.008122
 41
0.008122
  0
VERTEX
  8
PLAN_1
  6
CONTINUOUS
 10
-1.148461
 20
2.328618
  0
VERTEX
  8
PLAN_1
  6
CONTINUOUS
 10
-1.148461
 20
2.267181
  0
VERTEX
  8
PLAN_1
  6
CONTINUOUS
 10
-1.372874
 20
2.267181
  0
VERTEX
  8
PLAN_1
  6
CONTINUOUS
 10
-1.372874
 20
2.328618
  0
VERTEX
  8
PLAN_1
  6
CONTINUOUS
 10
-1.281992
 20
2.328110
  0
VERTEX
  8
PLAN_1
  6
CONTINUOUS
 10
-1.281992
 20
2.296630
  0
VERTEX
  8
PLAN_1
  6
CONTINUOUS
 10
-1.239343
 20
2.296630
  0
VERTEX
  8
PLAN_1
  6
CONTINUOUS
 10
-1.239343
 20
2.328110
  0
VERTEX
  8
PLAN_1
  6
CONTINUOUS
 10
-1.148461
 20
2.328618
  0
SEQEND
  8
0
  0
POLYLINE
  8
PLAN_1
  6
CONTINUOUS
 66
     1
 40
0.008122
 41
0.008122
  0
VERTEX
  8
PLAN_1
  6
CONTINUOUS
 10
-2.209087
 20
1.940720
  0
VERTEX
  8
PLAN_1
  6
CONTINUOUS
 10
-2.208579
 20
2.022461
  0
VERTEX
  8
PLAN_1
  6
CONTINUOUS
 10
-2.249705
 20
2.022461
  0
SEQEND
  8
0
  0
POLYLINE
  8
PLAN_1
  6
CONTINUOUS
 66
     1
 40
0.008122
 41
0.008122
  0
VERTEX
  8
PLAN_1
  6
CONTINUOUS
 10
-1.190602
 20
1.940720
  0
VERTEX
  8
PLAN_1
  6
CONTINUOUS
 10
-1.190602
 20
2.022461
  0
VERTEX
  8
PLAN_1
  6
CONTINUOUS
 10
-1.149476
 20
2.022461
  0
SEQEND
  8
0
  0
POLYLINE
  8
PLAN_1
  6
CONTINUOUS
 66
     1
 40
0.008122
 41
0.008122
  0
VERTEX
  8
PLAN_1
  6
CONTINUOUS
 10
-1.616071
 20
2.880000
  0
VERTEX
  8
PLAN_1
  6
CONTINUOUS
 10
-1.616071
 20
3.115075
  0
VERTEX
  8
PLAN_1
  6
CONTINUOUS
 10
-1.781079
 20
3.115075
  0
VERTEX
  8
PLAN_1
  6
CONTINUOUS
 10
-1.781079
 20
2.880000
  0
VERTEX
  8
PLAN_1
  6
CONTINUOUS
 10
-1.616071
 20
2.880000
  0
SEQEND
  8
0
  0
POLYLINE
  8
PLAN_1
  6
CONTINUOUS
 66
     1
 40
0.008122
 41
0.008122
  0
VERTEX
  8
PLAN_1
  6
CONTINUOUS
 10
-1.771941
 20
3.566945
  0
VERTEX
  8
PLAN_1
  6
CONTINUOUS
 10
-1.779555
 20
3.564406
  0
VERTEX
  8
PLAN_1
  6
CONTINUOUS
 10
-1.786157
 20
3.561358
  0
VERTEX
  8
PLAN_1
  6
CONTINUOUS
 10
-1.793264
 20
3.558311
  0
VERTEX
  8
PLAN_1
  6
CONTINUOUS
 10
-1.799862
 20
3.554756
  0
VERTEX
  8
PLAN_1
  6
CONTINUOUS
 10
-1.806465
 20
3.551205
  0
VERTEX
  8
PLAN_1
  6
CONTINUOUS
 10
-1.812555
 20
3.547142
  0
VERTEX
  8
PLAN_1
  6
CONTINUOUS
 10
-1.818650
 20
3.543079
  0
VERTEX
  8
PLAN_1
  6
CONTINUOUS
 10
-1.824744
 20
3.538512
  0
VERTEX
  8
PLAN_1
  6
CONTINUOUS
 10
-1.830327
 20
3.533433
  0
VERTEX
  8
PLAN_1
  6
CONTINUOUS
 10
-1.835406
 20
3.528358
  0
VERTEX
  8
PLAN_1
  6
CONTINUOUS
 10
-1.840480
 20
3.522772
  0
VERTEX
  8
PLAN_1
  6
CONTINUOUS
 10
-1.845559
 20
3.517185
  0
VERTEX
  8
PLAN_1
  6
CONTINUOUS
 10
-1.850130
 20
3.511094
  0
VERTEX
  8
PLAN_1
  6
CONTINUOUS
 10
-1.854189
 20
3.505000
  0
VERTEX
  8
PLAN_1
  6
CONTINUOUS
 10
-1.858252
 20
3.498402
  0
VERTEX
  8
PLAN_1
  6
CONTINUOUS
 10
-1.862315
 20
3.491291
  0
SEQEND
  8
0
  0
POLYLINE
  8
PLAN_1
  6
CONTINUOUS
 66
     1
 40
0.008122
 41
0.008122
  0
VERTEX
  8
PLAN_1
  6
CONTINUOUS
 10
-1.862315
 20
3.491291
  0
VERTEX
  8
PLAN_1
  6
CONTINUOUS
 10
-1.861807
 20
3.491799
  0
SEQEND
  8
0
  0
POLYLINE
  8
PLAN_1
  6
CONTINUOUS
 66
     1
 40
0.008122
 41
0.008122
  0
VERTEX
  8
PLAN_1
  6
CONTINUOUS
 10
-1.861807
 20
3.491799
  0
VERTEX
  8
PLAN_1
  6
CONTINUOUS
 10
-1.859268
 20
3.480630
  0
VERTEX
  8
PLAN_1
  6
CONTINUOUS
 10
-1.856728
 20
3.469969
  0
VERTEX
  8
PLAN_1
  6
CONTINUOUS
 10
-1.854697
 20
3.459307
  0
VERTEX
  8
PLAN_1
  6
CONTINUOUS
 10
-1.853173
 20
3.448646
  0
VERTEX
  8
PLAN_1
  6
CONTINUOUS
 10
-1.850638
 20
3.428335
  0
VERTEX
  8
PLAN_1
  6
CONTINUOUS
 10
-1.849114
 20
3.409043
  0
VERTEX
  8
PLAN_1
  6
CONTINUOUS
 10
-1.848098
 20
3.391272
  0
VERTEX
  8
PLAN_1
  6
CONTINUOUS
 10
-1.848606
 20
3.374008
  0
VERTEX
  8
PLAN_1
  6
CONTINUOUS
 10
-1.849114
 20
3.358780
  0
VERTEX
  8
PLAN_1
  6
CONTINUOUS
 10
-1.850130
 20
3.344055
  0
VERTEX
  8
PLAN_1
  6
CONTINUOUS
 10
-1.852157
 20
3.331362
  0
VERTEX
  8
PLAN_1
  6
CONTINUOUS
 10
-1.853681
 20
3.320193
  0
VERTEX
  8
PLAN_1
  6
CONTINUOUS
 10
-1.855713
 20
3.310035
  0
VERTEX
  8
PLAN_1
  6
CONTINUOUS
 10
-1.857744
 20
3.301913
  0
VERTEX
  8
PLAN_1
  6
CONTINUOUS
 10
-1.860791
 20
3.290744
  0
VERTEX
  8
PLAN_1
  6
CONTINUOUS
 10
-1.861807
 20
3.286681
  0
SEQEND
  8
0
  0
POLYLINE
  8
PLAN_1
  6
CONTINUOUS
 66
     1
 40
0.008122
 41
0.008122
  0
VERTEX
  8
PLAN_1
  6
CONTINUOUS
 10
-1.861807
 20
3.286681
  0
VERTEX
  8
PLAN_1
  6
CONTINUOUS
 10
-1.772449
 20
3.286681
  0
SEQEND
  8
0
  0
POLYLINE
  8
PLAN_1
  6
CONTINUOUS
 66
     1
 40
0.008122
 41
0.008122
  0
VERTEX
  8
PLAN_1
  6
CONTINUOUS
 10
-1.629780
 20
3.286681
  0
VERTEX
  8
PLAN_1
  6
CONTINUOUS
 10
-1.536358
 20
3.286681
  0
SEQEND
  8
0
  0
POLYLINE
  8
PLAN_1
  6
CONTINUOUS
 66
     1
 40
0.008122
 41
0.008122
  0
VERTEX
  8
PLAN_1
  6
CONTINUOUS
 10
-1.536358
 20
3.286681
  0
VERTEX
  8
PLAN_1
  6
CONTINUOUS
 10
-1.537374
 20
3.290744
  0
VERTEX
  8
PLAN_1
  6
CONTINUOUS
 10
-1.540421
 20
3.301913
  0
VERTEX
  8
PLAN_1
  6
CONTINUOUS
 10
-1.542449
 20
3.310035
  0
VERTEX
  8
PLAN_1
  6
CONTINUOUS
 10
-1.543972
 20
3.320193
  0
VERTEX
  8
PLAN_1
  6
CONTINUOUS
 10
-1.546004
 20
3.331362
  0
VERTEX
  8
PLAN_1
  6
CONTINUOUS
 10
-1.547528
 20
3.344055
  0
VERTEX
  8
PLAN_1
  6
CONTINUOUS
 10
-1.549051
 20
3.358780
  0
VERTEX
  8
PLAN_1
  6
CONTINUOUS
 10
-1.549559
 20
3.374008
  0
VERTEX
  8
PLAN_1
  6
CONTINUOUS
 10
-1.549559
 20
3.391272
  0
VERTEX
  8
PLAN_1
  6
CONTINUOUS
 10
-1.549051
 20
3.409043
  0
VERTEX
  8
PLAN_1
  6
CONTINUOUS
 10
-1.547528
 20
3.428335
  0
VERTEX
  8
PLAN_1
  6
CONTINUOUS
 10
-1.544988
 20
3.448646
  0
VERTEX
  8
PLAN_1
  6
CONTINUOUS
 10
-1.543465
 20
3.459307
  0
VERTEX
  8
PLAN_1
  6
CONTINUOUS
 10
-1.541437
 20
3.469969
  0
VERTEX
  8
PLAN_1
  6
CONTINUOUS
 10
-1.538898
 20
3.480630
  0
VERTEX
  8
PLAN_1
  6
CONTINUOUS
 10
-1.536358
 20
3.491799
  0
SEQEND
  8
0
  0
POLYLINE
  8
PLAN_1
  6
CONTINUOUS
 66
     1
 40
0.008122
 41
0.008122
  0
VERTEX
  8
PLAN_1
  6
CONTINUOUS
 10
-1.536358
 20
3.491799
  0
VERTEX
  8
PLAN_1
  6
CONTINUOUS
 10
-1.535850
 20
3.491291
  0
SEQEND
  8
0
  0
POLYLINE
  8
PLAN_1
  6
CONTINUOUS
 66
     1
 40
0.008122
 41
0.008122
  0
VERTEX
  8
PLAN_1
  6
CONTINUOUS
 10
-1.535850
 20
3.491291
  0
VERTEX
  8
PLAN_1
  6
CONTINUOUS
 10
-1.539406
 20
3.498402
  0
VERTEX
  8
PLAN_1
  6
CONTINUOUS
 10
-1.543972
 20
3.505000
  0
VERTEX
  8
PLAN_1
  6
CONTINUOUS
 10
-1.548035
 20
3.511602
  0
VERTEX
  8
PLAN_1
  6
CONTINUOUS
 10
-1.553114
 20
3.517693
  0
VERTEX
  8
PLAN_1
  6
CONTINUOUS
 10
-1.558189
 20
3.523787
  0
VERTEX
  8
PLAN_1
  6
CONTINUOUS
 10
-1.563268
 20
3.529370
  0
VERTEX
  8
PLAN_1
  6
CONTINUOUS
 10
-1.568850
 20
3.534449
  0
VERTEX
  8
PLAN_1
  6
CONTINUOUS
 10
-1.574437
 20
3.539528
  0
VERTEX
  8
PLAN_1
  6
CONTINUOUS
 10
-1.580528
 20
3.544094
  0
VERTEX
  8
PLAN_1
  6
CONTINUOUS
 10
-1.587130
 20
3.548157
  0
VERTEX
  8
PLAN_1
  6
CONTINUOUS
 10
-1.593220
 20
3.552220
  0
VERTEX
  8
PLAN_1
  6
CONTINUOUS
 10
-1.599823
 20
3.556280
  0
VERTEX
  8
PLAN_1
  6
CONTINUOUS
 10
-1.606929
 20
3.559327
  0
VERTEX
  8
PLAN_1
  6
CONTINUOUS
 10
-1.614039
 20
3.562882
  0
VERTEX
  8
PLAN_1
  6
CONTINUOUS
 10
-1.621146
 20
3.565421
  0
VERTEX
  8
PLAN_1
  6
CONTINUOUS
 10
-1.628764
 20
3.567957
  0
SEQEND
  8
0
  0
POLYLINE
  8
PLAN_1
  6
CONTINUOUS
 66
     1
 40
0.008122
 41
0.008122
  0
VERTEX
  8
PLAN_1
  6
CONTINUOUS
 10
-1.535850
 20
3.491291
  0
VERTEX
  8
PLAN_1
  6
CONTINUOUS
 10
-1.628764
 20
3.491291
  0
SEQEND
  8
0
  0
POLYLINE
  8
PLAN_1
  6
CONTINUOUS
 66
     1
 40
0.008122
 41
0.008122
  0
VERTEX
  8
PLAN_1
  6
CONTINUOUS
 10
-1.772449
 20
3.491291
  0
VERTEX
  8
PLAN_1
  6
CONTINUOUS
 10
-1.862315
 20
3.491291
  0
SEQEND
  8
0
  0
POLYLINE
  8
PLAN_1
  6
CONTINUOUS
 66
     1
 40
0.008122
 41
0.008122
  0
VERTEX
  8
PLAN_1
  6
CONTINUOUS
 10
-2.188776
 20
2.492102
  0
VERTEX
  8
PLAN_1
  6
CONTINUOUS
 10
-2.147654
 20
2.492102
  0
SEQEND
  8
0
  0
POLYLINE
  8
PLAN_1
  6
CONTINUOUS
 66
     1
 40
0.008122
 41
0.008122
  0
VERTEX
  8
PLAN_1
  6
CONTINUOUS
 10
-1.960811
 20
2.492102
  0
VERTEX
  8
PLAN_1
  6
CONTINUOUS
 10
-1.434815
 20
2.492102
  0
SEQEND
  8
0
  0
POLYLINE
  8
PLAN_1
  6
CONTINUOUS
 66
     1
 40
0.008122
 41
0.008122
  0
VERTEX
  8
PLAN_1
  6
CONTINUOUS
 10
-1.250004
 20
2.492102
  0
VERTEX
  8
PLAN_1
  6
CONTINUOUS
 10
-1.209386
 20
2.492102
  0
SEQEND
  8
0
  0
POLYLINE
  8
PLAN_1
 62
     2
  6
CONTINUOUS
 66
     1
 40
0.004059
 41
0.004059
  0
VERTEX
  8
PLAN_1
 62
     2
  6
CONTINUOUS
 10
-1.669382
 20
3.967028
  0
VERTEX
  8
PLAN_1
 62
     2
  6
CONTINUOUS
 10
-1.177402
 20
3.967028
  0
SEQEND
  8
0
  0
SOLID
  8
PLAN_1
 62
     2
 10
-1.147953
 20
3.967028
 11
-1.207354
 21
3.982764
 12
-1.147953
 22
3.967028
 13
-1.207354
 23
3.951287
  0
POLYLINE
  8
PLAN_1
 62
     2
  6
CONTINUOUS
 66
     1
 40
0.003000
 41
0.003000
  0
VERTEX
  8
PLAN_1
 62
     2
  6
CONTINUOUS
 10
-1.147953
 20
3.967028
  0
VERTEX
  8
PLAN_1
 62
     2
  6
CONTINUOUS
 10
-1.207354
 20
3.982764
  0
VERTEX
  8
PLAN_1
 62
     2
  6
CONTINUOUS
 10
-1.207354
 20
3.951287
  0
VERTEX
  8
PLAN_1
 62
     2
  6
CONTINUOUS
 10
-1.147953
 20
3.967028
  0
SEQEND
  8
0
  0
SOLID
  8
PLAN_1
 62
     2
 10
-1.698827
 20
3.967028
 11
-1.639425
 21
3.982764
 12
-1.698827
 22
3.967028
 13
-1.639425
 23
3.951287
  0
POLYLINE
  8
PLAN_1
 62
     2
  6
CONTINUOUS
 66
     1
 40
0.003000
 41
0.003000
  0
VERTEX
  8
PLAN_1
 62
     2
  6
CONTINUOUS
 10
-1.698827
 20
3.967028
  0
VERTEX
  8
PLAN_1
 62
     2
  6
CONTINUOUS
 10
-1.639425
 20
3.982764
  0
VERTEX
  8
PLAN_1
 62
     2
  6
CONTINUOUS
 10
-1.639425
 20
3.951287
  0
VERTEX
  8
PLAN_1
 62
     2
  6
CONTINUOUS
 10
-1.698827
 20
3.967028
  0
SEQEND
  8
0
  0
POLYLINE
  8
PLAN_1
 62
     2
  6
CONTINUOUS
 66
     1
 40
0.003000
 41
0.003000
  0
VERTEX
  8
PLAN_1
 62
     2
  6
CONTINUOUS
 10
-1.442937
 20
3.990890
  0
VERTEX
  8
PLAN_1
 62
     2
  6
CONTINUOUS
 10
-1.452583
 20
3.990890
  0
VERTEX
  8
PLAN_1
 62
     2
  6
CONTINUOUS
 10
-1.452583
 20
4.042677
  0
VERTEX
  8
PLAN_1
 62
     2
  6
CONTINUOUS
 10
-1.469846
 20
4.042677
  0
VERTEX
  8
PLAN_1
 62
     2
  6
CONTINUOUS
 10
-1.469846
 20
4.050291
  0
VERTEX
  8
PLAN_1
 62
     2
  6
CONTINUOUS
 10
-1.465783
 20
4.050291
  0
VERTEX
  8
PLAN_1
 62
     2
  6
CONTINUOUS
 10
-1.462232
 20
4.050799
  0
VERTEX
  8
PLAN_1
 62
     2
  6
CONTINUOUS
 10
-1.459185
 20
4.051815
  0
VERTEX
  8
PLAN_1
 62
     2
  6
CONTINUOUS
 10
-1.456646
 20
4.052831
  0
VERTEX
  8
PLAN_1
 62
     2
  6
CONTINUOUS
 10
-1.454614
 20
4.054354
  0
VERTEX
  8
PLAN_1
 62
     2
  6
CONTINUOUS
 10
-1.453091
 20
4.056894
  0
VERTEX
  8
PLAN_1
 62
     2
  6
CONTINUOUS
 10
-1.451567
 20
4.059937
  0
VERTEX
  8
PLAN_1
 62
     2
  6
CONTINUOUS
 10
-1.450047
 20
4.064000
  0
VERTEX
  8
PLAN_1
 62
     2
  6
CONTINUOUS
 10
-1.442937
 20
4.064000
  0
VERTEX
  8
PLAN_1
 62
     2
  6
CONTINUOUS
 10
-1.442937
 20
3.990890
  0
SEQEND
  8
0
  0
POLYLINE
  8
PLAN_1
 62
     2
  6
CONTINUOUS
 66
     1
 40
0.003000
 41
0.003000
  0
VERTEX
  8
PLAN_1
 62
     2
  6
CONTINUOUS
 10
-1.378965
 20
4.008657
  0
VERTEX
  8
PLAN_1
 62
     2
  6
CONTINUOUS
 10
-1.378965
 20
3.990890
  0
VERTEX
  8
PLAN_1
 62
     2
  6
CONTINUOUS
 10
-1.388102
 20
3.990890
  0
VERTEX
  8
PLAN_1
 62
     2
  6
CONTINUOUS
 10
-1.388102
 20
4.008657
  0
VERTEX
  8
PLAN_1
 62
     2
  6
CONTINUOUS
 10
-1.420091
 20
4.008657
  0
VERTEX
  8
PLAN_1
 62
     2
  6
CONTINUOUS
 10
-1.420091
 20
4.017799
  0
VERTEX
  8
PLAN_1
 62
     2
  6
CONTINUOUS
 10
-1.386583
 20
4.064000
  0
VERTEX
  8
PLAN_1
 62
     2
  6
CONTINUOUS
 10
-1.378965
 20
4.064000
  0
VERTEX
  8
PLAN_1
 62
     2
  6
CONTINUOUS
 10
-1.378965
 20
4.016783
  0
VERTEX
  8
PLAN_1
 62
     2
  6
CONTINUOUS
 10
-1.368303
 20
4.016783
  0
VERTEX
  8
PLAN_1
 62
     2
  6
CONTINUOUS
 10
-1.368303
 20
4.008657
  0
VERTEX
  8
PLAN_1
 62
     2
  6
CONTINUOUS
 10
-1.378965
 20
4.008657
  0
SEQEND
  8
0
  0
SOLID
  8
PLAN_1
 62
     2
 10
-1.411461
 20
4.016783
 11
-1.388102
 21
4.016783
 12
-1.411461
 22
4.016783
 13
-1.388102
 23
4.049783
  0
POLYLINE
  8
PLAN_1
 62
     2
  6
CONTINUOUS
 66
     1
 40
0.003000
 41
0.003000
  0
VERTEX
  8
PLAN_1
 62
     2
  6
CONTINUOUS
 10
-1.411461
 20
4.016783
  0
VERTEX
  8
PLAN_1
 62
     2
  6
CONTINUOUS
 10
-1.388102
 20
4.016783
  0
VERTEX
  8
PLAN_1
 62
     2
  6
CONTINUOUS
 10
-1.388102
 20
4.049783
  0
VERTEX
  8
PLAN_1
 62
     2
  6
CONTINUOUS
 10
-1.411461
 20
4.016783
  0
SEQEND
  8
0
  0
POLYLINE
  8
PLAN_1
 62
     2
  6
CONTINUOUS
 66
     1
 40
0.004059
 41
0.004059
  0
VERTEX
  8
PLAN_1
 62
     2
  6
CONTINUOUS
 10
-1.147953
 20
2.938894
  0
VERTEX
  8
PLAN_1
 62
     2
  6
CONTINUOUS
 10
-1.147953
 20
3.096287
  0
SEQEND
  8
0
  0
POLYLINE
  8
PLAN_1
 62
     2
  6
CONTINUOUS
 66
     1
 40
0.004059
 41
0.004059
  0
VERTEX
  8
PLAN_1
 62
     2
  6
CONTINUOUS
 10
-1.147953
 20
2.339787
  0
VERTEX
  8
PLAN_1
 62
     2
  6
CONTINUOUS
 10
-1.147953
 20
2.891677
  0
SEQEND
  8
0
  0
POLYLINE
  8
PLAN_1
 62
     2
  6
CONTINUOUS
 66
     1
 40
0.004059
 41
0.004059
  0
VERTEX
  8
PLAN_1
 62
     2
  6
CONTINUOUS
 10
-2.296921
 20
-1.000496
  0
VERTEX
  8
PLAN_1
 62
     2
  6
CONTINUOUS
 10
-1.177402
 20
-1.000496
  0
SEQEND
  8
0
  0
SOLID
  8
PLAN_1
 62
     2
 10
-1.147953
 20
-1.000496
 11
-1.207354
 21
-0.984760
 12
-1.147953
 22
-1.000496
 13
-1.207354
 23
-1.016236
  0
POLYLINE
  8
PLAN_1
 62
     2
  6
CONTINUOUS
 66
     1
 40
0.003000
 41
0.003000
  0
VERTEX
  8
PLAN_1
 62
     2
  6
CONTINUOUS
 10
-1.147953
 20
-1.000496
  0
VERTEX
  8
PLAN_1
 62
     2
  6
CONTINUOUS
 10
-1.207354
 20
-0.984760
  0
VERTEX
  8
PLAN_1
 62
     2
  6
CONTINUOUS
 10
-1.207354
 20
-1.016236
  0
VERTEX
  8
PLAN_1
 62
     2
  6
CONTINUOUS
 10
-1.147953
 20
-1.000496
  0
SEQEND
  8
0
  0
SOLID
  8
PLAN_1
 62
     2
 10
-2.326370
 20
-1.000496
 11
-2.267472
 21
-0.984760
 12
-2.326370
 22
-1.000496
 13
-2.267472
 23
-1.016236
  0
POLYLINE
  8
PLAN_1
 62
     2
  6
CONTINUOUS
 66
     1
 40
0.003000
 41
0.003000
  0
VERTEX
  8
PLAN_1
 62
     2
  6
CONTINUOUS
 10
-2.326370
 20
-1.000496
  0
VERTEX
  8
PLAN_1
 62
     2
  6
CONTINUOUS
 10
-2.267472
 20
-0.984760
  0
VERTEX
  8
PLAN_1
 62
     2
  6
CONTINUOUS
 10
-2.267472
 20
-1.016236
  0
VERTEX
  8
PLAN_1
 62
     2
  6
CONTINUOUS
 10
-2.326370
 20
-1.000496
  0
SEQEND
  8
0
  0
POLYLINE
  8
PLAN_1
 62
     2
  6
CONTINUOUS
 66
     1
 40
0.003000
 41
0.003000
  0
VERTEX
  8
PLAN_1
 62
     2
  6
CONTINUOUS
 10
-1.771941
 20
-0.935000
  0
VERTEX
  8
PLAN_1
 62
     2
  6
CONTINUOUS
 10
-1.771433
 20
-0.935000
  0
VERTEX
  8
PLAN_1
 62
     2
  6
CONTINUOUS
 10
-1.770417
 20
-0.935000
  0
VERTEX
  8
PLAN_1
 62
     2
  6
CONTINUOUS
 10
-1.769909
 20
-0.935000
  0
VERTEX
  8
PLAN_1
 62
     2
  6
CONTINUOUS
 10
-1.769402
 20
-0.935000
  0
VERTEX
  8
PLAN_1
 62
     2
  6
CONTINUOUS
 10
-1.768894
 20
-0.935000
  0
VERTEX
  8
PLAN_1
 62
     2
  6
CONTINUOUS
 10
-1.768386
 20
-0.935000
  0
VERTEX
  8
PLAN_1
 62
     2
  6
CONTINUOUS
 10
-1.767878
 20
-0.935508
  0
VERTEX
  8
PLAN_1
 62
     2
  6
CONTINUOUS
 10
-1.766862
 20
-0.935508
  0
VERTEX
  8
PLAN_1
 62
     2
  6
CONTINUOUS
 10
-1.764323
 20
-0.935000
  0
VERTEX
  8
PLAN_1
 62
     2
  6
CONTINUOUS
 10
-1.761783
 20
-0.934496
  0
VERTEX
  8
PLAN_1
 62
     2
  6
CONTINUOUS
 10
-1.759756
 20
-0.933988
  0
VERTEX
  8
PLAN_1
 62
     2
  6
CONTINUOUS
 10
-1.757217
 20
-0.932465
  0
VERTEX
  8
PLAN_1
 62
     2
  6
CONTINUOUS
 10
-1.755693
 20
-0.930941
  0
VERTEX
  8
PLAN_1
 62
     2
  6
CONTINUOUS
 10
-1.754169
 20
-0.928909
  0
VERTEX
  8
PLAN_1
 62
     2
  6
CONTINUOUS
 10
-1.753661
 20
-0.926370
  0
VERTEX
  8
PLAN_1
 62
     2
  6
CONTINUOUS
 10
-1.753154
 20
-0.923323
  0
VERTEX
  8
PLAN_1
 62
     2
  6
CONTINUOUS
 10
-1.753154
 20
-0.921803
  0
VERTEX
  8
PLAN_1
 62
     2
  6
CONTINUOUS
 10
-1.753661
 20
-0.919772
  0
VERTEX
  8
PLAN_1
 62
     2
  6
CONTINUOUS
 10
-1.754677
 20
-0.917740
  0
VERTEX
  8
PLAN_1
 62
     2
  6
CONTINUOUS
 10
-1.755693
 20
-0.915709
  0
VERTEX
  8
PLAN_1
 62
     2
  6
CONTINUOUS
 10
-1.757724
 20
-0.914185
  0
VERTEX
  8
PLAN_1
 62
     2
  6
CONTINUOUS
 10
-1.759756
 20
-0.913169
  0
VERTEX
  8
PLAN_1
 62
     2
  6
CONTINUOUS
 10
-1.762799
 20
-0.912154
  0
VERTEX
  8
PLAN_1
 62
     2
  6
CONTINUOUS
 10
-1.766862
 20
-0.911646
  0
VERTEX
  8
PLAN_1
 62
     2
  6
CONTINUOUS
 10
-1.770925
 20
-0.912154
  0
VERTEX
  8
PLAN_1
 62
     2
  6
CONTINUOUS
 10
-1.774476
 20
-0.913677
  0
VERTEX
  8
PLAN_1
 62
     2
  6
CONTINUOUS
 10
-1.777016
 20
-0.915201
  0
VERTEX
  8
PLAN_1
 62
     2
  6
CONTINUOUS
 10
-1.778539
 20
-0.917740
  0
VERTEX
  8
PLAN_1
 62
     2
  6
CONTINUOUS
 10
-1.779555
 20
-0.920280
  0
VERTEX
  8
PLAN_1
 62
     2
  6
CONTINUOUS
 10
-1.780571
 20
-0.922815
  0
VERTEX
  8
PLAN_1
 62
     2
  6
CONTINUOUS
 10
-1.780571
 20
-0.925354
  0
VERTEX
  8
PLAN_1
 62
     2
  6
CONTINUOUS
 10
-1.781079
 20
-0.927386
  0
VERTEX
  8
PLAN_1
 62
     2
  6
CONTINUOUS
 10
-1.789709
 20
-0.927386
  0
VERTEX
  8
PLAN_1
 62
     2
  6
CONTINUOUS
 10
-1.789709
 20
-0.923323
  0
VERTEX
  8
PLAN_1
 62
     2
  6
CONTINUOUS
 10
-1.788693
 20
-0.919264
  0
VERTEX
  8
PLAN_1
 62
     2
  6
CONTINUOUS
 10
-1.787677
 20
-0.915201
  0
VERTEX
  8
PLAN_1
 62
     2
  6
CONTINUOUS
 10
-1.785142
 20
-0.911646
  0
VERTEX
  8
PLAN_1
 62
     2
  6
CONTINUOUS
 10
-1.783618
 20
-0.909614
  0
VERTEX
  8
PLAN_1
 62
     2
  6
CONTINUOUS
 10
-1.782094
 20
-0.908094
  0
VERTEX
  8
PLAN_1
 62
     2
  6
CONTINUOUS
 10
-1.780063
 20
-0.907079
  0
VERTEX
  8
PLAN_1
 62
     2
  6
CONTINUOUS
 10
-1.778031
 20
-0.905555
  0
VERTEX
  8
PLAN_1
 62
     2
  6
CONTINUOUS
 10
-1.775492
 20
-0.905047
  0
VERTEX
  8
PLAN_1
 62
     2
  6
CONTINUOUS
 10
-1.772957
 20
-0.904031
  0
VERTEX
  8
PLAN_1
 62
     2
  6
CONTINUOUS
 10
-1.769909
 20
-0.903524
  0
VERTEX
  8
PLAN_1
 62
     2
  6
CONTINUOUS
 10
-1.766354
 20
-0.903524
  0
VERTEX
  8
PLAN_1
 62
     2
  6
CONTINUOUS
 10
-1.761276
 20
-0.904031
  0
VERTEX
  8
PLAN_1
 62
     2
  6
CONTINUOUS
 10
-1.756709
 20
-0.905047
  0
VERTEX
  8
PLAN_1
 62
     2
  6
CONTINUOUS
 10
-1.752646
 20
-0.906571
  0
VERTEX
  8
PLAN_1
 62
     2
  6
CONTINUOUS
 10
-1.749598
 20
-0.909110
  0
VERTEX
  8
PLAN_1
 62
     2
  6
CONTINUOUS
 10
-1.747063
 20
-0.911646
  0
VERTEX
  8
PLAN_1
 62
     2
  6
CONTINUOUS
 10
-1.745031
 20
-0.915201
  0
VERTEX
  8
PLAN_1
 62
     2
  6
CONTINUOUS
 10
-1.744016
 20
-0.918756
  0
VERTEX
  8
PLAN_1
 62
     2
  6
CONTINUOUS
 10
-1.743508
 20
-0.922815
  0
VERTEX
  8
PLAN_1
 62
     2
  6
CONTINUOUS
 10
-1.744016
 20
-0.925862
  0
VERTEX
  8
PLAN_1
 62
     2
  6
CONTINUOUS
 10
-1.744524
 20
-0.928909
  0
VERTEX
  8
PLAN_1
 62
     2
  6
CONTINUOUS
 10
-1.745539
 20
-0.931449
  0
VERTEX
  8
PLAN_1
 62
     2
  6
CONTINUOUS
 10
-1.747063
 20
-0.933480
  0
VERTEX
  8
PLAN_1
 62
     2
  6
CONTINUOUS
 10
-1.748075
 20
-0.935000
  0
VERTEX
  8
PLAN_1
 62
     2
  6
CONTINUOUS
 10
-1.750106
 20
-0.936524
  0
VERTEX
  8
PLAN_1
 62
     2
  6
CONTINUOUS
 10
-1.751630
 20
-0.937031
  0
VERTEX
  8
PLAN_1
 62
     2
  6
CONTINUOUS
 10
-1.753154
 20
-0.938047
  0
VERTEX
  8
PLAN_1
 62
     2
  6
CONTINUOUS
 10
-1.750614
 20
-0.939063
  0
VERTEX
  8
PLAN_1
 62
     2
  6
CONTINUOUS
 10
-1.748075
 20
-0.940079
  0
VERTEX
  8
PLAN_1
 62
     2
  6
CONTINUOUS
 10
-1.746047
 20
-0.942110
  0
VERTEX
  8
PLAN_1
 62
     2
  6
CONTINUOUS
 10
-1.744524
 20
-0.943634
  0
VERTEX
  8
PLAN_1
 62
     2
  6
CONTINUOUS
 10
-1.743000
 20
-0.946173
  0
VERTEX
  8
PLAN_1
 62
     2
  6
CONTINUOUS
 10
-1.741984
 20
-0.948709
  0
VERTEX
  8
PLAN_1
 62
     2
  6
CONTINUOUS
 10
-1.740969
 20
-0.951756
  0
VERTEX
  8
PLAN_1
 62
     2
  6
CONTINUOUS
 10
-1.740969
 20
-0.955311
  0
VERTEX
  8
PLAN_1
 62
     2
  6
CONTINUOUS
 10
-1.740969
 20
-0.959374
  0
VERTEX
  8
PLAN_1
 62
     2
  6
CONTINUOUS
 10
-1.742492
 20
-0.963941
  0
VERTEX
  8
PLAN_1
 62
     2
  6
CONTINUOUS
 10
-1.744016
 20
-0.968004
  0
VERTEX
  8
PLAN_1
 62
     2
  6
CONTINUOUS
 10
-1.747063
 20
-0.971559
  0
VERTEX
  8
PLAN_1
 62
     2
  6
CONTINUOUS
 10
-1.748583
 20
-0.973083
  0
VERTEX
  8
PLAN_1
 62
     2
  6
CONTINUOUS
 10
-1.750614
 20
-0.974602
  0
VERTEX
  8
PLAN_1
 62
     2
  6
CONTINUOUS
 10
-1.752646
 20
-0.975618
  0
VERTEX
  8
PLAN_1
 62
     2
  6
CONTINUOUS
 10
-1.755185
 20
-0.976634
  0
VERTEX
  8
PLAN_1
 62
     2
  6
CONTINUOUS
 10
-1.757724
 20
-0.977650
  0
VERTEX
  8
PLAN_1
 62
     2
  6
CONTINUOUS
 10
-1.760772
 20
-0.978157
  0
VERTEX
  8
PLAN_1
 62
     2
  6
CONTINUOUS
 10
-1.763815
 20
-0.978665
  0
VERTEX
  8
PLAN_1
 62
     2
  6
CONTINUOUS
 10
-1.767370
 20
-0.978665
  0
VERTEX
  8
PLAN_1
 62
     2
  6
CONTINUOUS
 10
-1.769402
 20
-0.978665
  0
VERTEX
  8
PLAN_1
 62
     2
  6
CONTINUOUS
 10
-1.770925
 20
-0.978157
  0
VERTEX
  8
PLAN_1
 62
     2
  6
CONTINUOUS
 10
-1.772957
 20
-0.978157
  0
VERTEX
  8
PLAN_1
 62
     2
  6
CONTINUOUS
 10
-1.774476
 20
-0.977650
  0
VERTEX
  8
PLAN_1
 62
     2
  6
CONTINUOUS
 10
-1.776508
 20
-0.977142
  0
VERTEX
  8
PLAN_1
 62
     2
  6
CONTINUOUS
 10
-1.778031
 20
-0.976634
  0
VERTEX
  8
PLAN_1
 62
     2
  6
CONTINUOUS
 10
-1.779555
 20
-0.976126
  0
VERTEX
  8
PLAN_1
 62
     2
  6
CONTINUOUS
 10
-1.780571
 20
-0.975618
  0
VERTEX
  8
PLAN_1
 62
     2
  6
CONTINUOUS
 10
-1.783618
 20
-0.973591
  0
VERTEX
  8
PLAN_1
 62
     2
  6
CONTINUOUS
 10
-1.785650
 20
-0.971559
  0
VERTEX
  8
PLAN_1
 62
     2
  6
CONTINUOUS
 10
-1.787677
 20
-0.969020
  0
VERTEX
  8
PLAN_1
 62
     2
  6
CONTINUOUS
 10
-1.789201
 20
-0.966480
  0
VERTEX
  8
PLAN_1
 62
     2
  6
CONTINUOUS
 10
-1.790217
 20
-0.963433
  0
VERTEX
  8
PLAN_1
 62
     2
  6
CONTINUOUS
 10
-1.790724
 20
-0.960390
  0
VERTEX
  8
PLAN_1
 62
     2
  6
CONTINUOUS
 10
-1.791232
 20
-0.957343
  0
VERTEX
  8
PLAN_1
 62
     2
  6
CONTINUOUS
 10
-1.791740
 20
-0.954295
  0
VERTEX
  8
PLAN_1
 62
     2
  6
CONTINUOUS
 10
-1.782094
 20
-0.954295
  0
VERTEX
  8
PLAN_1
 62
     2
  6
CONTINUOUS
 10
-1.782094
 20
-0.956835
  0
VERTEX
  8
PLAN_1
 62
     2
  6
CONTINUOUS
 10
-1.781587
 20
-0.959882
  0
VERTEX
  8
PLAN_1
 62
     2
  6
CONTINUOUS
 10
-1.780571
 20
-0.962417
  0
VERTEX
  8
PLAN_1
 62
     2
  6
CONTINUOUS
 10
-1.779555
 20
-0.964957
  0
VERTEX
  8
PLAN_1
 62
     2
  6
CONTINUOUS
 10
-1.777524
 20
-0.966988
  0
VERTEX
  8
PLAN_1
 62
     2
  6
CONTINUOUS
 10
-1.774476
 20
-0.969020
  0
VERTEX
  8
PLAN_1
 62
     2
  6
CONTINUOUS
 10
-1.770925
 20
-0.970035
  0
VERTEX
  8
PLAN_1
 62
     2
  6
CONTINUOUS
 10
-1.766354
 20
-0.970543
  0
VERTEX
  8
PLAN_1
 62
     2
  6
CONTINUOUS
 10
-1.763307
 20
-0.970035
  0
VERTEX
  8
PLAN_1
 62
     2
  6
CONTINUOUS
 10
-1.760264
 20
-0.969528
  0
VERTEX
  8
PLAN_1
 62
     2
  6
CONTINUOUS
 10
-1.757217
 20
-0.968004
  0
VERTEX
  8
PLAN_1
 62
     2
  6
CONTINUOUS
 10
-1.755185
 20
-0.966480
  0
VERTEX
  8
PLAN_1
 62
     2
  6
CONTINUOUS
 10
-1.753154
 20
-0.964449
  0
VERTEX
  8
PLAN_1
 62
     2
  6
CONTINUOUS
 10
-1.751630
 20
-0.961909
  0
VERTEX
  8
PLAN_1
 62
     2
  6
CONTINUOUS
 10
-1.751122
 20
-0.959374
  0
VERTEX
  8
PLAN_1
 62
     2
  6
CONTINUOUS
 10
-1.750614
 20
-0.956327
  0
VERTEX
  8
PLAN_1
 62
     2
  6
CONTINUOUS
 10
-1.750614
 20
-0.954295
  0
VERTEX
  8
PLAN_1
 62
     2
  6
CONTINUOUS
 10
-1.751122
 20
-0.952264
  0
VERTEX
  8
PLAN_1
 62
     2
  6
CONTINUOUS
 10
-1.751630
 20
-0.950232
  0
VERTEX
  8
PLAN_1
 62
     2
  6
CONTINUOUS
 10
-1.752646
 20
-0.949217
  0
VERTEX
  8
PLAN_1
 62
     2
  6
CONTINUOUS
 10
-1.754169
 20
-0.946681
  0
VERTEX
  8
PLAN_1
 62
     2
  6
CONTINUOUS
 10
-1.756709
 20
-0.945157
  0
VERTEX
  8
PLAN_1
 62
     2
  6
CONTINUOUS
 10
-1.759756
 20
-0.943634
  0
VERTEX
  8
PLAN_1
 62
     2
  6
CONTINUOUS
 10
-1.762291
 20
-0.943126
  0
VERTEX
  8
PLAN_1
 62
     2
  6
CONTINUOUS
 10
-1.765339
 20
-0.943126
  0
VERTEX
  8
PLAN_1
 62
     2
  6
CONTINUOUS
 10
-1.767878
 20
-0.942618
  0
VERTEX
  8
PLAN_1
 62
     2
  6
CONTINUOUS
 10
-1.768386
 20
-0.942618
  0
VERTEX
  8
PLAN_1
 62
     2
  6
CONTINUOUS
 10
-1.768894
 20
-0.943126
  0
VERTEX
  8
PLAN_1
 62
     2
  6
CONTINUOUS
 10
-1.769402
 20
-0.943126
  0
VERTEX
  8
PLAN_1
 62
     2
  6
CONTINUOUS
 10
-1.769909
 20
-0.943126
  0
VERTEX
  8
PLAN_1
 62
     2
  6
CONTINUOUS
 10
-1.770417
 20
-0.943126
  0
VERTEX
  8
PLAN_1
 62
     2
  6
CONTINUOUS
 10
-1.770925
 20
-0.943126
  0
VERTEX
  8
PLAN_1
 62
     2
  6
CONTINUOUS
 10
-1.771433
 20
-0.943126
  0
VERTEX
  8
PLAN_1
 62
     2
  6
CONTINUOUS
 10
-1.771941
 20
-0.943126
  0
VERTEX
  8
PLAN_1
 62
     2
  6
CONTINUOUS
 10
-1.771941
 20
-0.935000
  0
SEQEND
  8
0
  0
POLYLINE
  8
PLAN_1
 62
     2
  6
CONTINUOUS
 66
     1
 40
0.003000
 41
0.003000
  0
VERTEX
  8
PLAN_1
 62
     2
  6
CONTINUOUS
 10
-1.708476
 20
-0.978665
  0
VERTEX
  8
PLAN_1
 62
     2
  6
CONTINUOUS
 10
-1.712028
 20
-0.978157
  0
VERTEX
  8
PLAN_1
 62
     2
  6
CONTINUOUS
 10
-1.715583
 20
-0.977650
  0
VERTEX
  8
PLAN_1
 62
     2
  6
CONTINUOUS
 10
-1.718630
 20
-0.976634
  0
VERTEX
  8
PLAN_1
 62
     2
  6
CONTINUOUS
 10
-1.721169
 20
-0.975110
  0
VERTEX
  8
PLAN_1
 62
     2
  6
CONTINUOUS
 10
-1.723705
 20
-0.973083
  0
VERTEX
  8
PLAN_1
 62
     2
  6
CONTINUOUS
 10
-1.725736
 20
-0.970543
  0
VERTEX
  8
PLAN_1
 62
     2
  6
CONTINUOUS
 10
-1.727260
 20
-0.968512
  0
VERTEX
  8
PLAN_1
 62
     2
  6
CONTINUOUS
 10
-1.728783
 20
-0.965465
  0
VERTEX
  8
PLAN_1
 62
     2
  6
CONTINUOUS
 10
-1.730815
 20
-0.959882
  0
VERTEX
  8
PLAN_1
 62
     2
  6
CONTINUOUS
 10
-1.732339
 20
-0.953280
  0
VERTEX
  8
PLAN_1
 62
     2
  6
CONTINUOUS
 10
-1.733354
 20
-0.947189
  0
VERTEX
  8
PLAN_1
 62
     2
  6
CONTINUOUS
 10
-1.733354
 20
-0.941094
  0
VERTEX
  8
PLAN_1
 62
     2
  6
CONTINUOUS
 10
-1.733354
 20
-0.935000
  0
VERTEX
  8
PLAN_1
 62
     2
  6
CONTINUOUS
 10
-1.732339
 20
-0.928909
  0
VERTEX
  8
PLAN_1
 62
     2
  6
CONTINUOUS
 10
-1.730815
 20
-0.922307
  0
VERTEX
  8
PLAN_1
 62
     2
  6
CONTINUOUS
 10
-1.728783
 20
-0.916724
  0
VERTEX
  8
PLAN_1
 62
     2
  6
CONTINUOUS
 10
-1.727260
 20
-0.913677
  0
VERTEX
  8
PLAN_1
 62
     2
  6
CONTINUOUS
 10
-1.725736
 20
-0.911646
  0
VERTEX
  8
PLAN_1
 62
     2
  6
CONTINUOUS
 10
-1.723705
 20
-0.909110
  0
VERTEX
  8
PLAN_1
 62
     2
  6
CONTINUOUS
 10
-1.721169
 20
-0.907079
  0
VERTEX
  8
PLAN_1
 62
     2
  6
CONTINUOUS
 10
-1.718630
 20
-0.905555
  0
VERTEX
  8
PLAN_1
 62
     2
  6
CONTINUOUS
 10
-1.715583
 20
-0.904539
  0
VERTEX
  8
PLAN_1
 62
     2
  6
CONTINUOUS
 10
-1.712028
 20
-0.904031
  0
VERTEX
  8
PLAN_1
 62
     2
  6
CONTINUOUS
 10
-1.708476
 20
-0.903524
  0
VERTEX
  8
PLAN_1
 62
     2
  6
CONTINUOUS
 10
-1.704413
 20
-0.904031
  0
VERTEX
  8
PLAN_1
 62
     2
  6
CONTINUOUS
 10
-1.701366
 20
-0.904539
  0
VERTEX
  8
PLAN_1
 62
     2
  6
CONTINUOUS
 10
-1.698319
 20
-0.905555
  0
VERTEX
  8
PLAN_1
 62
     2
  6
CONTINUOUS
 10
-1.695783
 20
-0.907079
  0
VERTEX
  8
PLAN_1
 62
     2
  6
CONTINUOUS
 10
-1.693244
 20
-0.909110
  0
VERTEX
  8
PLAN_1
 62
     2
  6
CONTINUOUS
 10
-1.691213
 20
-0.911646
  0
VERTEX
  8
PLAN_1
 62
     2
  6
CONTINUOUS
 10
-1.689181
 20
-0.913677
  0
VERTEX
  8
PLAN_1
 62
     2
  6
CONTINUOUS
 10
-1.688165
 20
-0.916724
  0
VERTEX
  8
PLAN_1
 62
     2
  6
CONTINUOUS
 10
-1.685626
 20
-0.922307
  0
VERTEX
  8
PLAN_1
 62
     2
  6
CONTINUOUS
 10
-1.684102
 20
-0.928909
  0
VERTEX
  8
PLAN_1
 62
     2
  6
CONTINUOUS
 10
-1.683594
 20
-0.935000
  0
VERTEX
  8
PLAN_1
 62
     2
  6
CONTINUOUS
 10
-1.683091
 20
-0.941094
  0
VERTEX
  8
PLAN_1
 62
     2
  6
CONTINUOUS
 10
-1.683594
 20
-0.947189
  0
VERTEX
  8
PLAN_1
 62
     2
  6
CONTINUOUS
 10
-1.684102
 20
-0.953280
  0
VERTEX
  8
PLAN_1
 62
     2
  6
CONTINUOUS
 10
-1.685626
 20
-0.959882
  0
VERTEX
  8
PLAN_1
 62
     2
  6
CONTINUOUS
 10
-1.688165
 20
-0.965465
  0
VERTEX
  8
PLAN_1
 62
     2
  6
CONTINUOUS
 10
-1.689181
 20
-0.968512
  0
VERTEX
  8
PLAN_1
 62
     2
  6
CONTINUOUS
 10
-1.691213
 20
-0.970543
  0
VERTEX
  8
PLAN_1
 62
     2
  6
CONTINUOUS
 10
-1.693244
 20
-0.973083
  0
VERTEX
  8
PLAN_1
 62
     2
  6
CONTINUOUS
 10
-1.695783
 20
-0.975110
  0
VERTEX
  8
PLAN_1
 62
     2
  6
CONTINUOUS
 10
-1.698319
 20
-0.976634
  0
VERTEX
  8
PLAN_1
 62
     2
  6
CONTINUOUS
 10
-1.701366
 20
-0.977650
  0
VERTEX
  8
PLAN_1
 62
     2
  6
CONTINUOUS
 10
-1.704413
 20
-0.978157
  0
VERTEX
  8
PLAN_1
 62
     2
  6
CONTINUOUS
 10
-1.708476
 20
-0.978665
  0
SEQEND
  8
0
  0
POLYLINE
  8
PLAN_1
 62
     2
  6
CONTINUOUS
 66
     1
 40
0.003000
 41
0.003000
  0
VERTEX
  8
PLAN_1
 62
     2
  6
CONTINUOUS
 10
-1.708476
 20
-0.911646
  0
VERTEX
  8
PLAN_1
 62
     2
  6
CONTINUOUS
 10
-1.709996
 20
-0.911646
  0
VERTEX
  8
PLAN_1
 62
     2
  6
CONTINUOUS
 10
-1.712028
 20
-0.912154
  0
VERTEX
  8
PLAN_1
 62
     2
  6
CONTINUOUS
 10
-1.713551
 20
-0.912661
  0
VERTEX
  8
PLAN_1
 62
     2
  6
CONTINUOUS
 10
-1.715075
 20
-0.913677
  0
VERTEX
  8
PLAN_1
 62
     2
  6
CONTINUOUS
 10
-1.717614
 20
-0.916217
  0
VERTEX
  8
PLAN_1
 62
     2
  6
CONTINUOUS
 10
-1.720154
 20
-0.919772
  0
VERTEX
  8
PLAN_1
 62
     2
  6
CONTINUOUS
 10
-1.721677
 20
-0.923831
  0
VERTEX
  8
PLAN_1
 62
     2
  6
CONTINUOUS
 10
-1.722689
 20
-0.928909
  0
VERTEX
  8
PLAN_1
 62
     2
  6
CONTINUOUS
 10
-1.723197
 20
-0.934496
  0
VERTEX
  8
PLAN_1
 62
     2
  6
CONTINUOUS
 10
-1.723705
 20
-0.941094
  0
VERTEX
  8
PLAN_1
 62
     2
  6
CONTINUOUS
 10
-1.723197
 20
-0.947697
  0
VERTEX
  8
PLAN_1
 62
     2
  6
CONTINUOUS
 10
-1.722689
 20
-0.953280
  0
VERTEX
  8
PLAN_1
 62
     2
  6
CONTINUOUS
 10
-1.721677
 20
-0.958358
  0
VERTEX
  8
PLAN_1
 62
     2
  6
CONTINUOUS
 10
-1.720154
 20
-0.962417
  0
VERTEX
  8
PLAN_1
 62
     2
  6
CONTINUOUS
 10
-1.717614
 20
-0.965972
  0
VERTEX
  8
PLAN_1
 62
     2
  6
CONTINUOUS
 10
-1.715075
 20
-0.968512
  0
VERTEX
  8
PLAN_1
 62
     2
  6
CONTINUOUS
 10
-1.713551
 20
-0.969528
  0
VERTEX
  8
PLAN_1
 62
     2
  6
CONTINUOUS
 10
-1.712028
 20
-0.970035
  0
VERTEX
  8
PLAN_1
 62
     2
  6
CONTINUOUS
 10
-1.709996
 20
-0.970543
  0
VERTEX
  8
PLAN_1
 62
     2
  6
CONTINUOUS
 10
-1.708476
 20
-0.970543
  0
VERTEX
  8
PLAN_1
 62
     2
  6
CONTINUOUS
 10
-1.706445
 20
-0.970543
  0
VERTEX
  8
PLAN_1
 62
     2
  6
CONTINUOUS
 10
-1.704413
 20
-0.970035
  0
VERTEX
  8
PLAN_1
 62
     2
  6
CONTINUOUS
 10
-1.702890
 20
-0.969528
  0
VERTEX
  8
PLAN_1
 62
     2
  6
CONTINUOUS
 10
-1.701366
 20
-0.968512
  0
VERTEX
  8
PLAN_1
 62
     2
  6
CONTINUOUS
 10
-1.698827
 20
-0.965972
  0
VERTEX
  8
PLAN_1
 62
     2
  6
CONTINUOUS
 10
-1.696795
 20
-0.962417
  0
VERTEX
  8
PLAN_1
 62
     2
  6
CONTINUOUS
 10
-1.695276
 20
-0.958358
  0
VERTEX
  8
PLAN_1
 62
     2
  6
CONTINUOUS
 10
-1.693752
 20
-0.953280
  0
VERTEX
  8
PLAN_1
 62
     2
  6
CONTINUOUS
 10
-1.693244
 20
-0.947697
  0
VERTEX
  8
PLAN_1
 62
     2
  6
CONTINUOUS
 10
-1.693244
 20
-0.941094
  0
VERTEX
  8
PLAN_1
 62
     2
  6
CONTINUOUS
 10
-1.693244
 20
-0.934496
  0
VERTEX
  8
PLAN_1
 62
     2
  6
CONTINUOUS
 10
-1.693752
 20
-0.928909
  0
VERTEX
  8
PLAN_1
 62
     2
  6
CONTINUOUS
 10
-1.695276
 20
-0.923831
  0
VERTEX
  8
PLAN_1
 62
     2
  6
CONTINUOUS
 10
-1.696795
 20
-0.919772
  0
VERTEX
  8
PLAN_1
 62
     2
  6
CONTINUOUS
 10
-1.698827
 20
-0.916217
  0
VERTEX
  8
PLAN_1
 62
     2
  6
CONTINUOUS
 10
-1.701366
 20
-0.913677
  0
VERTEX
  8
PLAN_1
 62
     2
  6
CONTINUOUS
 10
-1.702890
 20
-0.912661
  0
VERTEX
  8
PLAN_1
 62
     2
  6
CONTINUOUS
 10
-1.704413
 20
-0.912154
  0
VERTEX
  8
PLAN_1
 62
     2
  6
CONTINUOUS
 10
-1.706445
 20
-0.911646
  0
VERTEX
  8
PLAN_1
 62
     2
  6
CONTINUOUS
 10
-1.708476
 20
-0.911646
  0
SEQEND
  8
0
  0
SOLID
  8
PLAN_1
 62
     2
 10
-1.650087
 20
-0.715161
 11
-1.596268
 21
-0.744098
 12
-1.650087
 22
-0.715161
 13
-1.589161
 23
-0.713638
  0
POLYLINE
  8
PLAN_1
 62
     2
  6
CONTINUOUS
 66
     1
 40
0.003000
 41
0.003000
  0
VERTEX
  8
PLAN_1
 62
     2
  6
CONTINUOUS
 10
-1.650087
 20
-0.715161
  0
VERTEX
  8
PLAN_1
 62
     2
  6
CONTINUOUS
 10
-1.596268
 20
-0.744098
  0
VERTEX
  8
PLAN_1
 62
     2
  6
CONTINUOUS
 10
-1.589161
 20
-0.713638
  0
VERTEX
  8
PLAN_1
 62
     2
  6
CONTINUOUS
 10
-1.650087
 20
-0.715161
  0
SEQEND
  8
0
  0
POLYLINE
  8
PLAN_1
 62
     2
  6
CONTINUOUS
 66
     1
 40
0.004059
 41
0.004059
  0
VERTEX
  8
PLAN_1
 62
     2
  6
CONTINUOUS
 10
-1.613531
 20
-0.723791
  0
VERTEX
  8
PLAN_1
 62
     2
  6
CONTINUOUS
 10
-0.974311
 20
-0.886260
  0
VERTEX
  8
PLAN_1
 62
     2
  6
CONTINUOUS
 10
0.209689
 20
-0.886260
  0
SEQEND
  8
0
  0
POLYLINE
  8
PLAN_1
 62
     2
  6
CONTINUOUS
 66
     1
 40
0.004059
 41
0.004059
  0
VERTEX
  8
PLAN_1
 62
     2
  6
CONTINUOUS
 10
-1.186031
 20
-0.711606
  0
VERTEX
  8
PLAN_1
 62
     2
  6
CONTINUOUS
 10
-1.172831
 20
-0.711606
  0
SEQEND
  8
0
  0
POLYLINE
  8
PLAN_1
 62
     2
  6
CONTINUOUS
 66
     1
 40
0.004059
 41
0.004059
  0
VERTEX
  8
PLAN_1
 62
     2
  6
CONTINUOUS
 10
-1.125106
 20
-0.711606
  0
VERTEX
  8
PLAN_1
 62
     2
  6
CONTINUOUS
 10
-0.966697
 20
-0.711606
  0
SEQEND
  8
0
  0
POLYLINE
  8
PLAN_1
 62
     2
  6
CONTINUOUS
 66
     1
 40
0.004059
 41
0.004059
  0
VERTEX
  8
PLAN_1
 62
     2
  6
CONTINUOUS
 10
-1.147953
 20
-0.673528
  0
VERTEX
  8
PLAN_1
 62
     2
  6
CONTINUOUS
 10
-1.147953
 20
-0.818228
  0
SEQEND
  8
0
  0
POLYLINE
  8
PLAN_1
 62
     2
  6
CONTINUOUS
 66
     1
 40
0.004059
 41
0.004059
  0
VERTEX
  8
PLAN_1
 62
     2
  6
CONTINUOUS
 10
-1.147953
 20
-0.865445
  0
VERTEX
  8
PLAN_1
 62
     2
  6
CONTINUOUS
 10
-1.147953
 20
-1.023854
  0
SEQEND
  8
0
  0
POLYLINE
  8
PLAN_1
 62
     2
  6
CONTINUOUS
 66
     1
 40
0.004059
 41
0.004059
  0
VERTEX
  8
PLAN_1
 62
     2
  6
CONTINUOUS
 10
-2.326370
 20
1.139031
  0
VERTEX
  8
PLAN_1
 62
     2
  6
CONTINUOUS
 10
-2.326370
 20
-1.023854
  0
SEQEND
  8
0
  0
POLYLINE
  8
PLAN_1
 62
     2
  6
CONTINUOUS
 66
     1
 40
0.004059
 41
0.004059
  0
VERTEX
  8
PLAN_1
 62
     2
  6
CONTINUOUS
 10
-0.990559
 20
-0.681650
  0
VERTEX
  8
PLAN_1
 62
     2
  6
CONTINUOUS
 10
-0.990559
 20
3.623299
  0
SEQEND
  8
0
  0
SOLID
  8
PLAN_1
 62
     2
 10
-0.990559
 20
3.652748
 11
-1.006299
 21
3.593850
 12
-0.990559
 22
3.652748
 13
-0.974819
 23
3.593850
  0
POLYLINE
  8
PLAN_1
 62
     2
  6
CONTINUOUS
 66
     1
 40
0.003000
 41
0.003000
  0
VERTEX
  8
PLAN_1
 62
     2
  6
CONTINUOUS
 10
-0.990559
 20
3.652748
  0
VERTEX
  8
PLAN_1
 62
     2
  6
CONTINUOUS
 10
-1.006299
 20
3.593850
  0
VERTEX
  8
PLAN_1
 62
     2
  6
CONTINUOUS
 10
-0.974819
 20
3.593850
  0
VERTEX
  8
PLAN_1
 62
     2
  6
CONTINUOUS
 10
-0.990559
 20
3.652748
  0
SEQEND
  8
0
  0
SOLID
  8
PLAN_1
 62
     2
 10
-0.990559
 20
-0.711606
 11
-1.006299
 21
-0.652201
 12
-0.990559
 22
-0.711606
 13
-0.974819
 23
-0.652201
  0
POLYLINE
  8
PLAN_1
 62
     2
  6
CONTINUOUS
 66
     1
 40
0.003000
 41
0.003000
  0
VERTEX
  8
PLAN_1
 62
     2
  6
CONTINUOUS
 10
-0.990559
 20
-0.711606
  0
VERTEX
  8
PLAN_1
 62
     2
  6
CONTINUOUS
 10
-1.006299
 20
-0.652201
  0
VERTEX
  8
PLAN_1
 62
     2
  6
CONTINUOUS
 10
-0.974819
 20
-0.652201
  0
VERTEX
  8
PLAN_1
 62
     2
  6
CONTINUOUS
 10
-0.990559
 20
-0.711606
  0
SEQEND
  8
0
  0
POLYLINE
  8
PLAN_1
 62
     2
  6
CONTINUOUS
 66
     1
 40
0.004059
 41
0.004059
  0
VERTEX
  8
PLAN_1
 62
     2
  6
CONTINUOUS
 10
-1.123075
 20
3.653764
  0
VERTEX
  8
PLAN_1
 62
     2
  6
CONTINUOUS
 10
-0.966697
 20
3.653764
  0
SEQEND
  8
0
  0
POLYLINE
  8
PLAN_1
 62
     2
  6
CONTINUOUS
 66
     1
 40
0.003000
 41
0.003000
  0
VERTEX
  8
PLAN_1
 62
     2
  6
CONTINUOUS
 10
-1.013913
 20
1.421323
  0
VERTEX
  8
PLAN_1
 62
     2
  6
CONTINUOUS
 10
-1.013913
 20
1.411677
  0
VERTEX
  8
PLAN_1
 62
     2
  6
CONTINUOUS
 10
-1.066209
 20
1.411677
  0
VERTEX
  8
PLAN_1
 62
     2
  6
CONTINUOUS
 10
-1.066209
 20
1.394413
  0
VERTEX
  8
PLAN_1
 62
     2
  6
CONTINUOUS
 10
-1.073319
 20
1.394413
  0
VERTEX
  8
PLAN_1
 62
     2
  6
CONTINUOUS
 10
-1.073827
 20
1.398476
  0
VERTEX
  8
PLAN_1
 62
     2
  6
CONTINUOUS
 10
-1.074335
 20
1.402028
  0
VERTEX
  8
PLAN_1
 62
     2
  6
CONTINUOUS
 10
-1.074843
 20
1.405075
  0
VERTEX
  8
PLAN_1
 62
     2
  6
CONTINUOUS
 10
-1.075858
 20
1.407614
  0
VERTEX
  8
PLAN_1
 62
     2
  6
CONTINUOUS
 10
-1.077886
 20
1.409646
  0
VERTEX
  8
PLAN_1
 62
     2
  6
CONTINUOUS
 10
-1.079917
 20
1.411677
  0
VERTEX
  8
PLAN_1
 62
     2
  6
CONTINUOUS
 10
-1.083472
 20
1.412693
  0
VERTEX
  8
PLAN_1
 62
     2
  6
CONTINUOUS
 10
-1.087028
 20
1.414213
  0
VERTEX
  8
PLAN_1
 62
     2
  6
CONTINUOUS
 10
-1.087028
 20
1.421323
  0
VERTEX
  8
PLAN_1
 62
     2
  6
CONTINUOUS
 10
-1.013913
 20
1.421323
  0
SEQEND
  8
0
  0
POLYLINE
  8
PLAN_1
 62
     2
  6
CONTINUOUS
 66
     1
 40
0.003000
 41
0.003000
  0
VERTEX
  8
PLAN_1
 62
     2
  6
CONTINUOUS
 10
-1.011886
 20
1.470571
  0
VERTEX
  8
PLAN_1
 62
     2
  6
CONTINUOUS
 10
-1.012394
 20
1.467016
  0
VERTEX
  8
PLAN_1
 62
     2
  6
CONTINUOUS
 10
-1.012898
 20
1.463465
  0
VERTEX
  8
PLAN_1
 62
     2
  6
CONTINUOUS
 10
-1.014421
 20
1.460417
  0
VERTEX
  8
PLAN_1
 62
     2
  6
CONTINUOUS
 10
-1.015945
 20
1.457878
  0
VERTEX
  8
PLAN_1
 62
     2
  6
CONTINUOUS
 10
-1.017976
 20
1.455846
  0
VERTEX
  8
PLAN_1
 62
     2
  6
CONTINUOUS
 10
-1.020008
 20
1.453815
  0
VERTEX
  8
PLAN_1
 62
     2
  6
CONTINUOUS
 10
-1.022547
 20
1.451783
  0
VERTEX
  8
PLAN_1
 62
     2
  6
CONTINUOUS
 10
-1.025087
 20
1.450264
  0
VERTEX
  8
PLAN_1
 62
     2
  6
CONTINUOUS
 10
-1.031177
 20
1.448232
  0
VERTEX
  8
PLAN_1
 62
     2
  6
CONTINUOUS
 10
-1.037272
 20
1.446709
  0
VERTEX
  8
PLAN_1
 62
     2
  6
CONTINUOUS
 10
-1.043870
 20
1.445693
  0
VERTEX
  8
PLAN_1
 62
     2
  6
CONTINUOUS
 10
-1.049457
 20
1.445693
  0
VERTEX
  8
PLAN_1
 62
     2
  6
CONTINUOUS
 10
-1.055547
 20
1.445693
  0
VERTEX
  8
PLAN_1
 62
     2
  6
CONTINUOUS
 10
-1.062150
 20
1.446709
  0
VERTEX
  8
PLAN_1
 62
     2
  6
CONTINUOUS
 10
-1.068240
 20
1.448232
  0
VERTEX
  8
PLAN_1
 62
     2
  6
CONTINUOUS
 10
-1.074335
 20
1.450264
  0
VERTEX
  8
PLAN_1
 62
     2
  6
CONTINUOUS
 10
-1.076874
 20
1.451783
  0
VERTEX
  8
PLAN_1
 62
     2
  6
CONTINUOUS
 10
-1.079409
 20
1.453815
  0
VERTEX
  8
PLAN_1
 62
     2
  6
CONTINUOUS
 10
-1.081441
 20
1.455846
  0
VERTEX
  8
PLAN_1
 62
     2
  6
CONTINUOUS
 10
-1.083472
 20
1.457878
  0
VERTEX
  8
PLAN_1
 62
     2
  6
CONTINUOUS
 10
-1.084996
 20
1.460417
  0
VERTEX
  8
PLAN_1
 62
     2
  6
CONTINUOUS
 10
-1.086012
 20
1.463465
  0
VERTEX
  8
PLAN_1
 62
     2
  6
CONTINUOUS
 10
-1.087028
 20
1.467016
  0
VERTEX
  8
PLAN_1
 62
     2
  6
CONTINUOUS
 10
-1.087028
 20
1.470571
  0
VERTEX
  8
PLAN_1
 62
     2
  6
CONTINUOUS
 10
-1.087028
 20
1.474634
  0
VERTEX
  8
PLAN_1
 62
     2
  6
CONTINUOUS
 10
-1.086012
 20
1.477677
  0
VERTEX
  8
PLAN_1
 62
     2
  6
CONTINUOUS
 10
-1.084996
 20
1.480724
  0
VERTEX
  8
PLAN_1
 62
     2
  6
CONTINUOUS
 10
-1.083472
 20
1.483264
  0
VERTEX
  8
PLAN_1
 62
     2
  6
CONTINUOUS
 10
-1.081441
 20
1.485803
  0
VERTEX
  8
PLAN_1
 62
     2
  6
CONTINUOUS
 10
-1.079409
 20
1.487835
  0
VERTEX
  8
PLAN_1
 62
     2
  6
CONTINUOUS
 10
-1.076874
 20
1.489866
  0
VERTEX
  8
PLAN_1
 62
     2
  6
CONTINUOUS
 10
-1.074335
 20
1.491386
  0
VERTEX
  8
PLAN_1
 62
     2
  6
CONTINUOUS
 10
-1.068240
 20
1.493417
  0
VERTEX
  8
PLAN_1
 62
     2
  6
CONTINUOUS
 10
-1.062150
 20
1.494941
  0
VERTEX
  8
PLAN_1
 62
     2
  6
CONTINUOUS
 10
-1.055547
 20
1.495449
  0
VERTEX
  8
PLAN_1
 62
     2
  6
CONTINUOUS
 10
-1.049457
 20
1.495957
  0
VERTEX
  8
PLAN_1
 62
     2
  6
CONTINUOUS
 10
-1.043870
 20
1.495449
  0
VERTEX
  8
PLAN_1
 62
     2
  6
CONTINUOUS
 10
-1.037272
 20
1.494941
  0
VERTEX
  8
PLAN_1
 62
     2
  6
CONTINUOUS
 10
-1.031177
 20
1.493417
  0
VERTEX
  8
PLAN_1
 62
     2
  6
CONTINUOUS
 10
-1.025087
 20
1.491386
  0
VERTEX
  8
PLAN_1
 62
     2
  6
CONTINUOUS
 10
-1.022547
 20
1.489866
  0
VERTEX
  8
PLAN_1
 62
     2
  6
CONTINUOUS
 10
-1.020008
 20
1.487835
  0
VERTEX
  8
PLAN_1
 62
     2
  6
CONTINUOUS
 10
-1.017976
 20
1.485803
  0
VERTEX
  8
PLAN_1
 62
     2
  6
CONTINUOUS
 10
-1.015945
 20
1.483264
  0
VERTEX
  8
PLAN_1
 62
     2
  6
CONTINUOUS
 10
-1.014421
 20
1.480724
  0
VERTEX
  8
PLAN_1
 62
     2
  6
CONTINUOUS
 10
-1.012898
 20
1.477677
  0
VERTEX
  8
PLAN_1
 62
     2
  6
CONTINUOUS
 10
-1.012394
 20
1.474634
  0
VERTEX
  8
PLAN_1
 62
     2
  6
CONTINUOUS
 10
-1.011886
 20
1.470571
  0
SEQEND
  8
0
  0
POLYLINE
  8
PLAN_1
 62
     2
  6
CONTINUOUS
 66
     1
 40
0.003000
 41
0.003000
  0
VERTEX
  8
PLAN_1
 62
     2
  6
CONTINUOUS
 10
-1.078902
 20
1.470571
  0
VERTEX
  8
PLAN_1
 62
     2
  6
CONTINUOUS
 10
-1.078902
 20
1.469047
  0
VERTEX
  8
PLAN_1
 62
     2
  6
CONTINUOUS
 10
-1.078394
 20
1.467016
  0
VERTEX
  8
PLAN_1
 62
     2
  6
CONTINUOUS
 10
-1.077886
 20
1.465492
  0
VERTEX
  8
PLAN_1
 62
     2
  6
CONTINUOUS
 10
-1.076874
 20
1.463972
  0
VERTEX
  8
PLAN_1
 62
     2
  6
CONTINUOUS
 10
-1.074335
 20
1.461433
  0
VERTEX
  8
PLAN_1
 62
     2
  6
CONTINUOUS
 10
-1.071287
 20
1.459402
  0
VERTEX
  8
PLAN_1
 62
     2
  6
CONTINUOUS
 10
-1.067224
 20
1.457370
  0
VERTEX
  8
PLAN_1
 62
     2
  6
CONTINUOUS
 10
-1.062150
 20
1.456354
  0
VERTEX
  8
PLAN_1
 62
     2
  6
CONTINUOUS
 10
-1.056055
 20
1.455846
  0
VERTEX
  8
PLAN_1
 62
     2
  6
CONTINUOUS
 10
-1.049457
 20
1.455339
  0
VERTEX
  8
PLAN_1
 62
     2
  6
CONTINUOUS
 10
-1.043362
 20
1.455846
  0
VERTEX
  8
PLAN_1
 62
     2
  6
CONTINUOUS
 10
-1.037272
 20
1.456354
  0
VERTEX
  8
PLAN_1
 62
     2
  6
CONTINUOUS
 10
-1.032193
 20
1.457370
  0
VERTEX
  8
PLAN_1
 62
     2
  6
CONTINUOUS
 10
-1.028130
 20
1.459402
  0
VERTEX
  8
PLAN_1
 62
     2
  6
CONTINUOUS
 10
-1.024579
 20
1.461433
  0
VERTEX
  8
PLAN_1
 62
     2
  6
CONTINUOUS
 10
-1.022547
 20
1.463972
  0
VERTEX
  8
PLAN_1
 62
     2
  6
CONTINUOUS
 10
-1.021531
 20
1.465492
  0
VERTEX
  8
PLAN_1
 62
     2
  6
CONTINUOUS
 10
-1.021024
 20
1.467016
  0
VERTEX
  8
PLAN_1
 62
     2
  6
CONTINUOUS
 10
-1.020516
 20
1.469047
  0
VERTEX
  8
PLAN_1
 62
     2
  6
CONTINUOUS
 10
-1.020516
 20
1.470571
  0
VERTEX
  8
PLAN_1
 62
     2
  6
CONTINUOUS
 10
-1.020516
 20
1.472602
  0
VERTEX
  8
PLAN_1
 62
     2
  6
CONTINUOUS
 10
-1.021024
 20
1.474634
  0
VERTEX
  8
PLAN_1
 62
     2
  6
CONTINUOUS
 10
-1.021531
 20
1.476157
  0
VERTEX
  8
PLAN_1
 62
     2
  6
CONTINUOUS
 10
-1.022547
 20
1.477677
  0
VERTEX
  8
PLAN_1
 62
     2
  6
CONTINUOUS
 10
-1.024579
 20
1.480217
  0
VERTEX
  8
PLAN_1
 62
     2
  6
CONTINUOUS
 10
-1.028130
 20
1.482248
  0
VERTEX
  8
PLAN_1
 62
     2
  6
CONTINUOUS
 10
-1.032193
 20
1.483772
  0
VERTEX
  8
PLAN_1
 62
     2
  6
CONTINUOUS
 10
-1.037272
 20
1.485295
  0
VERTEX
  8
PLAN_1
 62
     2
  6
CONTINUOUS
 10
-1.043362
 20
1.485803
  0
VERTEX
  8
PLAN_1
 62
     2
  6
CONTINUOUS
 10
-1.049457
 20
1.485803
  0
VERTEX
  8
PLAN_1
 62
     2
  6
CONTINUOUS
 10
-1.056055
 20
1.485803
  0
VERTEX
  8
PLAN_1
 62
     2
  6
CONTINUOUS
 10
-1.062150
 20
1.485295
  0
VERTEX
  8
PLAN_1
 62
     2
  6
CONTINUOUS
 10
-1.067224
 20
1.483772
  0
VERTEX
  8
PLAN_1
 62
     2
  6
CONTINUOUS
 10
-1.071287
 20
1.482248
  0
VERTEX
  8
PLAN_1
 62
     2
  6
CONTINUOUS
 10
-1.074335
 20
1.480217
  0
VERTEX
  8
PLAN_1
 62
     2
  6
CONTINUOUS
 10
-1.076874
 20
1.477677
  0
VERTEX
  8
PLAN_1
 62
     2
  6
CONTINUOUS
 10
-1.077886
 20
1.476157
  0
VERTEX
  8
PLAN_1
 62
     2
  6
CONTINUOUS
 10
-1.078394
 20
1.474634
  0
VERTEX
  8
PLAN_1
 62
     2
  6
CONTINUOUS
 10
-1.078902
 20
1.472602
  0
VERTEX
  8
PLAN_1
 62
     2
  6
CONTINUOUS
 10
-1.078902
 20
1.470571
  0
SEQEND
  8
0
  0
POLYLINE
  8
PLAN_1
 62
     2
  6
CONTINUOUS
 66
     1
 40
0.003000
 41
0.003000
  0
VERTEX
  8
PLAN_1
 62
     2
  6
CONTINUOUS
 10
-1.053008
 20
1.541654
  0
VERTEX
  8
PLAN_1
 62
     2
  6
CONTINUOUS
 10
-1.051484
 20
1.544697
  0
VERTEX
  8
PLAN_1
 62
     2
  6
CONTINUOUS
 10
-1.049457
 20
1.547744
  0
VERTEX
  8
PLAN_1
 62
     2
  6
CONTINUOUS
 10
-1.046917
 20
1.549776
  0
VERTEX
  8
PLAN_1
 62
     2
  6
CONTINUOUS
 10
-1.044886
 20
1.551299
  0
VERTEX
  8
PLAN_1
 62
     2
  6
CONTINUOUS
 10
-1.042346
 20
1.552315
  0
VERTEX
  8
PLAN_1
 62
     2
  6
CONTINUOUS
 10
-1.039807
 20
1.552823
  0
VERTEX
  8
PLAN_1
 62
     2
  6
CONTINUOUS
 10
-1.037272
 20
1.553331
  0
VERTEX
  8
PLAN_1
 62
     2
  6
CONTINUOUS
 10
-1.035240
 20
1.553331
  0
VERTEX
  8
PLAN_1
 62
     2
  6
CONTINUOUS
 10
-1.030669
 20
1.553331
  0
VERTEX
  8
PLAN_1
 62
     2
  6
CONTINUOUS
 10
-1.026606
 20
1.551807
  0
VERTEX
  8
PLAN_1
 62
     2
  6
CONTINUOUS
 10
-1.022547
 20
1.550283
  0
VERTEX
  8
PLAN_1
 62
     2
  6
CONTINUOUS
 10
-1.019500
 20
1.547744
  0
VERTEX
  8
PLAN_1
 62
     2
  6
CONTINUOUS
 10
-1.017976
 20
1.546220
  0
VERTEX
  8
PLAN_1
 62
     2
  6
CONTINUOUS
 10
-1.016453
 20
1.544189
  0
VERTEX
  8
PLAN_1
 62
     2
  6
CONTINUOUS
 10
-1.014929
 20
1.542157
  0
VERTEX
  8
PLAN_1
 62
     2
  6
CONTINUOUS
 10
-1.013913
 20
1.540130
  0
VERTEX
  8
PLAN_1
 62
     2
  6
CONTINUOUS
 10
-1.013406
 20
1.537591
  0
VERTEX
  8
PLAN_1
 62
     2
  6
CONTINUOUS
 10
-1.012898
 20
1.534543
  0
VERTEX
  8
PLAN_1
 62
     2
  6
CONTINUOUS
 10
-1.012394
 20
1.532004
  0
VERTEX
  8
PLAN_1
 62
     2
  6
CONTINUOUS
 10
-1.011886
 20
1.528961
  0
VERTEX
  8
PLAN_1
 62
     2
  6
CONTINUOUS
 10
-1.012394
 20
1.526929
  0
VERTEX
  8
PLAN_1
 62
     2
  6
CONTINUOUS
 10
-1.012394
 20
1.524898
  0
VERTEX
  8
PLAN_1
 62
     2
  6
CONTINUOUS
 10
-1.012898
 20
1.522866
  0
VERTEX
  8
PLAN_1
 62
     2
  6
CONTINUOUS
 10
-1.013406
 20
1.520835
  0
VERTEX
  8
PLAN_1
 62
     2
  6
CONTINUOUS
 10
-1.013913
 20
1.518295
  0
VERTEX
  8
PLAN_1
 62
     2
  6
CONTINUOUS
 10
-1.014929
 20
1.515760
  0
VERTEX
  8
PLAN_1
 62
     2
  6
CONTINUOUS
 10
-1.015945
 20
1.513220
  0
VERTEX
  8
PLAN_1
 62
     2
  6
CONTINUOUS
 10
-1.017976
 20
1.511189
  0
VERTEX
  8
PLAN_1
 62
     2
  6
CONTINUOUS
 10
-1.020008
 20
1.508650
  0
VERTEX
  8
PLAN_1
 62
     2
  6
CONTINUOUS
 10
-1.022547
 20
1.506618
  0
VERTEX
  8
PLAN_1
 62
     2
  6
CONTINUOUS
 10
-1.025087
 20
1.505602
  0
VERTEX
  8
PLAN_1
 62
     2
  6
CONTINUOUS
 10
-1.027114
 20
1.504587
  0
VERTEX
  8
PLAN_1
 62
     2
  6
CONTINUOUS
 10
-1.029654
 20
1.504079
  0
VERTEX
  8
PLAN_1
 62
     2
  6
CONTINUOUS
 10
-1.031685
 20
1.503571
  0
VERTEX
  8
PLAN_1
 62
     2
  6
CONTINUOUS
 10
-1.033717
 20
1.503571
  0
VERTEX
  8
PLAN_1
 62
     2
  6
CONTINUOUS
 10
-1.035240
 20
1.503571
  0
VERTEX
  8
PLAN_1
 62
     2
  6
CONTINUOUS
 10
-1.038287
 20
1.504079
  0
VERTEX
  8
PLAN_1
 62
     2
  6
CONTINUOUS
 10
-1.041331
 20
1.504587
  0
VERTEX
  8
PLAN_1
 62
     2
  6
CONTINUOUS
 10
-1.043870
 20
1.505602
  0
VERTEX
  8
PLAN_1
 62
     2
  6
CONTINUOUS
 10
-1.046409
 20
1.507126
  0
VERTEX
  8
PLAN_1
 62
     2
  6
CONTINUOUS
 10
-1.048441
 20
1.508650
  0
VERTEX
  8
PLAN_1
 62
     2
  6
CONTINUOUS
 10
-1.049965
 20
1.510681
  0
VERTEX
  8
PLAN_1
 62
     2
  6
CONTINUOUS
 10
-1.051484
 20
1.513220
  0
VERTEX
  8
PLAN_1
 62
     2
  6
CONTINUOUS
 10
-1.053008
 20
1.516264
  0
VERTEX
  8
PLAN_1
 62
     2
  6
CONTINUOUS
 10
-1.054024
 20
1.513728
  0
VERTEX
  8
PLAN_1
 62
     2
  6
CONTINUOUS
 10
-1.055039
 20
1.511697
  0
VERTEX
  8
PLAN_1
 62
     2
  6
CONTINUOUS
 10
-1.056563
 20
1.510173
  0
VERTEX
  8
PLAN_1
 62
     2
  6
CONTINUOUS
 10
-1.058594
 20
1.508650
  0
VERTEX
  8
PLAN_1
 62
     2
  6
CONTINUOUS
 10
-1.060118
 20
1.507634
  0
VERTEX
  8
PLAN_1
 62
     2
  6
CONTINUOUS
 10
-1.062150
 20
1.506618
  0
VERTEX
  8
PLAN_1
 62
     2
  6
CONTINUOUS
 10
-1.064685
 20
1.506110
  0
VERTEX
  8
PLAN_1
 62
     2
  6
CONTINUOUS
 10
-1.067224
 20
1.506110
  0
VERTEX
  8
PLAN_1
 62
     2
  6
CONTINUOUS
 10
-1.070272
 20
1.506618
  0
VERTEX
  8
PLAN_1
 62
     2
  6
CONTINUOUS
 10
-1.073319
 20
1.507126
  0
VERTEX
  8
PLAN_1
 62
     2
  6
CONTINUOUS
 10
-1.076874
 20
1.508650
  0
VERTEX
  8
PLAN_1
 62
     2
  6
CONTINUOUS
 10
-1.079917
 20
1.510681
  0
VERTEX
  8
PLAN_1
 62
     2
  6
CONTINUOUS
 10
-1.082965
 20
1.513728
  0
VERTEX
  8
PLAN_1
 62
     2
  6
CONTINUOUS
 10
-1.084996
 20
1.517280
  0
VERTEX
  8
PLAN_1
 62
     2
  6
CONTINUOUS
 10
-1.086012
 20
1.519819
  0
VERTEX
  8
PLAN_1
 62
     2
  6
CONTINUOUS
 10
-1.086520
 20
1.522358
  0
VERTEX
  8
PLAN_1
 62
     2
  6
CONTINUOUS
 10
-1.087028
 20
1.525406
  0
VERTEX
  8
PLAN_1
 62
     2
  6
CONTINUOUS
 10
-1.087028
 20
1.528453
  0
VERTEX
  8
PLAN_1
 62
     2
  6
CONTINUOUS
 10
-1.087028
 20
1.534035
  0
VERTEX
  8
PLAN_1
 62
     2
  6
CONTINUOUS
 10
-1.085504
 20
1.538606
  0
VERTEX
  8
PLAN_1
 62
     2
  6
CONTINUOUS
 10
-1.083472
 20
1.542665
  0
VERTEX
  8
PLAN_1
 62
     2
  6
CONTINUOUS
 10
-1.080933
 20
1.545713
  0
VERTEX
  8
PLAN_1
 62
     2
  6
CONTINUOUS
 10
-1.077886
 20
1.548252
  0
VERTEX
  8
PLAN_1
 62
     2
  6
CONTINUOUS
 10
-1.074843
 20
1.549776
  0
VERTEX
  8
PLAN_1
 62
     2
  6
CONTINUOUS
 10
-1.071795
 20
1.550791
  0
VERTEX
  8
PLAN_1
 62
     2
  6
CONTINUOUS
 10
-1.068240
 20
1.550791
  0
VERTEX
  8
PLAN_1
 62
     2
  6
CONTINUOUS
 10
-1.064685
 20
1.550791
  0
VERTEX
  8
PLAN_1
 62
     2
  6
CONTINUOUS
 10
-1.061642
 20
1.549776
  0
VERTEX
  8
PLAN_1
 62
     2
  6
CONTINUOUS
 10
-1.059610
 20
1.548760
  0
VERTEX
  8
PLAN_1
 62
     2
  6
CONTINUOUS
 10
-1.057579
 20
1.547236
  0
VERTEX
  8
PLAN_1
 62
     2
  6
CONTINUOUS
 10
-1.056055
 20
1.545713
  0
VERTEX
  8
PLAN_1
 62
     2
  6
CONTINUOUS
 10
-1.054531
 20
1.544189
  0
VERTEX
  8
PLAN_1
 62
     2
  6
CONTINUOUS
 10
-1.053516
 20
1.542665
  0
VERTEX
  8
PLAN_1
 62
     2
  6
CONTINUOUS
 10
-1.053008
 20
1.541654
  0
SEQEND
  8
0
  0
POLYLINE
  8
PLAN_1
 62
     2
  6
CONTINUOUS
 66
     1
 40
0.003000
 41
0.003000
  0
VERTEX
  8
PLAN_1
 62
     2
  6
CONTINUOUS
 10
-1.034732
 20
1.513220
  0
VERTEX
  8
PLAN_1
 62
     2
  6
CONTINUOUS
 10
-1.032701
 20
1.513728
  0
VERTEX
  8
PLAN_1
 62
     2
  6
CONTINUOUS
 10
-1.030161
 20
1.514236
  0
VERTEX
  8
PLAN_1
 62
     2
  6
CONTINUOUS
 10
-1.027622
 20
1.515252
  0
VERTEX
  8
PLAN_1
 62
     2
  6
CONTINUOUS
 10
-1.025594
 20
1.516264
  0
VERTEX
  8
PLAN_1
 62
     2
  6
CONTINUOUS
 10
-1.023563
 20
1.518295
  0
VERTEX
  8
PLAN_1
 62
     2
  6
CONTINUOUS
 10
-1.022039
 20
1.521343
  0
VERTEX
  8
PLAN_1
 62
     2
  6
CONTINUOUS
 10
-1.020516
 20
1.524898
  0
VERTEX
  8
PLAN_1
 62
     2
  6
CONTINUOUS
 10
-1.020516
 20
1.528961
  0
VERTEX
  8
PLAN_1
 62
     2
  6
CONTINUOUS
 10
-1.020516
 20
1.531496
  0
VERTEX
  8
PLAN_1
 62
     2
  6
CONTINUOUS
 10
-1.021024
 20
1.534035
  0
VERTEX
  8
PLAN_1
 62
     2
  6
CONTINUOUS
 10
-1.021531
 20
1.536575
  0
VERTEX
  8
PLAN_1
 62
     2
  6
CONTINUOUS
 10
-1.023055
 20
1.539114
  0
VERTEX
  8
PLAN_1
 62
     2
  6
CONTINUOUS
 10
-1.024579
 20
1.540638
  0
VERTEX
  8
PLAN_1
 62
     2
  6
CONTINUOUS
 10
-1.027114
 20
1.542157
  0
VERTEX
  8
PLAN_1
 62
     2
  6
CONTINUOUS
 10
-1.030161
 20
1.543173
  0
VERTEX
  8
PLAN_1
 62
     2
  6
CONTINUOUS
 10
-1.034224
 20
1.543681
  0
VERTEX
  8
PLAN_1
 62
     2
  6
CONTINUOUS
 10
-1.037780
 20
1.543173
  0
VERTEX
  8
PLAN_1
 62
     2
  6
CONTINUOUS
 10
-1.040823
 20
1.542665
  0
VERTEX
  8
PLAN_1
 62
     2
  6
CONTINUOUS
 10
-1.042854
 20
1.541146
  0
VERTEX
  8
PLAN_1
 62
     2
  6
CONTINUOUS
 10
-1.044886
 20
1.539114
  0
VERTEX
  8
PLAN_1
 62
     2
  6
CONTINUOUS
 10
-1.046409
 20
1.537083
  0
VERTEX
  8
PLAN_1
 62
     2
  6
CONTINUOUS
 10
-1.047425
 20
1.534543
  0
VERTEX
  8
PLAN_1
 62
     2
  6
CONTINUOUS
 10
-1.048441
 20
1.531496
  0
VERTEX
  8
PLAN_1
 62
     2
  6
CONTINUOUS
 10
-1.048441
 20
1.528453
  0
VERTEX
  8
PLAN_1
 62
     2
  6
CONTINUOUS
 10
-1.047933
 20
1.524898
  0
VERTEX
  8
PLAN_1
 62
     2
  6
CONTINUOUS
 10
-1.047425
 20
1.521850
  0
VERTEX
  8
PLAN_1
 62
     2
  6
CONTINUOUS
 10
-1.045902
 20
1.519311
  0
VERTEX
  8
PLAN_1
 62
     2
  6
CONTINUOUS
 10
-1.044378
 20
1.517280
  0
VERTEX
  8
PLAN_1
 62
     2
  6
CONTINUOUS
 10
-1.042346
 20
1.515252
  0
VERTEX
  8
PLAN_1
 62
     2
  6
CONTINUOUS
 10
-1.039807
 20
1.514236
  0
VERTEX
  8
PLAN_1
 62
     2
  6
CONTINUOUS
 10
-1.037272
 20
1.513728
  0
VERTEX
  8
PLAN_1
 62
     2
  6
CONTINUOUS
 10
-1.034732
 20
1.513220
  0
SEQEND
  8
0
  0
POLYLINE
  8
PLAN_1
 62
     2
  6
CONTINUOUS
 66
     1
 40
0.003000
 41
0.003000
  0
VERTEX
  8
PLAN_1
 62
     2
  6
CONTINUOUS
 10
-1.068240
 20
1.541654
  0
VERTEX
  8
PLAN_1
 62
     2
  6
CONTINUOUS
 10
-1.069764
 20
1.541146
  0
VERTEX
  8
PLAN_1
 62
     2
  6
CONTINUOUS
 10
-1.071795
 20
1.540638
  0
VERTEX
  8
PLAN_1
 62
     2
  6
CONTINUOUS
 10
-1.073319
 20
1.540130
  0
VERTEX
  8
PLAN_1
 62
     2
  6
CONTINUOUS
 10
-1.075350
 20
1.538606
  0
VERTEX
  8
PLAN_1
 62
     2
  6
CONTINUOUS
 10
-1.076874
 20
1.536575
  0
VERTEX
  8
PLAN_1
 62
     2
  6
CONTINUOUS
 10
-1.077886
 20
1.534543
  0
VERTEX
  8
PLAN_1
 62
     2
  6
CONTINUOUS
 10
-1.078902
 20
1.531496
  0
VERTEX
  8
PLAN_1
 62
     2
  6
CONTINUOUS
 10
-1.078902
 20
1.527945
  0
VERTEX
  8
PLAN_1
 62
     2
  6
CONTINUOUS
 10
-1.078902
 20
1.524390
  0
VERTEX
  8
PLAN_1
 62
     2
  6
CONTINUOUS
 10
-1.077886
 20
1.521850
  0
VERTEX
  8
PLAN_1
 62
     2
  6
CONTINUOUS
 10
-1.076874
 20
1.519819
  0
VERTEX
  8
PLAN_1
 62
     2
  6
CONTINUOUS
 10
-1.074843
 20
1.518295
  0
VERTEX
  8
PLAN_1
 62
     2
  6
CONTINUOUS
 10
-1.073319
 20
1.516772
  0
VERTEX
  8
PLAN_1
 62
     2
  6
CONTINUOUS
 10
-1.071287
 20
1.516264
  0
VERTEX
  8
PLAN_1
 62
     2
  6
CONTINUOUS
 10
-1.069256
 20
1.515760
  0
VERTEX
  8
PLAN_1
 62
     2
  6
CONTINUOUS
 10
-1.067732
 20
1.515760
  0
VERTEX
  8
PLAN_1
 62
     2
  6
CONTINUOUS
 10
-1.065193
 20
1.515760
  0
VERTEX
  8
PLAN_1
 62
     2
  6
CONTINUOUS
 10
-1.062657
 20
1.516772
  0
VERTEX
  8
PLAN_1
 62
     2
  6
CONTINUOUS
 10
-1.061134
 20
1.517787
  0
VERTEX
  8
PLAN_1
 62
     2
  6
CONTINUOUS
 10
-1.059102
 20
1.519311
  0
VERTEX
  8
PLAN_1
 62
     2
  6
CONTINUOUS
 10
-1.058087
 20
1.521343
  0
VERTEX
  8
PLAN_1
 62
     2
  6
CONTINUOUS
 10
-1.057071
 20
1.523374
  0
VERTEX
  8
PLAN_1
 62
     2
  6
CONTINUOUS
 10
-1.056563
 20
1.525913
  0
VERTEX
  8
PLAN_1
 62
     2
  6
CONTINUOUS
 10
-1.056563
 20
1.528453
  0
VERTEX
  8
PLAN_1
 62
     2
  6
CONTINUOUS
 10
-1.056563
 20
1.531496
  0
VERTEX
  8
PLAN_1
 62
     2
  6
CONTINUOUS
 10
-1.057071
 20
1.534035
  0
VERTEX
  8
PLAN_1
 62
     2
  6
CONTINUOUS
 10
-1.058087
 20
1.536067
  0
VERTEX
  8
PLAN_1
 62
     2
  6
CONTINUOUS
 10
-1.059610
 20
1.538098
  0
VERTEX
  8
PLAN_1
 62
     2
  6
CONTINUOUS
 10
-1.061642
 20
1.539622
  0
VERTEX
  8
PLAN_1
 62
     2
  6
CONTINUOUS
 10
-1.063673
 20
1.540638
  0
VERTEX
  8
PLAN_1
 62
     2
  6
CONTINUOUS
 10
-1.065701
 20
1.541146
  0
VERTEX
  8
PLAN_1
 62
     2
  6
CONTINUOUS
 10
-1.068240
 20
1.541654
  0
SEQEND
  8
0
  0
POLYLINE
  8
PLAN_1
 62
     2
  6
CONTINUOUS
 66
     1
 40
0.004059
 41
0.004059
  0
VERTEX
  8
PLAN_1
 62
     2
  6
CONTINUOUS
 10
-1.934917
 20
3.810142
  0
VERTEX
  8
PLAN_1
 62
     2
  6
CONTINUOUS
 10
-1.603378
 20
3.810142
  0
SEQEND
  8
0
  0
SOLID
  8
PLAN_1
 62
     2
 10
-1.769909
 20
3.810142
 11
-1.829311
 21
3.825878
 12
-1.769909
 22
3.810142
 13
-1.829311
 23
3.794402
  0
POLYLINE
  8
PLAN_1
 62
     2
  6
CONTINUOUS
 66
     1
 40
0.003000
 41
0.003000
  0
VERTEX
  8
PLAN_1
 62
     2
  6
CONTINUOUS
 10
-1.769909
 20
3.810142
  0
VERTEX
  8
PLAN_1
 62
     2
  6
CONTINUOUS
 10
-1.829311
 20
3.825878
  0
VERTEX
  8
PLAN_1
 62
     2
  6
CONTINUOUS
 10
-1.829311
 20
3.794402
  0
VERTEX
  8
PLAN_1
 62
     2
  6
CONTINUOUS
 10
-1.769909
 20
3.810142
  0
SEQEND
  8
0
  0
SOLID
  8
PLAN_1
 62
     2
 10
-1.628256
 20
3.810142
 11
-1.569358
 21
3.825878
 12
-1.628256
 22
3.810142
 13
-1.569358
 23
3.794402
  0
POLYLINE
  8
PLAN_1
 62
     2
  6
CONTINUOUS
 66
     1
 40
0.003000
 41
0.003000
  0
VERTEX
  8
PLAN_1
 62
     2
  6
CONTINUOUS
 10
-1.628256
 20
3.810142
  0
VERTEX
  8
PLAN_1
 62
     2
  6
CONTINUOUS
 10
-1.569358
 20
3.825878
  0
VERTEX
  8
PLAN_1
 62
     2
  6
CONTINUOUS
 10
-1.569358
 20
3.794402
  0
VERTEX
  8
PLAN_1
 62
     2
  6
CONTINUOUS
 10
-1.628256
 20
3.810142
  0
SEQEND
  8
0
  0
POLYLINE
  8
PLAN_1
 62
     2
  6
CONTINUOUS
 66
     1
 40
0.003000
 41
0.003000
  0
VERTEX
  8
PLAN_1
 62
     2
  6
CONTINUOUS
 10
-1.861807
 20
3.851264
  0
VERTEX
  8
PLAN_1
 62
     2
  6
CONTINUOUS
 10
-1.861807
 20
3.833496
  0
VERTEX
  8
PLAN_1
 62
     2
  6
CONTINUOUS
 10
-1.870945
 20
3.833496
  0
VERTEX
  8
PLAN_1
 62
     2
  6
CONTINUOUS
 10
-1.870945
 20
3.851264
  0
VERTEX
  8
PLAN_1
 62
     2
  6
CONTINUOUS
 10
-1.902929
 20
3.851264
  0
VERTEX
  8
PLAN_1
 62
     2
  6
CONTINUOUS
 10
-1.902929
 20
3.860406
  0
VERTEX
  8
PLAN_1
 62
     2
  6
CONTINUOUS
 10
-1.869421
 20
3.906606
  0
VERTEX
  8
PLAN_1
 62
     2
  6
CONTINUOUS
 10
-1.861807
 20
3.906606
  0
VERTEX
  8
PLAN_1
 62
     2
  6
CONTINUOUS
 10
-1.861807
 20
3.859390
  0
VERTEX
  8
PLAN_1
 62
     2
  6
CONTINUOUS
 10
-1.850638
 20
3.859390
  0
VERTEX
  8
PLAN_1
 62
     2
  6
CONTINUOUS
 10
-1.850638
 20
3.851264
  0
VERTEX
  8
PLAN_1
 62
     2
  6
CONTINUOUS
 10
-1.861807
 20
3.851264
  0
SEQEND
  8
0
  0
SOLID
  8
PLAN_1
 62
     2
 10
-1.894299
 20
3.859390
 11
-1.870945
 21
3.859390
 12
-1.894299
 22
3.859390
 13
-1.870945
 23
3.892390
  0
POLYLINE
  8
PLAN_1
 62
     2
  6
CONTINUOUS
 66
     1
 40
0.003000
 41
0.003000
  0
VERTEX
  8
PLAN_1
 62
     2
  6
CONTINUOUS
 10
-1.894299
 20
3.859390
  0
VERTEX
  8
PLAN_1
 62
     2
  6
CONTINUOUS
 10
-1.870945
 20
3.859390
  0
VERTEX
  8
PLAN_1
 62
     2
  6
CONTINUOUS
 10
-1.870945
 20
3.892390
  0
VERTEX
  8
PLAN_1
 62
     2
  6
CONTINUOUS
 10
-1.894299
 20
3.859390
  0
SEQEND
  8
0
  0
POLYLINE
  8
PLAN_1
 62
     2
  6
CONTINUOUS
 66
     1
 40
0.004059
 41
0.004059
  0
VERTEX
  8
PLAN_1
 62
     2
  6
CONTINUOUS
 10
-1.769909
 20
3.676102
  0
VERTEX
  8
PLAN_1
 62
     2
  6
CONTINUOUS
 10
-1.769909
 20
3.833496
  0
SEQEND
  8
0
  0
POLYLINE
  8
PLAN_1
 62
     2
  6
CONTINUOUS
 66
     1
 40
0.004059
 41
0.004059
  0
VERTEX
  8
PLAN_1
 62
     2
  6
CONTINUOUS
 10
-1.628256
 20
3.676102
  0
VERTEX
  8
PLAN_1
 62
     2
  6
CONTINUOUS
 10
-1.628256
 20
3.833496
  0
SEQEND
  8
0
  0
POLYLINE
  8
PLAN_1
 62
     2
  6
CONTINUOUS
 66
     1
 40
0.004059
 41
0.004059
  0
VERTEX
  8
PLAN_1
 62
     2
  6
CONTINUOUS
 10
-1.698827
 20
3.676610
  0
VERTEX
  8
PLAN_1
 62
     2
  6
CONTINUOUS
 10
-1.698827
 20
3.787291
  0
SEQEND
  8
0
  0
POLYLINE
  8
PLAN_1
 62
     2
  6
CONTINUOUS
 66
     1
 40
0.004059
 41
0.004059
  0
VERTEX
  8
PLAN_1
 62
     2
  6
CONTINUOUS
 10
-1.698827
 20
3.834512
  0
VERTEX
  8
PLAN_1
 62
     2
  6
CONTINUOUS
 10
-1.698827
 20
3.990890
  0
SEQEND
  8
0
  0
POLYLINE
  8
PLAN_1
 62
     2
  6
CONTINUOUS
 66
     1
 40
0.004059
 41
0.004059
  0
VERTEX
  8
PLAN_1
 62
     2
  6
CONTINUOUS
 10
-1.146937
 20
2.390051
  0
VERTEX
  8
PLAN_1
 62
     2
  6
CONTINUOUS
 10
-1.146937
 20
3.990890
  0
SEQEND
  8
0
  0
POLYLINE
  8
PLAN_1
 62
     2
  6
CONTINUOUS
 66
     1
 40
0.004059
 41
0.004059
  0
VERTEX
  8
PLAN_1
 62
     2
  6
CONTINUOUS
 10
-1.603886
 20
3.653764
  0
VERTEX
  8
PLAN_1
 62
     2
  6
CONTINUOUS
 10
-1.171307
 20
3.653764
  0
SEQEND
  8
0
  0
POLYLINE
  8
PLAN_1
 62
     2
  6
CONTINUOUS
 66
     1
 40
0.003000
 41
0.003000
  0
VERTEX
  8
PLAN_1
 62
     2
  6
CONTINUOUS
 10
-0.902217
 20
-0.821272
  0
VERTEX
  8
PLAN_1
 62
     2
  6
CONTINUOUS
 10
-0.901709
 20
-0.821272
  0
VERTEX
  8
PLAN_1
 62
     2
  6
CONTINUOUS
 10
-0.901201
 20
-0.821272
  0
VERTEX
  8
PLAN_1
 62
     2
  6
CONTINUOUS
 10
-0.900693
 20
-0.821272
  0
VERTEX
  8
PLAN_1
 62
     2
  6
CONTINUOUS
 10
-0.899677
 20
-0.821272
  0
VERTEX
  8
PLAN_1
 62
     2
  6
CONTINUOUS
 10
-0.899169
 20
-0.821272
  0
VERTEX
  8
PLAN_1
 62
     2
  6
CONTINUOUS
 10
-0.898661
 20
-0.821272
  0
VERTEX
  8
PLAN_1
 62
     2
  6
CONTINUOUS
 10
-0.898154
 20
-0.821272
  0
VERTEX
  8
PLAN_1
 62
     2
  6
CONTINUOUS
 10
-0.897646
 20
-0.821272
  0
VERTEX
  8
PLAN_1
 62
     2
  6
CONTINUOUS
 10
-0.895110
 20
-0.821272
  0
VERTEX
  8
PLAN_1
 62
     2
  6
CONTINUOUS
 10
-0.892571
 20
-0.820764
  0
VERTEX
  8
PLAN_1
 62
     2
  6
CONTINUOUS
 10
-0.890031
 20
-0.819748
  0
VERTEX
  8
PLAN_1
 62
     2
  6
CONTINUOUS
 10
-0.888000
 20
-0.818736
  0
VERTEX
  8
PLAN_1
 62
     2
  6
CONTINUOUS
 10
-0.885969
 20
-0.817213
  0
VERTEX
  8
PLAN_1
 62
     2
  6
CONTINUOUS
 10
-0.884953
 20
-0.815181
  0
VERTEX
  8
PLAN_1
 62
     2
  6
CONTINUOUS
 10
-0.883937
 20
-0.812642
  0
VERTEX
  8
PLAN_1
 62
     2
  6
CONTINUOUS
 10
-0.883433
 20
-0.809594
  0
VERTEX
  8
PLAN_1
 62
     2
  6
CONTINUOUS
 10
-0.883937
 20
-0.807563
  0
VERTEX
  8
PLAN_1
 62
     2
  6
CONTINUOUS
 10
-0.883937
 20
-0.805535
  0
VERTEX
  8
PLAN_1
 62
     2
  6
CONTINUOUS
 10
-0.884953
 20
-0.804012
  0
VERTEX
  8
PLAN_1
 62
     2
  6
CONTINUOUS
 10
-0.886476
 20
-0.801980
  0
VERTEX
  8
PLAN_1
 62
     2
  6
CONTINUOUS
 10
-0.888000
 20
-0.800457
  0
VERTEX
  8
PLAN_1
 62
     2
  6
CONTINUOUS
 10
-0.890539
 20
-0.798933
  0
VERTEX
  8
PLAN_1
 62
     2
  6
CONTINUOUS
 10
-0.893587
 20
-0.797917
  0
VERTEX
  8
PLAN_1
 62
     2
  6
CONTINUOUS
 10
-0.897138
 20
-0.797917
  0
VERTEX
  8
PLAN_1
 62
     2
  6
CONTINUOUS
 10
-0.901201
 20
-0.798425
  0
VERTEX
  8
PLAN_1
 62
     2
  6
CONTINUOUS
 10
-0.904756
 20
-0.799441
  0
VERTEX
  8
PLAN_1
 62
     2
  6
CONTINUOUS
 10
-0.907295
 20
-0.801472
  0
VERTEX
  8
PLAN_1
 62
     2
  6
CONTINUOUS
 10
-0.908819
 20
-0.804012
  0
VERTEX
  8
PLAN_1
 62
     2
  6
CONTINUOUS
 10
-0.910339
 20
-0.806547
  0
VERTEX
  8
PLAN_1
 62
     2
  6
CONTINUOUS
 10
-0.910846
 20
-0.809087
  0
VERTEX
  8
PLAN_1
 62
     2
  6
CONTINUOUS
 10
-0.911354
 20
-0.811626
  0
VERTEX
  8
PLAN_1
 62
     2
  6
CONTINUOUS
 10
-0.911354
 20
-0.813657
  0
VERTEX
  8
PLAN_1
 62
     2
  6
CONTINUOUS
 10
-0.920496
 20
-0.813657
  0
VERTEX
  8
PLAN_1
 62
     2
  6
CONTINUOUS
 10
-0.919988
 20
-0.809594
  0
VERTEX
  8
PLAN_1
 62
     2
  6
CONTINUOUS
 10
-0.919480
 20
-0.805535
  0
VERTEX
  8
PLAN_1
 62
     2
  6
CONTINUOUS
 10
-0.917957
 20
-0.801472
  0
VERTEX
  8
PLAN_1
 62
     2
  6
CONTINUOUS
 10
-0.915925
 20
-0.797409
  0
VERTEX
  8
PLAN_1
 62
     2
  6
CONTINUOUS
 10
-0.914402
 20
-0.795886
  0
VERTEX
  8
PLAN_1
 62
     2
  6
CONTINUOUS
 10
-0.912878
 20
-0.794362
  0
VERTEX
  8
PLAN_1
 62
     2
  6
CONTINUOUS
 10
-0.910846
 20
-0.792843
  0
VERTEX
  8
PLAN_1
 62
     2
  6
CONTINUOUS
 10
-0.908311
 20
-0.791827
  0
VERTEX
  8
PLAN_1
 62
     2
  6
CONTINUOUS
 10
-0.905772
 20
-0.790811
  0
VERTEX
  8
PLAN_1
 62
     2
  6
CONTINUOUS
 10
-0.903232
 20
-0.790303
  0
VERTEX
  8
PLAN_1
 62
     2
  6
CONTINUOUS
 10
-0.900185
 20
-0.789795
  0
VERTEX
  8
PLAN_1
 62
     2
  6
CONTINUOUS
 10
-0.896630
 20
-0.789795
  0
VERTEX
  8
PLAN_1
 62
     2
  6
CONTINUOUS
 10
-0.891555
 20
-0.789795
  0
VERTEX
  8
PLAN_1
 62
     2
  6
CONTINUOUS
 10
-0.886984
 20
-0.791319
  0
VERTEX
  8
PLAN_1
 62
     2
  6
CONTINUOUS
 10
-0.883433
 20
-0.792843
  0
VERTEX
  8
PLAN_1
 62
     2
  6
CONTINUOUS
 10
-0.879878
 20
-0.794870
  0
VERTEX
  8
PLAN_1
 62
     2
  6
CONTINUOUS
 10
-0.877339
 20
-0.797917
  0
VERTEX
  8
PLAN_1
 62
     2
  6
CONTINUOUS
 10
-0.875815
 20
-0.800965
  0
VERTEX
  8
PLAN_1
 62
     2
  6
CONTINUOUS
 10
-0.874291
 20
-0.805028
  0
VERTEX
  8
PLAN_1
 62
     2
  6
CONTINUOUS
 10
-0.874291
 20
-0.809087
  0
VERTEX
  8
PLAN_1
 62
     2
  6
CONTINUOUS
 10
-0.874291
 20
-0.812134
  0
VERTEX
  8
PLAN_1
 62
     2
  6
CONTINUOUS
 10
-0.874799
 20
-0.815181
  0
VERTEX
  8
PLAN_1
 62
     2
  6
CONTINUOUS
 10
-0.875815
 20
-0.817213
  0
VERTEX
  8
PLAN_1
 62
     2
  6
CONTINUOUS
 10
-0.877339
 20
-0.819240
  0
VERTEX
  8
PLAN_1
 62
     2
  6
CONTINUOUS
 10
-0.878862
 20
-0.821272
  0
VERTEX
  8
PLAN_1
 62
     2
  6
CONTINUOUS
 10
-0.880386
 20
-0.822287
  0
VERTEX
  8
PLAN_1
 62
     2
  6
CONTINUOUS
 10
-0.881909
 20
-0.823303
  0
VERTEX
  8
PLAN_1
 62
     2
  6
CONTINUOUS
 10
-0.883433
 20
-0.823811
  0
VERTEX
  8
PLAN_1
 62
     2
  6
CONTINUOUS
 10
-0.883433
 20
-0.824319
  0
VERTEX
  8
PLAN_1
 62
     2
  6
CONTINUOUS
 10
-0.880894
 20
-0.825335
  0
VERTEX
  8
PLAN_1
 62
     2
  6
CONTINUOUS
 10
-0.878354
 20
-0.826350
  0
VERTEX
  8
PLAN_1
 62
     2
  6
CONTINUOUS
 10
-0.876323
 20
-0.827874
  0
VERTEX
  8
PLAN_1
 62
     2
  6
CONTINUOUS
 10
-0.874799
 20
-0.829906
  0
VERTEX
  8
PLAN_1
 62
     2
  6
CONTINUOUS
 10
-0.873276
 20
-0.831933
  0
VERTEX
  8
PLAN_1
 62
     2
  6
CONTINUOUS
 10
-0.872260
 20
-0.834980
  0
VERTEX
  8
PLAN_1
 62
     2
  6
CONTINUOUS
 10
-0.871752
 20
-0.838028
  0
VERTEX
  8
PLAN_1
 62
     2
  6
CONTINUOUS
 10
-0.871244
 20
-0.841075
  0
VERTEX
  8
PLAN_1
 62
     2
  6
CONTINUOUS
 10
-0.871752
 20
-0.845642
  0
VERTEX
  8
PLAN_1
 62
     2
  6
CONTINUOUS
 10
-0.872768
 20
-0.850213
  0
VERTEX
  8
PLAN_1
 62
     2
  6
CONTINUOUS
 10
-0.874799
 20
-0.853768
  0
VERTEX
  8
PLAN_1
 62
     2
  6
CONTINUOUS
 10
-0.877339
 20
-0.857323
  0
VERTEX
  8
PLAN_1
 62
     2
  6
CONTINUOUS
 10
-0.879370
 20
-0.858843
  0
VERTEX
  8
PLAN_1
 62
     2
  6
CONTINUOUS
 10
-0.880894
 20
-0.860366
  0
VERTEX
  8
PLAN_1
 62
     2
  6
CONTINUOUS
 10
-0.883433
 20
-0.861890
  0
VERTEX
  8
PLAN_1
 62
     2
  6
CONTINUOUS
 10
-0.885461
 20
-0.862906
  0
VERTEX
  8
PLAN_1
 62
     2
  6
CONTINUOUS
 10
-0.888508
 20
-0.863413
  0
VERTEX
  8
PLAN_1
 62
     2
  6
CONTINUOUS
 10
-0.891047
 20
-0.864429
  0
VERTEX
  8
PLAN_1
 62
     2
  6
CONTINUOUS
 10
-0.894094
 20
-0.864429
  0
VERTEX
  8
PLAN_1
 62
     2
  6
CONTINUOUS
 10
-0.897646
 20
-0.864937
  0
VERTEX
  8
PLAN_1
 62
     2
  6
CONTINUOUS
 10
-0.899677
 20
-0.864937
  0
VERTEX
  8
PLAN_1
 62
     2
  6
CONTINUOUS
 10
-0.901709
 20
-0.864429
  0
VERTEX
  8
PLAN_1
 62
     2
  6
CONTINUOUS
 10
-0.903232
 20
-0.864429
  0
VERTEX
  8
PLAN_1
 62
     2
  6
CONTINUOUS
 10
-0.905264
 20
-0.863921
  0
VERTEX
  8
PLAN_1
 62
     2
  6
CONTINUOUS
 10
-0.906787
 20
-0.863413
  0
VERTEX
  8
PLAN_1
 62
     2
  6
CONTINUOUS
 10
-0.908311
 20
-0.862906
  0
VERTEX
  8
PLAN_1
 62
     2
  6
CONTINUOUS
 10
-0.909831
 20
-0.862398
  0
VERTEX
  8
PLAN_1
 62
     2
  6
CONTINUOUS
 10
-0.911354
 20
-0.861382
  0
VERTEX
  8
PLAN_1
 62
     2
  6
CONTINUOUS
 10
-0.913894
 20
-0.859858
  0
VERTEX
  8
PLAN_1
 62
     2
  6
CONTINUOUS
 10
-0.916433
 20
-0.857827
  0
VERTEX
  8
PLAN_1
 62
     2
  6
CONTINUOUS
 10
-0.917957
 20
-0.855291
  0
VERTEX
  8
PLAN_1
 62
     2
  6
CONTINUOUS
 10
-0.919480
 20
-0.852752
  0
VERTEX
  8
PLAN_1
 62
     2
  6
CONTINUOUS
 10
-0.920496
 20
-0.849705
  0
VERTEX
  8
PLAN_1
 62
     2
  6
CONTINUOUS
 10
-0.921004
 20
-0.846657
  0
VERTEX
  8
PLAN_1
 62
     2
  6
CONTINUOUS
 10
-0.922020
 20
-0.843614
  0
VERTEX
  8
PLAN_1
 62
     2
  6
CONTINUOUS
 10
-0.922020
 20
-0.840567
  0
VERTEX
  8
PLAN_1
 62
     2
  6
CONTINUOUS
 10
-0.912370
 20
-0.840567
  0
VERTEX
  8
PLAN_1
 62
     2
  6
CONTINUOUS
 10
-0.912370
 20
-0.843106
  0
VERTEX
  8
PLAN_1
 62
     2
  6
CONTINUOUS
 10
-0.911862
 20
-0.845642
  0
VERTEX
  8
PLAN_1
 62
     2
  6
CONTINUOUS
 10
-0.911354
 20
-0.848689
  0
VERTEX
  8
PLAN_1
 62
     2
  6
CONTINUOUS
 10
-0.909831
 20
-0.851228
  0
VERTEX
  8
PLAN_1
 62
     2
  6
CONTINUOUS
 10
-0.907803
 20
-0.853260
  0
VERTEX
  8
PLAN_1
 62
     2
  6
CONTINUOUS
 10
-0.905264
 20
-0.854783
  0
VERTEX
  8
PLAN_1
 62
     2
  6
CONTINUOUS
 10
-0.901709
 20
-0.856307
  0
VERTEX
  8
PLAN_1
 62
     2
  6
CONTINUOUS
 10
-0.897138
 20
-0.856307
  0
VERTEX
  8
PLAN_1
 62
     2
  6
CONTINUOUS
 10
-0.893587
 20
-0.856307
  0
VERTEX
  8
PLAN_1
 62
     2
  6
CONTINUOUS
 10
-0.890539
 20
-0.855291
  0
VERTEX
  8
PLAN_1
 62
     2
  6
CONTINUOUS
 10
-0.888000
 20
-0.854276
  0
VERTEX
  8
PLAN_1
 62
     2
  6
CONTINUOUS
 10
-0.885461
 20
-0.852752
  0
VERTEX
  8
PLAN_1
 62
     2
  6
CONTINUOUS
 10
-0.883433
 20
-0.850720
  0
VERTEX
  8
PLAN_1
 62
     2
  6
CONTINUOUS
 10
-0.882417
 20
-0.848181
  0
VERTEX
  8
PLAN_1
 62
     2
  6
CONTINUOUS
 10
-0.881402
 20
-0.845642
  0
VERTEX
  8
PLAN_1
 62
     2
  6
CONTINUOUS
 10
-0.880894
 20
-0.842598
  0
VERTEX
  8
PLAN_1
 62
     2
  6
CONTINUOUS
 10
-0.881402
 20
-0.840059
  0
VERTEX
  8
PLAN_1
 62
     2
  6
CONTINUOUS
 10
-0.881402
 20
-0.838535
  0
VERTEX
  8
PLAN_1
 62
     2
  6
CONTINUOUS
 10
-0.881909
 20
-0.836504
  0
VERTEX
  8
PLAN_1
 62
     2
  6
CONTINUOUS
 10
-0.882925
 20
-0.834980
  0
VERTEX
  8
PLAN_1
 62
     2
  6
CONTINUOUS
 10
-0.884953
 20
-0.832949
  0
VERTEX
  8
PLAN_1
 62
     2
  6
CONTINUOUS
 10
-0.887492
 20
-0.830921
  0
VERTEX
  8
PLAN_1
 62
     2
  6
CONTINUOUS
 10
-0.890031
 20
-0.829906
  0
VERTEX
  8
PLAN_1
 62
     2
  6
CONTINUOUS
 10
-0.893079
 20
-0.829398
  0
VERTEX
  8
PLAN_1
 62
     2
  6
CONTINUOUS
 10
-0.895618
 20
-0.828890
  0
VERTEX
  8
PLAN_1
 62
     2
  6
CONTINUOUS
 10
-0.898154
 20
-0.828890
  0
VERTEX
  8
PLAN_1
 62
     2
  6
CONTINUOUS
 10
-0.898661
 20
-0.828890
  0
VERTEX
  8
PLAN_1
 62
     2
  6
CONTINUOUS
 10
-0.899169
 20
-0.828890
  0
VERTEX
  8
PLAN_1
 62
     2
  6
CONTINUOUS
 10
-0.899677
 20
-0.828890
  0
VERTEX
  8
PLAN_1
 62
     2
  6
CONTINUOUS
 10
-0.900185
 20
-0.828890
  0
VERTEX
  8
PLAN_1
 62
     2
  6
CONTINUOUS
 10
-0.900693
 20
-0.828890
  0
VERTEX
  8
PLAN_1
 62
     2
  6
CONTINUOUS
 10
-0.901201
 20
-0.828890
  0
VERTEX
  8
PLAN_1
 62
     2
  6
CONTINUOUS
 10
-0.901709
 20
-0.828890
  0
VERTEX
  8
PLAN_1
 62
     2
  6
CONTINUOUS
 10
-0.902217
 20
-0.828890
  0
VERTEX
  8
PLAN_1
 62
     2
  6
CONTINUOUS
 10
-0.902217
 20
-0.821272
  0
SEQEND
  8
0
  0
POLYLINE
  8
PLAN_1
 62
     2
  6
CONTINUOUS
 66
     1
 40
0.003000
 41
0.003000
  0
VERTEX
  8
PLAN_1
 62
     2
  6
CONTINUOUS
 10
-0.820980
 20
-0.816197
  0
VERTEX
  8
PLAN_1
 62
     2
  6
CONTINUOUS
 10
-0.820980
 20
-0.851228
  0
VERTEX
  8
PLAN_1
 62
     2
  6
CONTINUOUS
 10
-0.820472
 20
-0.852752
  0
VERTEX
  8
PLAN_1
 62
     2
  6
CONTINUOUS
 10
-0.819965
 20
-0.853768
  0
VERTEX
  8
PLAN_1
 62
     2
  6
CONTINUOUS
 10
-0.819457
 20
-0.854783
  0
VERTEX
  8
PLAN_1
 62
     2
  6
CONTINUOUS
 10
-0.818953
 20
-0.855291
  0
VERTEX
  8
PLAN_1
 62
     2
  6
CONTINUOUS
 10
-0.817937
 20
-0.855291
  0
VERTEX
  8
PLAN_1
 62
     2
  6
CONTINUOUS
 10
-0.816921
 20
-0.855291
  0
VERTEX
  8
PLAN_1
 62
     2
  6
CONTINUOUS
 10
-0.815906
 20
-0.855799
  0
VERTEX
  8
PLAN_1
 62
     2
  6
CONTINUOUS
 10
-0.815398
 20
-0.855799
  0
VERTEX
  8
PLAN_1
 62
     2
  6
CONTINUOUS
 10
-0.811843
 20
-0.855799
  0
VERTEX
  8
PLAN_1
 62
     2
  6
CONTINUOUS
 10
-0.811843
 20
-0.862906
  0
VERTEX
  8
PLAN_1
 62
     2
  6
CONTINUOUS
 10
-0.813366
 20
-0.862906
  0
VERTEX
  8
PLAN_1
 62
     2
  6
CONTINUOUS
 10
-0.814382
 20
-0.862906
  0
VERTEX
  8
PLAN_1
 62
     2
  6
CONTINUOUS
 10
-0.815398
 20
-0.862906
  0
VERTEX
  8
PLAN_1
 62
     2
  6
CONTINUOUS
 10
-0.816413
 20
-0.863413
  0
VERTEX
  8
PLAN_1
 62
     2
  6
CONTINUOUS
 10
-0.817429
 20
-0.863413
  0
VERTEX
  8
PLAN_1
 62
     2
  6
CONTINUOUS
 10
-0.817937
 20
-0.863413
  0
VERTEX
  8
PLAN_1
 62
     2
  6
CONTINUOUS
 10
-0.818445
 20
-0.863413
  0
VERTEX
  8
PLAN_1
 62
     2
  6
CONTINUOUS
 10
-0.818953
 20
-0.863413
  0
VERTEX
  8
PLAN_1
 62
     2
  6
CONTINUOUS
 10
-0.821996
 20
-0.863413
  0
VERTEX
  8
PLAN_1
 62
     2
  6
CONTINUOUS
 10
-0.824535
 20
-0.862398
  0
VERTEX
  8
PLAN_1
 62
     2
  6
CONTINUOUS
 10
-0.826567
 20
-0.861382
  0
VERTEX
  8
PLAN_1
 62
     2
  6
CONTINUOUS
 10
-0.827583
 20
-0.860366
  0
VERTEX
  8
PLAN_1
 62
     2
  6
CONTINUOUS
 10
-0.828598
 20
-0.858335
  0
VERTEX
  8
PLAN_1
 62
     2
  6
CONTINUOUS
 10
-0.829614
 20
-0.856307
  0
VERTEX
  8
PLAN_1
 62
     2
  6
CONTINUOUS
 10
-0.829614
 20
-0.854276
  0
VERTEX
  8
PLAN_1
 62
     2
  6
CONTINUOUS
 10
-0.830122
 20
-0.851736
  0
VERTEX
  8
PLAN_1
 62
     2
  6
CONTINUOUS
 10
-0.830122
 20
-0.816197
  0
VERTEX
  8
PLAN_1
 62
     2
  6
CONTINUOUS
 10
-0.837228
 20
-0.816197
  0
VERTEX
  8
PLAN_1
 62
     2
  6
CONTINUOUS
 10
-0.837228
 20
-0.808579
  0
VERTEX
  8
PLAN_1
 62
     2
  6
CONTINUOUS
 10
-0.830122
 20
-0.808579
  0
VERTEX
  8
PLAN_1
 62
     2
  6
CONTINUOUS
 10
-0.830122
 20
-0.793346
  0
VERTEX
  8
PLAN_1
 62
     2
  6
CONTINUOUS
 10
-0.820980
 20
-0.793346
  0
VERTEX
  8
PLAN_1
 62
     2
  6
CONTINUOUS
 10
-0.820980
 20
-0.808579
  0
VERTEX
  8
PLAN_1
 62
     2
  6
CONTINUOUS
 10
-0.811843
 20
-0.808579
  0
VERTEX
  8
PLAN_1
 62
     2
  6
CONTINUOUS
 10
-0.811843
 20
-0.816197
  0
VERTEX
  8
PLAN_1
 62
     2
  6
CONTINUOUS
 10
-0.820980
 20
-0.816197
  0
SEQEND
  8
0
  0
POLYLINE
  8
PLAN_1
 62
     2
  6
CONTINUOUS
 66
     1
 40
0.003000
 41
0.003000
  0
VERTEX
  8
PLAN_1
 62
     2
  6
CONTINUOUS
 10
-0.792551
 20
-0.862906
  0
VERTEX
  8
PLAN_1
 62
     2
  6
CONTINUOUS
 10
-0.801689
 20
-0.862906
  0
VERTEX
  8
PLAN_1
 62
     2
  6
CONTINUOUS
 10
-0.801689
 20
-0.808579
  0
VERTEX
  8
PLAN_1
 62
     2
  6
CONTINUOUS
 10
-0.793059
 20
-0.808579
  0
VERTEX
  8
PLAN_1
 62
     2
  6
CONTINUOUS
 10
-0.793059
 20
-0.817213
  0
VERTEX
  8
PLAN_1
 62
     2
  6
CONTINUOUS
 10
-0.791535
 20
-0.815181
  0
VERTEX
  8
PLAN_1
 62
     2
  6
CONTINUOUS
 10
-0.790012
 20
-0.813150
  0
VERTEX
  8
PLAN_1
 62
     2
  6
CONTINUOUS
 10
-0.788488
 20
-0.811118
  0
VERTEX
  8
PLAN_1
 62
     2
  6
CONTINUOUS
 10
-0.786457
 20
-0.809594
  0
VERTEX
  8
PLAN_1
 62
     2
  6
CONTINUOUS
 10
-0.784425
 20
-0.808579
  0
VERTEX
  8
PLAN_1
 62
     2
  6
CONTINUOUS
 10
-0.782394
 20
-0.807563
  0
VERTEX
  8
PLAN_1
 62
     2
  6
CONTINUOUS
 10
-0.780366
 20
-0.807055
  0
VERTEX
  8
PLAN_1
 62
     2
  6
CONTINUOUS
 10
-0.777827
 20
-0.807055
  0
VERTEX
  8
PLAN_1
 62
     2
  6
CONTINUOUS
 10
-0.777319
 20
-0.807055
  0
VERTEX
  8
PLAN_1
 62
     2
  6
CONTINUOUS
 10
-0.776811
 20
-0.807055
  0
VERTEX
  8
PLAN_1
 62
     2
  6
CONTINUOUS
 10
-0.776303
 20
-0.807055
  0
VERTEX
  8
PLAN_1
 62
     2
  6
CONTINUOUS
 10
-0.775795
 20
-0.807055
  0
VERTEX
  8
PLAN_1
 62
     2
  6
CONTINUOUS
 10
-0.775287
 20
-0.807055
  0
VERTEX
  8
PLAN_1
 62
     2
  6
CONTINUOUS
 10
-0.775287
 20
-0.816705
  0
VERTEX
  8
PLAN_1
 62
     2
  6
CONTINUOUS
 10
-0.778843
 20
-0.816705
  0
VERTEX
  8
PLAN_1
 62
     2
  6
CONTINUOUS
 10
-0.781886
 20
-0.816705
  0
VERTEX
  8
PLAN_1
 62
     2
  6
CONTINUOUS
 10
-0.784425
 20
-0.817720
  0
VERTEX
  8
PLAN_1
 62
     2
  6
CONTINUOUS
 10
-0.786965
 20
-0.819240
  0
VERTEX
  8
PLAN_1
 62
     2
  6
CONTINUOUS
 10
-0.788996
 20
-0.820764
  0
VERTEX
  8
PLAN_1
 62
     2
  6
CONTINUOUS
 10
-0.790520
 20
-0.823303
  0
VERTEX
  8
PLAN_1
 62
     2
  6
CONTINUOUS
 10
-0.791535
 20
-0.825335
  0
VERTEX
  8
PLAN_1
 62
     2
  6
CONTINUOUS
 10
-0.792551
 20
-0.828382
  0
VERTEX
  8
PLAN_1
 62
     2
  6
CONTINUOUS
 10
-0.792551
 20
-0.830921
  0
VERTEX
  8
PLAN_1
 62
     2
  6
CONTINUOUS
 10
-0.792551
 20
-0.862906
  0
SEQEND
  8
0
  0
POLYLINE
  8
PLAN_1
 62
     2
  6
CONTINUOUS
 66
     1
 40
0.003000
 41
0.003000
  0
VERTEX
  8
PLAN_1
 62
     2
  6
CONTINUOUS
 10
-0.746346
 20
-0.807055
  0
VERTEX
  8
PLAN_1
 62
     2
  6
CONTINUOUS
 10
-0.743299
 20
-0.807055
  0
VERTEX
  8
PLAN_1
 62
     2
  6
CONTINUOUS
 10
-0.740256
 20
-0.807563
  0
VERTEX
  8
PLAN_1
 62
     2
  6
CONTINUOUS
 10
-0.737717
 20
-0.808071
  0
VERTEX
  8
PLAN_1
 62
     2
  6
CONTINUOUS
 10
-0.735177
 20
-0.809087
  0
VERTEX
  8
PLAN_1
 62
     2
  6
CONTINUOUS
 10
-0.732638
 20
-0.810610
  0
VERTEX
  8
PLAN_1
 62
     2
  6
CONTINUOUS
 10
-0.730606
 20
-0.812134
  0
VERTEX
  8
PLAN_1
 62
     2
  6
CONTINUOUS
 10
-0.728579
 20
-0.814165
  0
VERTEX
  8
PLAN_1
 62
     2
  6
CONTINUOUS
 10
-0.727055
 20
-0.815689
  0
VERTEX
  8
PLAN_1
 62
     2
  6
CONTINUOUS
 10
-0.724516
 20
-0.820256
  0
VERTEX
  8
PLAN_1
 62
     2
  6
CONTINUOUS
 10
-0.722484
 20
-0.825335
  0
VERTEX
  8
PLAN_1
 62
     2
  6
CONTINUOUS
 10
-0.721469
 20
-0.830413
  0
VERTEX
  8
PLAN_1
 62
     2
  6
CONTINUOUS
 10
-0.720961
 20
-0.835488
  0
VERTEX
  8
PLAN_1
 62
     2
  6
CONTINUOUS
 10
-0.721469
 20
-0.840567
  0
VERTEX
  8
PLAN_1
 62
     2
  6
CONTINUOUS
 10
-0.722484
 20
-0.846150
  0
VERTEX
  8
PLAN_1
 62
     2
  6
CONTINUOUS
 10
-0.724516
 20
-0.850720
  0
VERTEX
  8
PLAN_1
 62
     2
  6
CONTINUOUS
 10
-0.727055
 20
-0.855291
  0
VERTEX
  8
PLAN_1
 62
     2
  6
CONTINUOUS
 10
-0.728579
 20
-0.857323
  0
VERTEX
  8
PLAN_1
 62
     2
  6
CONTINUOUS
 10
-0.730606
 20
-0.858843
  0
VERTEX
  8
PLAN_1
 62
     2
  6
CONTINUOUS
 10
-0.732638
 20
-0.860366
  0
VERTEX
  8
PLAN_1
 62
     2
  6
CONTINUOUS
 10
-0.735177
 20
-0.861890
  0
VERTEX
  8
PLAN_1
 62
     2
  6
CONTINUOUS
 10
-0.737717
 20
-0.862906
  0
VERTEX
  8
PLAN_1
 62
     2
  6
CONTINUOUS
 10
-0.740256
 20
-0.863413
  0
VERTEX
  8
PLAN_1
 62
     2
  6
CONTINUOUS
 10
-0.743299
 20
-0.863921
  0
VERTEX
  8
PLAN_1
 62
     2
  6
CONTINUOUS
 10
-0.746346
 20
-0.864429
  0
VERTEX
  8
PLAN_1
 62
     2
  6
CONTINUOUS
 10
-0.749394
 20
-0.863921
  0
VERTEX
  8
PLAN_1
 62
     2
  6
CONTINUOUS
 10
-0.752441
 20
-0.863413
  0
VERTEX
  8
PLAN_1
 62
     2
  6
CONTINUOUS
 10
-0.754976
 20
-0.862906
  0
VERTEX
  8
PLAN_1
 62
     2
  6
CONTINUOUS
 10
-0.757516
 20
-0.861890
  0
VERTEX
  8
PLAN_1
 62
     2
  6
CONTINUOUS
 10
-0.760055
 20
-0.860366
  0
VERTEX
  8
PLAN_1
 62
     2
  6
CONTINUOUS
 10
-0.762087
 20
-0.858843
  0
VERTEX
  8
PLAN_1
 62
     2
  6
CONTINUOUS
 10
-0.763610
 20
-0.857323
  0
VERTEX
  8
PLAN_1
 62
     2
  6
CONTINUOUS
 10
-0.765642
 20
-0.855291
  0
VERTEX
  8
PLAN_1
 62
     2
  6
CONTINUOUS
 10
-0.768177
 20
-0.850720
  0
VERTEX
  8
PLAN_1
 62
     2
  6
CONTINUOUS
 10
-0.770209
 20
-0.846150
  0
VERTEX
  8
PLAN_1
 62
     2
  6
CONTINUOUS
 10
-0.771224
 20
-0.840567
  0
VERTEX
  8
PLAN_1
 62
     2
  6
CONTINUOUS
 10
-0.771732
 20
-0.835488
  0
VERTEX
  8
PLAN_1
 62
     2
  6
CONTINUOUS
 10
-0.771224
 20
-0.830413
  0
VERTEX
  8
PLAN_1
 62
     2
  6
CONTINUOUS
 10
-0.770209
 20
-0.825335
  0
VERTEX
  8
PLAN_1
 62
     2
  6
CONTINUOUS
 10
-0.768177
 20
-0.820256
  0
VERTEX
  8
PLAN_1
 62
     2
  6
CONTINUOUS
 10
-0.765642
 20
-0.815689
  0
VERTEX
  8
PLAN_1
 62
     2
  6
CONTINUOUS
 10
-0.763610
 20
-0.814165
  0
VERTEX
  8
PLAN_1
 62
     2
  6
CONTINUOUS
 10
-0.762087
 20
-0.812134
  0
VERTEX
  8
PLAN_1
 62
     2
  6
CONTINUOUS
 10
-0.760055
 20
-0.810610
  0
VERTEX
  8
PLAN_1
 62
     2
  6
CONTINUOUS
 10
-0.757516
 20
-0.809087
  0
VERTEX
  8
PLAN_1
 62
     2
  6
CONTINUOUS
 10
-0.754976
 20
-0.808071
  0
VERTEX
  8
PLAN_1
 62
     2
  6
CONTINUOUS
 10
-0.752441
 20
-0.807563
  0
VERTEX
  8
PLAN_1
 62
     2
  6
CONTINUOUS
 10
-0.749394
 20
-0.807055
  0
VERTEX
  8
PLAN_1
 62
     2
  6
CONTINUOUS
 10
-0.746346
 20
-0.807055
  0
SEQEND
  8
0
  0
POLYLINE
  8
PLAN_1
 62
     2
  6
CONTINUOUS
 66
     1
 40
0.003000
 41
0.003000
  0
VERTEX
  8
PLAN_1
 62
     2
  6
CONTINUOUS
 10
-0.746346
 20
-0.856307
  0
VERTEX
  8
PLAN_1
 62
     2
  6
CONTINUOUS
 10
-0.743807
 20
-0.856307
  0
VERTEX
  8
PLAN_1
 62
     2
  6
CONTINUOUS
 10
-0.741780
 20
-0.855799
  0
VERTEX
  8
PLAN_1
 62
     2
  6
CONTINUOUS
 10
-0.739748
 20
-0.854783
  0
VERTEX
  8
PLAN_1
 62
     2
  6
CONTINUOUS
 10
-0.738224
 20
-0.854276
  0
VERTEX
  8
PLAN_1
 62
     2
  6
CONTINUOUS
 10
-0.735685
 20
-0.851736
  0
VERTEX
  8
PLAN_1
 62
     2
  6
CONTINUOUS
 10
-0.733654
 20
-0.848689
  0
VERTEX
  8
PLAN_1
 62
     2
  6
CONTINUOUS
 10
-0.732130
 20
-0.845134
  0
VERTEX
  8
PLAN_1
 62
     2
  6
CONTINUOUS
 10
-0.731114
 20
-0.842091
  0
VERTEX
  8
PLAN_1
 62
     2
  6
CONTINUOUS
 10
-0.730606
 20
-0.838535
  0
VERTEX
  8
PLAN_1
 62
     2
  6
CONTINUOUS
 10
-0.730606
 20
-0.835488
  0
VERTEX
  8
PLAN_1
 62
     2
  6
CONTINUOUS
 10
-0.730606
 20
-0.832441
  0
VERTEX
  8
PLAN_1
 62
     2
  6
CONTINUOUS
 10
-0.731114
 20
-0.829398
  0
VERTEX
  8
PLAN_1
 62
     2
  6
CONTINUOUS
 10
-0.732130
 20
-0.825843
  0
VERTEX
  8
PLAN_1
 62
     2
  6
CONTINUOUS
 10
-0.733654
 20
-0.822287
  0
VERTEX
  8
PLAN_1
 62
     2
  6
CONTINUOUS
 10
-0.735685
 20
-0.819240
  0
VERTEX
  8
PLAN_1
 62
     2
  6
CONTINUOUS
 10
-0.738224
 20
-0.816705
  0
VERTEX
  8
PLAN_1
 62
     2
  6
CONTINUOUS
 10
-0.739748
 20
-0.816197
  0
VERTEX
  8
PLAN_1
 62
     2
  6
CONTINUOUS
 10
-0.741780
 20
-0.815181
  0
VERTEX
  8
PLAN_1
 62
     2
  6
CONTINUOUS
 10
-0.743807
 20
-0.814673
  0
VERTEX
  8
PLAN_1
 62
     2
  6
CONTINUOUS
 10
-0.746346
 20
-0.814673
  0
VERTEX
  8
PLAN_1
 62
     2
  6
CONTINUOUS
 10
-0.748378
 20
-0.814673
  0
VERTEX
  8
PLAN_1
 62
     2
  6
CONTINUOUS
 10
-0.750917
 20
-0.815181
  0
VERTEX
  8
PLAN_1
 62
     2
  6
CONTINUOUS
 10
-0.752441
 20
-0.816197
  0
VERTEX
  8
PLAN_1
 62
     2
  6
CONTINUOUS
 10
-0.754472
 20
-0.816705
  0
VERTEX
  8
PLAN_1
 62
     2
  6
CONTINUOUS
 10
-0.757008
 20
-0.819240
  0
VERTEX
  8
PLAN_1
 62
     2
  6
CONTINUOUS
 10
-0.759039
 20
-0.822287
  0
VERTEX
  8
PLAN_1
 62
     2
  6
CONTINUOUS
 10
-0.760563
 20
-0.825843
  0
VERTEX
  8
PLAN_1
 62
     2
  6
CONTINUOUS
 10
-0.761579
 20
-0.829398
  0
VERTEX
  8
PLAN_1
 62
     2
  6
CONTINUOUS
 10
-0.762087
 20
-0.832441
  0
VERTEX
  8
PLAN_1
 62
     2
  6
CONTINUOUS
 10
-0.762087
 20
-0.835488
  0
VERTEX
  8
PLAN_1
 62
     2
  6
CONTINUOUS
 10
-0.762087
 20
-0.838535
  0
VERTEX
  8
PLAN_1
 62
     2
  6
CONTINUOUS
 10
-0.761579
 20
-0.842091
  0
VERTEX
  8
PLAN_1
 62
     2
  6
CONTINUOUS
 10
-0.760563
 20
-0.845134
  0
VERTEX
  8
PLAN_1
 62
     2
  6
CONTINUOUS
 10
-0.759039
 20
-0.848689
  0
VERTEX
  8
PLAN_1
 62
     2
  6
CONTINUOUS
 10
-0.757008
 20
-0.851736
  0
VERTEX
  8
PLAN_1
 62
     2
  6
CONTINUOUS
 10
-0.754472
 20
-0.854276
  0
VERTEX
  8
PLAN_1
 62
     2
  6
CONTINUOUS
 10
-0.752441
 20
-0.854783
  0
VERTEX
  8
PLAN_1
 62
     2
  6
CONTINUOUS
 10
-0.750917
 20
-0.855799
  0
VERTEX
  8
PLAN_1
 62
     2
  6
CONTINUOUS
 10
-0.748378
 20
-0.856307
  0
VERTEX
  8
PLAN_1
 62
     2
  6
CONTINUOUS
 10
-0.746346
 20
-0.856307
  0
SEQEND
  8
0
  0
POLYLINE
  8
PLAN_1
 62
     2
  6
CONTINUOUS
 66
     1
 40
0.003000
 41
0.003000
  0
VERTEX
  8
PLAN_1
 62
     2
  6
CONTINUOUS
 10
-0.675268
 20
-0.862906
  0
VERTEX
  8
PLAN_1
 62
     2
  6
CONTINUOUS
 10
-0.675268
 20
-0.854783
  0
VERTEX
  8
PLAN_1
 62
     2
  6
CONTINUOUS
 10
-0.676791
 20
-0.856815
  0
VERTEX
  8
PLAN_1
 62
     2
  6
CONTINUOUS
 10
-0.678311
 20
-0.858843
  0
VERTEX
  8
PLAN_1
 62
     2
  6
CONTINUOUS
 10
-0.680343
 20
-0.860366
  0
VERTEX
  8
PLAN_1
 62
     2
  6
CONTINUOUS
 10
-0.681866
 20
-0.861890
  0
VERTEX
  8
PLAN_1
 62
     2
  6
CONTINUOUS
 10
-0.684406
 20
-0.862906
  0
VERTEX
  8
PLAN_1
 62
     2
  6
CONTINUOUS
 10
-0.686945
 20
-0.863921
  0
VERTEX
  8
PLAN_1
 62
     2
  6
CONTINUOUS
 10
-0.689484
 20
-0.864429
  0
VERTEX
  8
PLAN_1
 62
     2
  6
CONTINUOUS
 10
-0.692528
 20
-0.864429
  0
VERTEX
  8
PLAN_1
 62
     2
  6
CONTINUOUS
 10
-0.695575
 20
-0.863921
  0
VERTEX
  8
PLAN_1
 62
     2
  6
CONTINUOUS
 10
-0.698622
 20
-0.863413
  0
VERTEX
  8
PLAN_1
 62
     2
  6
CONTINUOUS
 10
-0.701669
 20
-0.862398
  0
VERTEX
  8
PLAN_1
 62
     2
  6
CONTINUOUS
 10
-0.704205
 20
-0.860874
  0
VERTEX
  8
PLAN_1
 62
     2
  6
CONTINUOUS
 10
-0.706744
 20
-0.858335
  0
VERTEX
  8
PLAN_1
 62
     2
  6
CONTINUOUS
 10
-0.708776
 20
-0.855799
  0
VERTEX
  8
PLAN_1
 62
     2
  6
CONTINUOUS
 10
-0.709791
 20
-0.851736
  0
VERTEX
  8
PLAN_1
 62
     2
  6
CONTINUOUS
 10
-0.710299
 20
-0.847673
  0
VERTEX
  8
PLAN_1
 62
     2
  6
CONTINUOUS
 10
-0.710299
 20
-0.808579
  0
VERTEX
  8
PLAN_1
 62
     2
  6
CONTINUOUS
 10
-0.701161
 20
-0.808579
  0
VERTEX
  8
PLAN_1
 62
     2
  6
CONTINUOUS
 10
-0.701161
 20
-0.844630
  0
VERTEX
  8
PLAN_1
 62
     2
  6
CONTINUOUS
 10
-0.700654
 20
-0.847673
  0
VERTEX
  8
PLAN_1
 62
     2
  6
CONTINUOUS
 10
-0.700146
 20
-0.850213
  0
VERTEX
  8
PLAN_1
 62
     2
  6
CONTINUOUS
 10
-0.699130
 20
-0.852244
  0
VERTEX
  8
PLAN_1
 62
     2
  6
CONTINUOUS
 10
-0.698114
 20
-0.853768
  0
VERTEX
  8
PLAN_1
 62
     2
  6
CONTINUOUS
 10
-0.696591
 20
-0.854783
  0
VERTEX
  8
PLAN_1
 62
     2
  6
CONTINUOUS
 10
-0.694559
 20
-0.855799
  0
VERTEX
  8
PLAN_1
 62
     2
  6
CONTINUOUS
 10
-0.692528
 20
-0.856307
  0
VERTEX
  8
PLAN_1
 62
     2
  6
CONTINUOUS
 10
-0.690496
 20
-0.856307
  0
VERTEX
  8
PLAN_1
 62
     2
  6
CONTINUOUS
 10
-0.686437
 20
-0.855799
  0
VERTEX
  8
PLAN_1
 62
     2
  6
CONTINUOUS
 10
-0.683390
 20
-0.854783
  0
VERTEX
  8
PLAN_1
 62
     2
  6
CONTINUOUS
 10
-0.680850
 20
-0.852752
  0
VERTEX
  8
PLAN_1
 62
     2
  6
CONTINUOUS
 10
-0.678819
 20
-0.850213
  0
VERTEX
  8
PLAN_1
 62
     2
  6
CONTINUOUS
 10
-0.677295
 20
-0.847673
  0
VERTEX
  8
PLAN_1
 62
     2
  6
CONTINUOUS
 10
-0.676283
 20
-0.844630
  0
VERTEX
  8
PLAN_1
 62
     2
  6
CONTINUOUS
 10
-0.675776
 20
-0.841583
  0
VERTEX
  8
PLAN_1
 62
     2
  6
CONTINUOUS
 10
-0.675776
 20
-0.838535
  0
VERTEX
  8
PLAN_1
 62
     2
  6
CONTINUOUS
 10
-0.675776
 20
-0.808579
  0
VERTEX
  8
PLAN_1
 62
     2
  6
CONTINUOUS
 10
-0.666634
 20
-0.808579
  0
VERTEX
  8
PLAN_1
 62
     2
  6
CONTINUOUS
 10
-0.666634
 20
-0.862906
  0
VERTEX
  8
PLAN_1
 62
     2
  6
CONTINUOUS
 10
-0.675268
 20
-0.862906
  0
SEQEND
  8
0
  0
POLYLINE
  8
PLAN_1
 62
     2
  6
CONTINUOUS
 66
     1
 40
0.003000
 41
0.003000
  0
VERTEX
  8
PLAN_1
 62
     2
  6
CONTINUOUS
 10
-0.621957
 20
-0.823811
  0
VERTEX
  8
PLAN_1
 62
     2
  6
CONTINUOUS
 10
-0.621957
 20
-0.822287
  0
VERTEX
  8
PLAN_1
 62
     2
  6
CONTINUOUS
 10
-0.621957
 20
-0.820764
  0
VERTEX
  8
PLAN_1
 62
     2
  6
CONTINUOUS
 10
-0.622972
 20
-0.819240
  0
VERTEX
  8
PLAN_1
 62
     2
  6
CONTINUOUS
 10
-0.623988
 20
-0.818228
  0
VERTEX
  8
PLAN_1
 62
     2
  6
CONTINUOUS
 10
-0.625512
 20
-0.816705
  0
VERTEX
  8
PLAN_1
 62
     2
  6
CONTINUOUS
 10
-0.627539
 20
-0.815689
  0
VERTEX
  8
PLAN_1
 62
     2
  6
CONTINUOUS
 10
-0.630587
 20
-0.815181
  0
VERTEX
  8
PLAN_1
 62
     2
  6
CONTINUOUS
 10
-0.634650
 20
-0.814673
  0
VERTEX
  8
PLAN_1
 62
     2
  6
CONTINUOUS
 10
-0.635665
 20
-0.814673
  0
VERTEX
  8
PLAN_1
 62
     2
  6
CONTINUOUS
 10
-0.637697
 20
-0.815181
  0
VERTEX
  8
PLAN_1
 62
     2
  6
CONTINUOUS
 10
-0.639217
 20
-0.815181
  0
VERTEX
  8
PLAN_1
 62
     2
  6
CONTINUOUS
 10
-0.641248
 20
-0.816197
  0
VERTEX
  8
PLAN_1
 62
     2
  6
CONTINUOUS
 10
-0.642772
 20
-0.817213
  0
VERTEX
  8
PLAN_1
 62
     2
  6
CONTINUOUS
 10
-0.644295
 20
-0.818228
  0
VERTEX
  8
PLAN_1
 62
     2
  6
CONTINUOUS
 10
-0.645311
 20
-0.820256
  0
VERTEX
  8
PLAN_1
 62
     2
  6
CONTINUOUS
 10
-0.645311
 20
-0.822287
  0
VERTEX
  8
PLAN_1
 62
     2
  6
CONTINUOUS
 10
-0.645311
 20
-0.823811
  0
VERTEX
  8
PLAN_1
 62
     2
  6
CONTINUOUS
 10
-0.644803
 20
-0.825335
  0
VERTEX
  8
PLAN_1
 62
     2
  6
CONTINUOUS
 10
-0.644295
 20
-0.826350
  0
VERTEX
  8
PLAN_1
 62
     2
  6
CONTINUOUS
 10
-0.643280
 20
-0.826858
  0
VERTEX
  8
PLAN_1
 62
     2
  6
CONTINUOUS
 10
-0.641756
 20
-0.827874
  0
VERTEX
  8
PLAN_1
 62
     2
  6
CONTINUOUS
 10
-0.640232
 20
-0.828382
  0
VERTEX
  8
PLAN_1
 62
     2
  6
CONTINUOUS
 10
-0.638205
 20
-0.828890
  0
VERTEX
  8
PLAN_1
 62
     2
  6
CONTINUOUS
 10
-0.635665
 20
-0.829906
  0
VERTEX
  8
PLAN_1
 62
     2
  6
CONTINUOUS
 10
-0.626524
 20
-0.831933
  0
VERTEX
  8
PLAN_1
 62
     2
  6
CONTINUOUS
 10
-0.622465
 20
-0.832949
  0
VERTEX
  8
PLAN_1
 62
     2
  6
CONTINUOUS
 10
-0.619417
 20
-0.834472
  0
VERTEX
  8
PLAN_1
 62
     2
  6
CONTINUOUS
 10
-0.616370
 20
-0.835996
  0
VERTEX
  8
PLAN_1
 62
     2
  6
CONTINUOUS
 10
-0.614339
 20
-0.837520
  0
VERTEX
  8
PLAN_1
 62
     2
  6
CONTINUOUS
 10
-0.612815
 20
-0.839043
  0
VERTEX
  8
PLAN_1
 62
     2
  6
CONTINUOUS
 10
-0.611803
 20
-0.841583
  0
VERTEX
  8
PLAN_1
 62
     2
  6
CONTINUOUS
 10
-0.611295
 20
-0.843614
  0
VERTEX
  8
PLAN_1
 62
     2
  6
CONTINUOUS
 10
-0.611295
 20
-0.846150
  0
VERTEX
  8
PLAN_1
 62
     2
  6
CONTINUOUS
 10
-0.611803
 20
-0.850213
  0
VERTEX
  8
PLAN_1
 62
     2
  6
CONTINUOUS
 10
-0.612815
 20
-0.853768
  0
VERTEX
  8
PLAN_1
 62
     2
  6
CONTINUOUS
 10
-0.614846
 20
-0.856815
  0
VERTEX
  8
PLAN_1
 62
     2
  6
CONTINUOUS
 10
-0.617386
 20
-0.859350
  0
VERTEX
  8
PLAN_1
 62
     2
  6
CONTINUOUS
 10
-0.620433
 20
-0.861382
  0
VERTEX
  8
PLAN_1
 62
     2
  6
CONTINUOUS
 10
-0.623988
 20
-0.862906
  0
VERTEX
  8
PLAN_1
 62
     2
  6
CONTINUOUS
 10
-0.628047
 20
-0.863921
  0
VERTEX
  8
PLAN_1
 62
     2
  6
CONTINUOUS
 10
-0.632618
 20
-0.864429
  0
VERTEX
  8
PLAN_1
 62
     2
  6
CONTINUOUS
 10
-0.636681
 20
-0.864429
  0
VERTEX
  8
PLAN_1
 62
     2
  6
CONTINUOUS
 10
-0.639724
 20
-0.863921
  0
VERTEX
  8
PLAN_1
 62
     2
  6
CONTINUOUS
 10
-0.642772
 20
-0.862906
  0
VERTEX
  8
PLAN_1
 62
     2
  6
CONTINUOUS
 10
-0.645311
 20
-0.862398
  0
VERTEX
  8
PLAN_1
 62
     2
  6
CONTINUOUS
 10
-0.647343
 20
-0.861382
  0
VERTEX
  8
PLAN_1
 62
     2
  6
CONTINUOUS
 10
-0.649374
 20
-0.859858
  0
VERTEX
  8
PLAN_1
 62
     2
  6
CONTINUOUS
 10
-0.650898
 20
-0.858843
  0
VERTEX
  8
PLAN_1
 62
     2
  6
CONTINUOUS
 10
-0.652417
 20
-0.857323
  0
VERTEX
  8
PLAN_1
 62
     2
  6
CONTINUOUS
 10
-0.654449
 20
-0.854276
  0
VERTEX
  8
PLAN_1
 62
     2
  6
CONTINUOUS
 10
-0.655465
 20
-0.851228
  0
VERTEX
  8
PLAN_1
 62
     2
  6
CONTINUOUS
 10
-0.655972
 20
-0.848181
  0
VERTEX
  8
PLAN_1
 62
     2
  6
CONTINUOUS
 10
-0.655972
 20
-0.845134
  0
VERTEX
  8
PLAN_1
 62
     2
  6
CONTINUOUS
 10
-0.647343
 20
-0.845134
  0
VERTEX
  8
PLAN_1
 62
     2
  6
CONTINUOUS
 10
-0.646835
 20
-0.847165
  0
VERTEX
  8
PLAN_1
 62
     2
  6
CONTINUOUS
 10
-0.646835
 20
-0.848689
  0
VERTEX
  8
PLAN_1
 62
     2
  6
CONTINUOUS
 10
-0.645819
 20
-0.850720
  0
VERTEX
  8
PLAN_1
 62
     2
  6
CONTINUOUS
 10
-0.644803
 20
-0.852244
  0
VERTEX
  8
PLAN_1
 62
     2
  6
CONTINUOUS
 10
-0.642772
 20
-0.854276
  0
VERTEX
  8
PLAN_1
 62
     2
  6
CONTINUOUS
 10
-0.640232
 20
-0.855291
  0
VERTEX
  8
PLAN_1
 62
     2
  6
CONTINUOUS
 10
-0.637189
 20
-0.856307
  0
VERTEX
  8
PLAN_1
 62
     2
  6
CONTINUOUS
 10
-0.632618
 20
-0.856307
  0
VERTEX
  8
PLAN_1
 62
     2
  6
CONTINUOUS
 10
-0.630587
 20
-0.856307
  0
VERTEX
  8
PLAN_1
 62
     2
  6
CONTINUOUS
 10
-0.628047
 20
-0.855799
  0
VERTEX
  8
PLAN_1
 62
     2
  6
CONTINUOUS
 10
-0.626016
 20
-0.855291
  0
VERTEX
  8
PLAN_1
 62
     2
  6
CONTINUOUS
 10
-0.623988
 20
-0.854276
  0
VERTEX
  8
PLAN_1
 62
     2
  6
CONTINUOUS
 10
-0.622465
 20
-0.853260
  0
VERTEX
  8
PLAN_1
 62
     2
  6
CONTINUOUS
 10
-0.621449
 20
-0.851736
  0
VERTEX
  8
PLAN_1
 62
     2
  6
CONTINUOUS
 10
-0.620433
 20
-0.849705
  0
VERTEX
  8
PLAN_1
 62
     2
  6
CONTINUOUS
 10
-0.620433
 20
-0.847673
  0
VERTEX
  8
PLAN_1
 62
     2
  6
CONTINUOUS
 10
-0.620433
 20
-0.846150
  0
VERTEX
  8
PLAN_1
 62
     2
  6
CONTINUOUS
 10
-0.620941
 20
-0.845134
  0
VERTEX
  8
PLAN_1
 62
     2
  6
CONTINUOUS
 10
-0.621449
 20
-0.844122
  0
VERTEX
  8
PLAN_1
 62
     2
  6
CONTINUOUS
 10
-0.622972
 20
-0.843106
  0
VERTEX
  8
PLAN_1
 62
     2
  6
CONTINUOUS
 10
-0.624496
 20
-0.842091
  0
VERTEX
  8
PLAN_1
 62
     2
  6
CONTINUOUS
 10
-0.626016
 20
-0.841583
  0
VERTEX
  8
PLAN_1
 62
     2
  6
CONTINUOUS
 10
-0.628555
 20
-0.840567
  0
VERTEX
  8
PLAN_1
 62
     2
  6
CONTINUOUS
 10
-0.631094
 20
-0.840059
  0
VERTEX
  8
PLAN_1
 62
     2
  6
CONTINUOUS
 10
-0.641756
 20
-0.837520
  0
VERTEX
  8
PLAN_1
 62
     2
  6
CONTINUOUS
 10
-0.644295
 20
-0.836504
  0
VERTEX
  8
PLAN_1
 62
     2
  6
CONTINUOUS
 10
-0.646835
 20
-0.835488
  0
VERTEX
  8
PLAN_1
 62
     2
  6
CONTINUOUS
 10
-0.648866
 20
-0.834472
  0
VERTEX
  8
PLAN_1
 62
     2
  6
CONTINUOUS
 10
-0.650898
 20
-0.832949
  0
VERTEX
  8
PLAN_1
 62
     2
  6
CONTINUOUS
 10
-0.652417
 20
-0.830921
  0
VERTEX
  8
PLAN_1
 62
     2
  6
CONTINUOUS
 10
-0.653433
 20
-0.828890
  0
VERTEX
  8
PLAN_1
 62
     2
  6
CONTINUOUS
 10
-0.653941
 20
-0.826858
  0
VERTEX
  8
PLAN_1
 62
     2
  6
CONTINUOUS
 10
-0.654449
 20
-0.824319
  0
VERTEX
  8
PLAN_1
 62
     2
  6
CONTINUOUS
 10
-0.653941
 20
-0.819748
  0
VERTEX
  8
PLAN_1
 62
     2
  6
CONTINUOUS
 10
-0.652417
 20
-0.816197
  0
VERTEX
  8
PLAN_1
 62
     2
  6
CONTINUOUS
 10
-0.650390
 20
-0.813657
  0
VERTEX
  8
PLAN_1
 62
     2
  6
CONTINUOUS
 10
-0.647850
 20
-0.811118
  0
VERTEX
  8
PLAN_1
 62
     2
  6
CONTINUOUS
 10
-0.644803
 20
-0.809087
  0
VERTEX
  8
PLAN_1
 62
     2
  6
CONTINUOUS
 10
-0.641248
 20
-0.808071
  0
VERTEX
  8
PLAN_1
 62
     2
  6
CONTINUOUS
 10
-0.637697
 20
-0.807055
  0
VERTEX
  8
PLAN_1
 62
     2
  6
CONTINUOUS
 10
-0.633634
 20
-0.807055
  0
VERTEX
  8
PLAN_1
 62
     2
  6
CONTINUOUS
 10
-0.630079
 20
-0.807055
  0
VERTEX
  8
PLAN_1
 62
     2
  6
CONTINUOUS
 10
-0.627031
 20
-0.807563
  0
VERTEX
  8
PLAN_1
 62
     2
  6
CONTINUOUS
 10
-0.624496
 20
-0.808071
  0
VERTEX
  8
PLAN_1
 62
     2
  6
CONTINUOUS
 10
-0.622465
 20
-0.809087
  0
VERTEX
  8
PLAN_1
 62
     2
  6
CONTINUOUS
 10
-0.620433
 20
-0.810102
  0
VERTEX
  8
PLAN_1
 62
     2
  6
CONTINUOUS
 10
-0.618402
 20
-0.811626
  0
VERTEX
  8
PLAN_1
 62
     2
  6
CONTINUOUS
 10
-0.617386
 20
-0.812642
  0
VERTEX
  8
PLAN_1
 62
     2
  6
CONTINUOUS
 10
-0.615862
 20
-0.814165
  0
VERTEX
  8
PLAN_1
 62
     2
  6
CONTINUOUS
 10
-0.614339
 20
-0.817213
  0
VERTEX
  8
PLAN_1
 62
     2
  6
CONTINUOUS
 10
-0.613323
 20
-0.820256
  0
VERTEX
  8
PLAN_1
 62
     2
  6
CONTINUOUS
 10
-0.612815
 20
-0.822287
  0
VERTEX
  8
PLAN_1
 62
     2
  6
CONTINUOUS
 10
-0.612815
 20
-0.823811
  0
VERTEX
  8
PLAN_1
 62
     2
  6
CONTINUOUS
 10
-0.621957
 20
-0.823811
  0
SEQEND
  8
0
  0
POLYLINE
  8
PLAN_1
 62
     2
  6
CONTINUOUS
 66
     1
 40
0.003000
 41
0.003000
  0
VERTEX
  8
PLAN_1
 62
     2
  6
CONTINUOUS
 10
-0.560524
 20
-0.816197
  0
VERTEX
  8
PLAN_1
 62
     2
  6
CONTINUOUS
 10
-0.560524
 20
-0.851228
  0
VERTEX
  8
PLAN_1
 62
     2
  6
CONTINUOUS
 10
-0.560016
 20
-0.852752
  0
VERTEX
  8
PLAN_1
 62
     2
  6
CONTINUOUS
 10
-0.560016
 20
-0.853768
  0
VERTEX
  8
PLAN_1
 62
     2
  6
CONTINUOUS
 10
-0.559000
 20
-0.854783
  0
VERTEX
  8
PLAN_1
 62
     2
  6
CONTINUOUS
 10
-0.558492
 20
-0.855291
  0
VERTEX
  8
PLAN_1
 62
     2
  6
CONTINUOUS
 10
-0.557476
 20
-0.855291
  0
VERTEX
  8
PLAN_1
 62
     2
  6
CONTINUOUS
 10
-0.556461
 20
-0.855291
  0
VERTEX
  8
PLAN_1
 62
     2
  6
CONTINUOUS
 10
-0.555445
 20
-0.855799
  0
VERTEX
  8
PLAN_1
 62
     2
  6
CONTINUOUS
 10
-0.554937
 20
-0.855799
  0
VERTEX
  8
PLAN_1
 62
     2
  6
CONTINUOUS
 10
-0.551890
 20
-0.855799
  0
VERTEX
  8
PLAN_1
 62
     2
  6
CONTINUOUS
 10
-0.551890
 20
-0.862906
  0
VERTEX
  8
PLAN_1
 62
     2
  6
CONTINUOUS
 10
-0.552906
 20
-0.862906
  0
VERTEX
  8
PLAN_1
 62
     2
  6
CONTINUOUS
 10
-0.553921
 20
-0.862906
  0
VERTEX
  8
PLAN_1
 62
     2
  6
CONTINUOUS
 10
-0.554937
 20
-0.862906
  0
VERTEX
  8
PLAN_1
 62
     2
  6
CONTINUOUS
 10
-0.555953
 20
-0.863413
  0
VERTEX
  8
PLAN_1
 62
     2
  6
CONTINUOUS
 10
-0.556969
 20
-0.863413
  0
VERTEX
  8
PLAN_1
 62
     2
  6
CONTINUOUS
 10
-0.557476
 20
-0.863413
  0
VERTEX
  8
PLAN_1
 62
     2
  6
CONTINUOUS
 10
-0.557984
 20
-0.863413
  0
VERTEX
  8
PLAN_1
 62
     2
  6
CONTINUOUS
 10
-0.558492
 20
-0.863413
  0
VERTEX
  8
PLAN_1
 62
     2
  6
CONTINUOUS
 10
-0.561535
 20
-0.863413
  0
VERTEX
  8
PLAN_1
 62
     2
  6
CONTINUOUS
 10
-0.564075
 20
-0.862398
  0
VERTEX
  8
PLAN_1
 62
     2
  6
CONTINUOUS
 10
-0.566106
 20
-0.861382
  0
VERTEX
  8
PLAN_1
 62
     2
  6
CONTINUOUS
 10
-0.567630
 20
-0.860366
  0
VERTEX
  8
PLAN_1
 62
     2
  6
CONTINUOUS
 10
-0.568646
 20
-0.858335
  0
VERTEX
  8
PLAN_1
 62
     2
  6
CONTINUOUS
 10
-0.569154
 20
-0.856307
  0
VERTEX
  8
PLAN_1
 62
     2
  6
CONTINUOUS
 10
-0.569661
 20
-0.854276
  0
VERTEX
  8
PLAN_1
 62
     2
  6
CONTINUOUS
 10
-0.569661
 20
-0.851736
  0
VERTEX
  8
PLAN_1
 62
     2
  6
CONTINUOUS
 10
-0.569661
 20
-0.816197
  0
VERTEX
  8
PLAN_1
 62
     2
  6
CONTINUOUS
 10
-0.576768
 20
-0.816197
  0
VERTEX
  8
PLAN_1
 62
     2
  6
CONTINUOUS
 10
-0.576768
 20
-0.808579
  0
VERTEX
  8
PLAN_1
 62
     2
  6
CONTINUOUS
 10
-0.569661
 20
-0.808579
  0
VERTEX
  8
PLAN_1
 62
     2
  6
CONTINUOUS
 10
-0.569661
 20
-0.793346
  0
VERTEX
  8
PLAN_1
 62
     2
  6
CONTINUOUS
 10
-0.560524
 20
-0.793346
  0
VERTEX
  8
PLAN_1
 62
     2
  6
CONTINUOUS
 10
-0.560524
 20
-0.808579
  0
VERTEX
  8
PLAN_1
 62
     2
  6
CONTINUOUS
 10
-0.551890
 20
-0.808579
  0
VERTEX
  8
PLAN_1
 62
     2
  6
CONTINUOUS
 10
-0.551890
 20
-0.816197
  0
VERTEX
  8
PLAN_1
 62
     2
  6
CONTINUOUS
 10
-0.560524
 20
-0.816197
  0
SEQEND
  8
0
  0
POLYLINE
  8
PLAN_1
 62
     2
  6
CONTINUOUS
 66
     1
 40
0.003000
 41
0.003000
  0
VERTEX
  8
PLAN_1
 62
     2
  6
CONTINUOUS
 10
-0.543260
 20
-0.824827
  0
VERTEX
  8
PLAN_1
 62
     2
  6
CONTINUOUS
 10
-0.542244
 20
-0.820256
  0
VERTEX
  8
PLAN_1
 62
     2
  6
CONTINUOUS
 10
-0.541228
 20
-0.816705
  0
VERTEX
  8
PLAN_1
 62
     2
  6
CONTINUOUS
 10
-0.539197
 20
-0.813657
  0
VERTEX
  8
PLAN_1
 62
     2
  6
CONTINUOUS
 10
-0.536657
 20
-0.811118
  0
VERTEX
  8
PLAN_1
 62
     2
  6
CONTINUOUS
 10
-0.533614
 20
-0.809087
  0
VERTEX
  8
PLAN_1
 62
     2
  6
CONTINUOUS
 10
-0.529551
 20
-0.807563
  0
VERTEX
  8
PLAN_1
 62
     2
  6
CONTINUOUS
 10
-0.525488
 20
-0.807055
  0
VERTEX
  8
PLAN_1
 62
     2
  6
CONTINUOUS
 10
-0.520413
 20
-0.807055
  0
VERTEX
  8
PLAN_1
 62
     2
  6
CONTINUOUS
 10
-0.518382
 20
-0.807055
  0
VERTEX
  8
PLAN_1
 62
     2
  6
CONTINUOUS
 10
-0.515335
 20
-0.807055
  0
VERTEX
  8
PLAN_1
 62
     2
  6
CONTINUOUS
 10
-0.512287
 20
-0.808071
  0
VERTEX
  8
PLAN_1
 62
     2
  6
CONTINUOUS
 10
-0.508736
 20
-0.809087
  0
VERTEX
  8
PLAN_1
 62
     2
  6
CONTINUOUS
 10
-0.505689
 20
-0.811118
  0
VERTEX
  8
PLAN_1
 62
     2
  6
CONTINUOUS
 10
-0.502642
 20
-0.813657
  0
VERTEX
  8
PLAN_1
 62
     2
  6
CONTINUOUS
 10
-0.501626
 20
-0.815181
  0
VERTEX
  8
PLAN_1
 62
     2
  6
CONTINUOUS
 10
-0.501118
 20
-0.817213
  0
VERTEX
  8
PLAN_1
 62
     2
  6
CONTINUOUS
 10
-0.500610
 20
-0.819748
  0
VERTEX
  8
PLAN_1
 62
     2
  6
CONTINUOUS
 10
-0.500102
 20
-0.821780
  0
VERTEX
  8
PLAN_1
 62
     2
  6
CONTINUOUS
 10
-0.500102
 20
-0.853260
  0
VERTEX
  8
PLAN_1
 62
     2
  6
CONTINUOUS
 10
-0.500102
 20
-0.854276
  0
VERTEX
  8
PLAN_1
 62
     2
  6
CONTINUOUS
 10
-0.500102
 20
-0.854783
  0
VERTEX
  8
PLAN_1
 62
     2
  6
CONTINUOUS
 10
-0.500102
 20
-0.855291
  0
VERTEX
  8
PLAN_1
 62
     2
  6
CONTINUOUS
 10
-0.499594
 20
-0.855799
  0
VERTEX
  8
PLAN_1
 62
     2
  6
CONTINUOUS
 10
-0.499087
 20
-0.856307
  0
VERTEX
  8
PLAN_1
 62
     2
  6
CONTINUOUS
 10
-0.498579
 20
-0.856307
  0
VERTEX
  8
PLAN_1
 62
     2
  6
CONTINUOUS
 10
-0.498071
 20
-0.856307
  0
VERTEX
  8
PLAN_1
 62
     2
  6
CONTINUOUS
 10
-0.497563
 20
-0.856307
  0
VERTEX
  8
PLAN_1
 62
     2
  6
CONTINUOUS
 10
-0.497055
 20
-0.856307
  0
VERTEX
  8
PLAN_1
 62
     2
  6
CONTINUOUS
 10
-0.496551
 20
-0.856307
  0
VERTEX
  8
PLAN_1
 62
     2
  6
CONTINUOUS
 10
-0.496043
 20
-0.856307
  0
VERTEX
  8
PLAN_1
 62
     2
  6
CONTINUOUS
 10
-0.495535
 20
-0.856307
  0
VERTEX
  8
PLAN_1
 62
     2
  6
CONTINUOUS
 10
-0.495028
 20
-0.856307
  0
VERTEX
  8
PLAN_1
 62
     2
  6
CONTINUOUS
 10
-0.494520
 20
-0.856307
  0
VERTEX
  8
PLAN_1
 62
     2
  6
CONTINUOUS
 10
-0.494520
 20
-0.862906
  0
VERTEX
  8
PLAN_1
 62
     2
  6
CONTINUOUS
 10
-0.495028
 20
-0.862906
  0
VERTEX
  8
PLAN_1
 62
     2
  6
CONTINUOUS
 10
-0.495535
 20
-0.862906
  0
VERTEX
  8
PLAN_1
 62
     2
  6
CONTINUOUS
 10
-0.496043
 20
-0.863413
  0
VERTEX
  8
PLAN_1
 62
     2
  6
CONTINUOUS
 10
-0.496551
 20
-0.863413
  0
VERTEX
  8
PLAN_1
 62
     2
  6
CONTINUOUS
 10
-0.497055
 20
-0.863413
  0
VERTEX
  8
PLAN_1
 62
     2
  6
CONTINUOUS
 10
-0.498071
 20
-0.863921
  0
VERTEX
  8
PLAN_1
 62
     2
  6
CONTINUOUS
 10
-0.498579
 20
-0.863921
  0
VERTEX
  8
PLAN_1
 62
     2
  6
CONTINUOUS
 10
-0.499087
 20
-0.863921
  0
VERTEX
  8
PLAN_1
 62
     2
  6
CONTINUOUS
 10
-0.502134
 20
-0.863413
  0
VERTEX
  8
PLAN_1
 62
     2
  6
CONTINUOUS
 10
-0.504165
 20
-0.862906
  0
VERTEX
  8
PLAN_1
 62
     2
  6
CONTINUOUS
 10
-0.505689
 20
-0.862398
  0
VERTEX
  8
PLAN_1
 62
     2
  6
CONTINUOUS
 10
-0.507213
 20
-0.861382
  0
VERTEX
  8
PLAN_1
 62
     2
  6
CONTINUOUS
 10
-0.507720
 20
-0.859858
  0
VERTEX
  8
PLAN_1
 62
     2
  6
CONTINUOUS
 10
-0.508736
 20
-0.858335
  0
VERTEX
  8
PLAN_1
 62
     2
  6
CONTINUOUS
 10
-0.508736
 20
-0.856815
  0
VERTEX
  8
PLAN_1
 62
     2
  6
CONTINUOUS
 10
-0.509244
 20
-0.855291
  0
VERTEX
  8
PLAN_1
 62
     2
  6
CONTINUOUS
 10
-0.510256
 20
-0.856815
  0
VERTEX
  8
PLAN_1
 62
     2
  6
CONTINUOUS
 10
-0.512287
 20
-0.858335
  0
VERTEX
  8
PLAN_1
 62
     2
  6
CONTINUOUS
 10
-0.513811
 20
-0.859858
  0
VERTEX
  8
PLAN_1
 62
     2
  6
CONTINUOUS
 10
-0.516350
 20
-0.861382
  0
VERTEX
  8
PLAN_1
 62
     2
  6
CONTINUOUS
 10
-0.518890
 20
-0.862398
  0
VERTEX
  8
PLAN_1
 62
     2
  6
CONTINUOUS
 10
-0.521429
 20
-0.863413
  0
VERTEX
  8
PLAN_1
 62
     2
  6
CONTINUOUS
 10
-0.524980
 20
-0.863921
  0
VERTEX
  8
PLAN_1
 62
     2
  6
CONTINUOUS
 10
-0.528535
 20
-0.864429
  0
VERTEX
  8
PLAN_1
 62
     2
  6
CONTINUOUS
 10
-0.532091
 20
-0.863921
  0
VERTEX
  8
PLAN_1
 62
     2
  6
CONTINUOUS
 10
-0.535642
 20
-0.863413
  0
VERTEX
  8
PLAN_1
 62
     2
  6
CONTINUOUS
 10
-0.538689
 20
-0.861890
  0
VERTEX
  8
PLAN_1
 62
     2
  6
CONTINUOUS
 10
-0.540720
 20
-0.859858
  0
VERTEX
  8
PLAN_1
 62
     2
  6
CONTINUOUS
 10
-0.542752
 20
-0.857827
  0
VERTEX
  8
PLAN_1
 62
     2
  6
CONTINUOUS
 10
-0.544276
 20
-0.854783
  0
VERTEX
  8
PLAN_1
 62
     2
  6
CONTINUOUS
 10
-0.545291
 20
-0.852244
  0
VERTEX
  8
PLAN_1
 62
     2
  6
CONTINUOUS
 10
-0.545799
 20
-0.848689
  0
VERTEX
  8
PLAN_1
 62
     2
  6
CONTINUOUS
 10
-0.545799
 20
-0.846657
  0
VERTEX
  8
PLAN_1
 62
     2
  6
CONTINUOUS
 10
-0.545291
 20
-0.844122
  0
VERTEX
  8
PLAN_1
 62
     2
  6
CONTINUOUS
 10
-0.544276
 20
-0.841583
  0
VERTEX
  8
PLAN_1
 62
     2
  6
CONTINUOUS
 10
-0.543260
 20
-0.839043
  0
VERTEX
  8
PLAN_1
 62
     2
  6
CONTINUOUS
 10
-0.541228
 20
-0.836504
  0
VERTEX
  8
PLAN_1
 62
     2
  6
CONTINUOUS
 10
-0.538181
 20
-0.834472
  0
VERTEX
  8
PLAN_1
 62
     2
  6
CONTINUOUS
 10
-0.534122
 20
-0.832441
  0
VERTEX
  8
PLAN_1
 62
     2
  6
CONTINUOUS
 10
-0.529043
 20
-0.831429
  0
VERTEX
  8
PLAN_1
 62
     2
  6
CONTINUOUS
 10
-0.514319
 20
-0.829906
  0
VERTEX
  8
PLAN_1
 62
     2
  6
CONTINUOUS
 10
-0.513303
 20
-0.829398
  0
VERTEX
  8
PLAN_1
 62
     2
  6
CONTINUOUS
 10
-0.512287
 20
-0.829398
  0
VERTEX
  8
PLAN_1
 62
     2
  6
CONTINUOUS
 10
-0.511780
 20
-0.828890
  0
VERTEX
  8
PLAN_1
 62
     2
  6
CONTINUOUS
 10
-0.510764
 20
-0.828382
  0
VERTEX
  8
PLAN_1
 62
     2
  6
CONTINUOUS
 10
-0.510256
 20
-0.827366
  0
VERTEX
  8
PLAN_1
 62
     2
  6
CONTINUOUS
 10
-0.509748
 20
-0.826350
  0
VERTEX
  8
PLAN_1
 62
     2
  6
CONTINUOUS
 10
-0.509244
 20
-0.824827
  0
VERTEX
  8
PLAN_1
 62
     2
  6
CONTINUOUS
 10
-0.509244
 20
-0.823303
  0
VERTEX
  8
PLAN_1
 62
     2
  6
CONTINUOUS
 10
-0.509748
 20
-0.821272
  0
VERTEX
  8
PLAN_1
 62
     2
  6
CONTINUOUS
 10
-0.510256
 20
-0.819240
  0
VERTEX
  8
PLAN_1
 62
     2
  6
CONTINUOUS
 10
-0.511272
 20
-0.817720
  0
VERTEX
  8
PLAN_1
 62
     2
  6
CONTINUOUS
 10
-0.512287
 20
-0.816705
  0
VERTEX
  8
PLAN_1
 62
     2
  6
CONTINUOUS
 10
-0.514319
 20
-0.815689
  0
VERTEX
  8
PLAN_1
 62
     2
  6
CONTINUOUS
 10
-0.516350
 20
-0.815181
  0
VERTEX
  8
PLAN_1
 62
     2
  6
CONTINUOUS
 10
-0.518890
 20
-0.814673
  0
VERTEX
  8
PLAN_1
 62
     2
  6
CONTINUOUS
 10
-0.521937
 20
-0.814165
  0
VERTEX
  8
PLAN_1
 62
     2
  6
CONTINUOUS
 10
-0.525488
 20
-0.814673
  0
VERTEX
  8
PLAN_1
 62
     2
  6
CONTINUOUS
 10
-0.528535
 20
-0.815689
  0
VERTEX
  8
PLAN_1
 62
     2
  6
CONTINUOUS
 10
-0.530567
 20
-0.816705
  0
VERTEX
  8
PLAN_1
 62
     2
  6
CONTINUOUS
 10
-0.532091
 20
-0.818228
  0
VERTEX
  8
PLAN_1
 62
     2
  6
CONTINUOUS
 10
-0.533106
 20
-0.819748
  0
VERTEX
  8
PLAN_1
 62
     2
  6
CONTINUOUS
 10
-0.533614
 20
-0.821272
  0
VERTEX
  8
PLAN_1
 62
     2
  6
CONTINUOUS
 10
-0.534122
 20
-0.823303
  0
VERTEX
  8
PLAN_1
 62
     2
  6
CONTINUOUS
 10
-0.534630
 20
-0.824827
  0
VERTEX
  8
PLAN_1
 62
     2
  6
CONTINUOUS
 10
-0.543260
 20
-0.824827
  0
SEQEND
  8
0
  0
POLYLINE
  8
PLAN_1
 62
     2
  6
CONTINUOUS
 66
     1
 40
0.003000
 41
0.003000
  0
VERTEX
  8
PLAN_1
 62
     2
  6
CONTINUOUS
 10
-0.509748
 20
-0.834980
  0
VERTEX
  8
PLAN_1
 62
     2
  6
CONTINUOUS
 10
-0.510256
 20
-0.835488
  0
VERTEX
  8
PLAN_1
 62
     2
  6
CONTINUOUS
 10
-0.510764
 20
-0.835996
  0
VERTEX
  8
PLAN_1
 62
     2
  6
CONTINUOUS
 10
-0.511780
 20
-0.835996
  0
VERTEX
  8
PLAN_1
 62
     2
  6
CONTINUOUS
 10
-0.513303
 20
-0.836504
  0
VERTEX
  8
PLAN_1
 62
     2
  6
CONTINUOUS
 10
-0.515335
 20
-0.837012
  0
VERTEX
  8
PLAN_1
 62
     2
  6
CONTINUOUS
 10
-0.517874
 20
-0.837520
  0
VERTEX
  8
PLAN_1
 62
     2
  6
CONTINUOUS
 10
-0.520921
 20
-0.838028
  0
VERTEX
  8
PLAN_1
 62
     2
  6
CONTINUOUS
 10
-0.524472
 20
-0.838535
  0
VERTEX
  8
PLAN_1
 62
     2
  6
CONTINUOUS
 10
-0.526504
 20
-0.838535
  0
VERTEX
  8
PLAN_1
 62
     2
  6
CONTINUOUS
 10
-0.528535
 20
-0.839043
  0
VERTEX
  8
PLAN_1
 62
     2
  6
CONTINUOUS
 10
-0.530059
 20
-0.839551
  0
VERTEX
  8
PLAN_1
 62
     2
  6
CONTINUOUS
 10
-0.532091
 20
-0.840567
  0
VERTEX
  8
PLAN_1
 62
     2
  6
CONTINUOUS
 10
-0.533614
 20
-0.841583
  0
VERTEX
  8
PLAN_1
 62
     2
  6
CONTINUOUS
 10
-0.535138
 20
-0.843106
  0
VERTEX
  8
PLAN_1
 62
     2
  6
CONTINUOUS
 10
-0.536150
 20
-0.845134
  0
VERTEX
  8
PLAN_1
 62
     2
  6
CONTINUOUS
 10
-0.536150
 20
-0.847165
  0
VERTEX
  8
PLAN_1
 62
     2
  6
CONTINUOUS
 10
-0.536150
 20
-0.849197
  0
VERTEX
  8
PLAN_1
 62
     2
  6
CONTINUOUS
 10
-0.535642
 20
-0.851228
  0
VERTEX
  8
PLAN_1
 62
     2
  6
CONTINUOUS
 10
-0.535138
 20
-0.852752
  0
VERTEX
  8
PLAN_1
 62
     2
  6
CONTINUOUS
 10
-0.534122
 20
-0.854276
  0
VERTEX
  8
PLAN_1
 62
     2
  6
CONTINUOUS
 10
-0.532598
 20
-0.855291
  0
VERTEX
  8
PLAN_1
 62
     2
  6
CONTINUOUS
 10
-0.530567
 20
-0.856307
  0
VERTEX
  8
PLAN_1
 62
     2
  6
CONTINUOUS
 10
-0.528535
 20
-0.856815
  0
VERTEX
  8
PLAN_1
 62
     2
  6
CONTINUOUS
 10
-0.526504
 20
-0.856815
  0
VERTEX
  8
PLAN_1
 62
     2
  6
CONTINUOUS
 10
-0.522949
 20
-0.856307
  0
VERTEX
  8
PLAN_1
 62
     2
  6
CONTINUOUS
 10
-0.519906
 20
-0.855799
  0
VERTEX
  8
PLAN_1
 62
     2
  6
CONTINUOUS
 10
-0.517366
 20
-0.854783
  0
VERTEX
  8
PLAN_1
 62
     2
  6
CONTINUOUS
 10
-0.514827
 20
-0.853260
  0
VERTEX
  8
PLAN_1
 62
     2
  6
CONTINUOUS
 10
-0.512795
 20
-0.851228
  0
VERTEX
  8
PLAN_1
 62
     2
  6
CONTINUOUS
 10
-0.510764
 20
-0.849197
  0
VERTEX
  8
PLAN_1
 62
     2
  6
CONTINUOUS
 10
-0.509748
 20
-0.846657
  0
VERTEX
  8
PLAN_1
 62
     2
  6
CONTINUOUS
 10
-0.509748
 20
-0.844122
  0
VERTEX
  8
PLAN_1
 62
     2
  6
CONTINUOUS
 10
-0.509748
 20
-0.834980
  0
SEQEND
  8
0
  0
POLYLINE
  8
PLAN_1
 62
     2
  6
CONTINUOUS
 66
     1
 40
0.003000
 41
0.003000
  0
VERTEX
  8
PLAN_1
 62
     2
  6
CONTINUOUS
 10
-0.474209
 20
-0.862906
  0
VERTEX
  8
PLAN_1
 62
     2
  6
CONTINUOUS
 10
-0.483350
 20
-0.862906
  0
VERTEX
  8
PLAN_1
 62
     2
  6
CONTINUOUS
 10
-0.483350
 20
-0.808579
  0
VERTEX
  8
PLAN_1
 62
     2
  6
CONTINUOUS
 10
-0.474717
 20
-0.808579
  0
VERTEX
  8
PLAN_1
 62
     2
  6
CONTINUOUS
 10
-0.474717
 20
-0.817213
  0
VERTEX
  8
PLAN_1
 62
     2
  6
CONTINUOUS
 10
-0.473193
 20
-0.815181
  0
VERTEX
  8
PLAN_1
 62
     2
  6
CONTINUOUS
 10
-0.471669
 20
-0.813150
  0
VERTEX
  8
PLAN_1
 62
     2
  6
CONTINUOUS
 10
-0.470150
 20
-0.811118
  0
VERTEX
  8
PLAN_1
 62
     2
  6
CONTINUOUS
 10
-0.468118
 20
-0.809594
  0
VERTEX
  8
PLAN_1
 62
     2
  6
CONTINUOUS
 10
-0.466087
 20
-0.808579
  0
VERTEX
  8
PLAN_1
 62
     2
  6
CONTINUOUS
 10
-0.464055
 20
-0.807563
  0
VERTEX
  8
PLAN_1
 62
     2
  6
CONTINUOUS
 10
-0.462024
 20
-0.807055
  0
VERTEX
  8
PLAN_1
 62
     2
  6
CONTINUOUS
 10
-0.459484
 20
-0.807055
  0
VERTEX
  8
PLAN_1
 62
     2
  6
CONTINUOUS
 10
-0.458976
 20
-0.807055
  0
VERTEX
  8
PLAN_1
 62
     2
  6
CONTINUOUS
 10
-0.458469
 20
-0.807055
  0
VERTEX
  8
PLAN_1
 62
     2
  6
CONTINUOUS
 10
-0.457965
 20
-0.807055
  0
VERTEX
  8
PLAN_1
 62
     2
  6
CONTINUOUS
 10
-0.457457
 20
-0.807055
  0
VERTEX
  8
PLAN_1
 62
     2
  6
CONTINUOUS
 10
-0.456949
 20
-0.807055
  0
VERTEX
  8
PLAN_1
 62
     2
  6
CONTINUOUS
 10
-0.456949
 20
-0.816705
  0
VERTEX
  8
PLAN_1
 62
     2
  6
CONTINUOUS
 10
-0.460500
 20
-0.816705
  0
VERTEX
  8
PLAN_1
 62
     2
  6
CONTINUOUS
 10
-0.463547
 20
-0.816705
  0
VERTEX
  8
PLAN_1
 62
     2
  6
CONTINUOUS
 10
-0.466087
 20
-0.817720
  0
VERTEX
  8
PLAN_1
 62
     2
  6
CONTINUOUS
 10
-0.468626
 20
-0.819240
  0
VERTEX
  8
PLAN_1
 62
     2
  6
CONTINUOUS
 10
-0.470657
 20
-0.820764
  0
VERTEX
  8
PLAN_1
 62
     2
  6
CONTINUOUS
 10
-0.472177
 20
-0.823303
  0
VERTEX
  8
PLAN_1
 62
     2
  6
CONTINUOUS
 10
-0.473193
 20
-0.825335
  0
VERTEX
  8
PLAN_1
 62
     2
  6
CONTINUOUS
 10
-0.474209
 20
-0.828382
  0
VERTEX
  8
PLAN_1
 62
     2
  6
CONTINUOUS
 10
-0.474209
 20
-0.830921
  0
VERTEX
  8
PLAN_1
 62
     2
  6
CONTINUOUS
 10
-0.474209
 20
-0.862906
  0
SEQEND
  8
0
  0
POLYLINE
  8
PLAN_1
 62
     2
  6
CONTINUOUS
 66
     1
 40
0.003000
 41
0.003000
  0
VERTEX
  8
PLAN_1
 62
     2
  6
CONTINUOUS
 10
-0.450346
 20
-0.824827
  0
VERTEX
  8
PLAN_1
 62
     2
  6
CONTINUOUS
 10
-0.449839
 20
-0.820256
  0
VERTEX
  8
PLAN_1
 62
     2
  6
CONTINUOUS
 10
-0.448823
 20
-0.816705
  0
VERTEX
  8
PLAN_1
 62
     2
  6
CONTINUOUS
 10
-0.446791
 20
-0.813657
  0
VERTEX
  8
PLAN_1
 62
     2
  6
CONTINUOUS
 10
-0.444256
 20
-0.811118
  0
VERTEX
  8
PLAN_1
 62
     2
  6
CONTINUOUS
 10
-0.440701
 20
-0.809087
  0
VERTEX
  8
PLAN_1
 62
     2
  6
CONTINUOUS
 10
-0.437146
 20
-0.807563
  0
VERTEX
  8
PLAN_1
 62
     2
  6
CONTINUOUS
 10
-0.432575
 20
-0.807055
  0
VERTEX
  8
PLAN_1
 62
     2
  6
CONTINUOUS
 10
-0.428008
 20
-0.807055
  0
VERTEX
  8
PLAN_1
 62
     2
  6
CONTINUOUS
 10
-0.425976
 20
-0.807055
  0
VERTEX
  8
PLAN_1
 62
     2
  6
CONTINUOUS
 10
-0.422929
 20
-0.807055
  0
VERTEX
  8
PLAN_1
 62
     2
  6
CONTINUOUS
 10
-0.419882
 20
-0.808071
  0
VERTEX
  8
PLAN_1
 62
     2
  6
CONTINUOUS
 10
-0.416331
 20
-0.809087
  0
VERTEX
  8
PLAN_1
 62
     2
  6
CONTINUOUS
 10
-0.413283
 20
-0.811118
  0
VERTEX
  8
PLAN_1
 62
     2
  6
CONTINUOUS
 10
-0.410236
 20
-0.813657
  0
VERTEX
  8
PLAN_1
 62
     2
  6
CONTINUOUS
 10
-0.409220
 20
-0.815181
  0
VERTEX
  8
PLAN_1
 62
     2
  6
CONTINUOUS
 10
-0.408713
 20
-0.817213
  0
VERTEX
  8
PLAN_1
 62
     2
  6
CONTINUOUS
 10
-0.408205
 20
-0.819748
  0
VERTEX
  8
PLAN_1
 62
     2
  6
CONTINUOUS
 10
-0.407697
 20
-0.821780
  0
VERTEX
  8
PLAN_1
 62
     2
  6
CONTINUOUS
 10
-0.407697
 20
-0.853260
  0
VERTEX
  8
PLAN_1
 62
     2
  6
CONTINUOUS
 10
-0.407697
 20
-0.854276
  0
VERTEX
  8
PLAN_1
 62
     2
  6
CONTINUOUS
 10
-0.407697
 20
-0.854783
  0
VERTEX
  8
PLAN_1
 62
     2
  6
CONTINUOUS
 10
-0.407189
 20
-0.855291
  0
VERTEX
  8
PLAN_1
 62
     2
  6
CONTINUOUS
 10
-0.407189
 20
-0.855799
  0
VERTEX
  8
PLAN_1
 62
     2
  6
CONTINUOUS
 10
-0.406681
 20
-0.856307
  0
VERTEX
  8
PLAN_1
 62
     2
  6
CONTINUOUS
 10
-0.406177
 20
-0.856307
  0
VERTEX
  8
PLAN_1
 62
     2
  6
CONTINUOUS
 10
-0.405669
 20
-0.856307
  0
VERTEX
  8
PLAN_1
 62
     2
  6
CONTINUOUS
 10
-0.404654
 20
-0.856307
  0
VERTEX
  8
PLAN_1
 62
     2
  6
CONTINUOUS
 10
-0.404146
 20
-0.856307
  0
VERTEX
  8
PLAN_1
 62
     2
  6
CONTINUOUS
 10
-0.403638
 20
-0.856307
  0
VERTEX
  8
PLAN_1
 62
     2
  6
CONTINUOUS
 10
-0.403130
 20
-0.856307
  0
VERTEX
  8
PLAN_1
 62
     2
  6
CONTINUOUS
 10
-0.402622
 20
-0.856307
  0
VERTEX
  8
PLAN_1
 62
     2
  6
CONTINUOUS
 10
-0.402114
 20
-0.856307
  0
VERTEX
  8
PLAN_1
 62
     2
  6
CONTINUOUS
 10
-0.401606
 20
-0.856307
  0
VERTEX
  8
PLAN_1
 62
     2
  6
CONTINUOUS
 10
-0.401606
 20
-0.862906
  0
VERTEX
  8
PLAN_1
 62
     2
  6
CONTINUOUS
 10
-0.402114
 20
-0.862906
  0
VERTEX
  8
PLAN_1
 62
     2
  6
CONTINUOUS
 10
-0.403130
 20
-0.862906
  0
VERTEX
  8
PLAN_1
 62
     2
  6
CONTINUOUS
 10
-0.403638
 20
-0.863413
  0
VERTEX
  8
PLAN_1
 62
     2
  6
CONTINUOUS
 10
-0.404146
 20
-0.863413
  0
VERTEX
  8
PLAN_1
 62
     2
  6
CONTINUOUS
 10
-0.404654
 20
-0.863413
  0
VERTEX
  8
PLAN_1
 62
     2
  6
CONTINUOUS
 10
-0.405161
 20
-0.863921
  0
VERTEX
  8
PLAN_1
 62
     2
  6
CONTINUOUS
 10
-0.406177
 20
-0.863921
  0
VERTEX
  8
PLAN_1
 62
     2
  6
CONTINUOUS
 10
-0.406681
 20
-0.863921
  0
VERTEX
  8
PLAN_1
 62
     2
  6
CONTINUOUS
 10
-0.409728
 20
-0.863413
  0
VERTEX
  8
PLAN_1
 62
     2
  6
CONTINUOUS
 10
-0.411760
 20
-0.862906
  0
VERTEX
  8
PLAN_1
 62
     2
  6
CONTINUOUS
 10
-0.413283
 20
-0.862398
  0
VERTEX
  8
PLAN_1
 62
     2
  6
CONTINUOUS
 10
-0.414299
 20
-0.861382
  0
VERTEX
  8
PLAN_1
 62
     2
  6
CONTINUOUS
 10
-0.415315
 20
-0.859858
  0
VERTEX
  8
PLAN_1
 62
     2
  6
CONTINUOUS
 10
-0.415823
 20
-0.858335
  0
VERTEX
  8
PLAN_1
 62
     2
  6
CONTINUOUS
 10
-0.416331
 20
-0.856815
  0
VERTEX
  8
PLAN_1
 62
     2
  6
CONTINUOUS
 10
-0.416331
 20
-0.855291
  0
VERTEX
  8
PLAN_1
 62
     2
  6
CONTINUOUS
 10
-0.417854
 20
-0.856815
  0
VERTEX
  8
PLAN_1
 62
     2
  6
CONTINUOUS
 10
-0.419374
 20
-0.858335
  0
VERTEX
  8
PLAN_1
 62
     2
  6
CONTINUOUS
 10
-0.421406
 20
-0.859858
  0
VERTEX
  8
PLAN_1
 62
     2
  6
CONTINUOUS
 10
-0.423437
 20
-0.861382
  0
VERTEX
  8
PLAN_1
 62
     2
  6
CONTINUOUS
 10
-0.425976
 20
-0.862398
  0
VERTEX
  8
PLAN_1
 62
     2
  6
CONTINUOUS
 10
-0.429024
 20
-0.863413
  0
VERTEX
  8
PLAN_1
 62
     2
  6
CONTINUOUS
 10
-0.432575
 20
-0.863921
  0
VERTEX
  8
PLAN_1
 62
     2
  6
CONTINUOUS
 10
-0.436130
 20
-0.864429
  0
VERTEX
  8
PLAN_1
 62
     2
  6
CONTINUOUS
 10
-0.439685
 20
-0.863921
  0
VERTEX
  8
PLAN_1
 62
     2
  6
CONTINUOUS
 10
-0.442732
 20
-0.863413
  0
VERTEX
  8
PLAN_1
 62
     2
  6
CONTINUOUS
 10
-0.445776
 20
-0.861890
  0
VERTEX
  8
PLAN_1
 62
     2
  6
CONTINUOUS
 10
-0.448315
 20
-0.859858
  0
VERTEX
  8
PLAN_1
 62
     2
  6
CONTINUOUS
 10
-0.450346
 20
-0.857827
  0
VERTEX
  8
PLAN_1
 62
     2
  6
CONTINUOUS
 10
-0.451870
 20
-0.854783
  0
VERTEX
  8
PLAN_1
 62
     2
  6
CONTINUOUS
 10
-0.452886
 20
-0.852244
  0
VERTEX
  8
PLAN_1
 62
     2
  6
CONTINUOUS
 10
-0.453394
 20
-0.848689
  0
VERTEX
  8
PLAN_1
 62
     2
  6
CONTINUOUS
 10
-0.452886
 20
-0.846657
  0
VERTEX
  8
PLAN_1
 62
     2
  6
CONTINUOUS
 10
-0.452886
 20
-0.844122
  0
VERTEX
  8
PLAN_1
 62
     2
  6
CONTINUOUS
 10
-0.451870
 20
-0.841583
  0
VERTEX
  8
PLAN_1
 62
     2
  6
CONTINUOUS
 10
-0.450346
 20
-0.839043
  0
VERTEX
  8
PLAN_1
 62
     2
  6
CONTINUOUS
 10
-0.448315
 20
-0.836504
  0
VERTEX
  8
PLAN_1
 62
     2
  6
CONTINUOUS
 10
-0.445776
 20
-0.834472
  0
VERTEX
  8
PLAN_1
 62
     2
  6
CONTINUOUS
 10
-0.441717
 20
-0.832441
  0
VERTEX
  8
PLAN_1
 62
     2
  6
CONTINUOUS
 10
-0.436638
 20
-0.831429
  0
VERTEX
  8
PLAN_1
 62
     2
  6
CONTINUOUS
 10
-0.421406
 20
-0.829906
  0
VERTEX
  8
PLAN_1
 62
     2
  6
CONTINUOUS
 10
-0.420898
 20
-0.829398
  0
VERTEX
  8
PLAN_1
 62
     2
  6
CONTINUOUS
 10
-0.419882
 20
-0.829398
  0
VERTEX
  8
PLAN_1
 62
     2
  6
CONTINUOUS
 10
-0.418870
 20
-0.828890
  0
VERTEX
  8
PLAN_1
 62
     2
  6
CONTINUOUS
 10
-0.418362
 20
-0.828382
  0
VERTEX
  8
PLAN_1
 62
     2
  6
CONTINUOUS
 10
-0.417854
 20
-0.827366
  0
VERTEX
  8
PLAN_1
 62
     2
  6
CONTINUOUS
 10
-0.417346
 20
-0.826350
  0
VERTEX
  8
PLAN_1
 62
     2
  6
CONTINUOUS
 10
-0.416839
 20
-0.824827
  0
VERTEX
  8
PLAN_1
 62
     2
  6
CONTINUOUS
 10
-0.416839
 20
-0.823303
  0
VERTEX
  8
PLAN_1
 62
     2
  6
CONTINUOUS
 10
-0.416839
 20
-0.821272
  0
VERTEX
  8
PLAN_1
 62
     2
  6
CONTINUOUS
 10
-0.417346
 20
-0.819240
  0
VERTEX
  8
PLAN_1
 62
     2
  6
CONTINUOUS
 10
-0.418362
 20
-0.817720
  0
VERTEX
  8
PLAN_1
 62
     2
  6
CONTINUOUS
 10
-0.419882
 20
-0.816705
  0
VERTEX
  8
PLAN_1
 62
     2
  6
CONTINUOUS
 10
-0.421913
 20
-0.815689
  0
VERTEX
  8
PLAN_1
 62
     2
  6
CONTINUOUS
 10
-0.423945
 20
-0.815181
  0
VERTEX
  8
PLAN_1
 62
     2
  6
CONTINUOUS
 10
-0.426484
 20
-0.814673
  0
VERTEX
  8
PLAN_1
 62
     2
  6
CONTINUOUS
 10
-0.429531
 20
-0.814165
  0
VERTEX
  8
PLAN_1
 62
     2
  6
CONTINUOUS
 10
-0.433083
 20
-0.814673
  0
VERTEX
  8
PLAN_1
 62
     2
  6
CONTINUOUS
 10
-0.435622
 20
-0.815689
  0
VERTEX
  8
PLAN_1
 62
     2
  6
CONTINUOUS
 10
-0.438161
 20
-0.816705
  0
VERTEX
  8
PLAN_1
 62
     2
  6
CONTINUOUS
 10
-0.439685
 20
-0.818228
  0
VERTEX
  8
PLAN_1
 62
     2
  6
CONTINUOUS
 10
-0.440701
 20
-0.819748
  0
VERTEX
  8
PLAN_1
 62
     2
  6
CONTINUOUS
 10
-0.441209
 20
-0.821272
  0
VERTEX
  8
PLAN_1
 62
     2
  6
CONTINUOUS
 10
-0.441717
 20
-0.823303
  0
VERTEX
  8
PLAN_1
 62
     2
  6
CONTINUOUS
 10
-0.442224
 20
-0.824827
  0
VERTEX
  8
PLAN_1
 62
     2
  6
CONTINUOUS
 10
-0.450346
 20
-0.824827
  0
SEQEND
  8
0
  0
POLYLINE
  8
PLAN_1
 62
     2
  6
CONTINUOUS
 66
     1
 40
0.003000
 41
0.003000
  0
VERTEX
  8
PLAN_1
 62
     2
  6
CONTINUOUS
 10
-0.416839
 20
-0.834980
  0
VERTEX
  8
PLAN_1
 62
     2
  6
CONTINUOUS
 10
-0.417346
 20
-0.835488
  0
VERTEX
  8
PLAN_1
 62
     2
  6
CONTINUOUS
 10
-0.418362
 20
-0.835996
  0
VERTEX
  8
PLAN_1
 62
     2
  6
CONTINUOUS
 10
-0.419374
 20
-0.835996
  0
VERTEX
  8
PLAN_1
 62
     2
  6
CONTINUOUS
 10
-0.420898
 20
-0.836504
  0
VERTEX
  8
PLAN_1
 62
     2
  6
CONTINUOUS
 10
-0.422421
 20
-0.837012
  0
VERTEX
  8
PLAN_1
 62
     2
  6
CONTINUOUS
 10
-0.424961
 20
-0.837520
  0
VERTEX
  8
PLAN_1
 62
     2
  6
CONTINUOUS
 10
-0.428008
 20
-0.838028
  0
VERTEX
  8
PLAN_1
 62
     2
  6
CONTINUOUS
 10
-0.432071
 20
-0.838535
  0
VERTEX
  8
PLAN_1
 62
     2
  6
CONTINUOUS
 10
-0.433591
 20
-0.838535
  0
VERTEX
  8
PLAN_1
 62
     2
  6
CONTINUOUS
 10
-0.435622
 20
-0.839043
  0
VERTEX
  8
PLAN_1
 62
     2
  6
CONTINUOUS
 10
-0.437654
 20
-0.839551
  0
VERTEX
  8
PLAN_1
 62
     2
  6
CONTINUOUS
 10
-0.439685
 20
-0.840567
  0
VERTEX
  8
PLAN_1
 62
     2
  6
CONTINUOUS
 10
-0.441209
 20
-0.841583
  0
VERTEX
  8
PLAN_1
 62
     2
  6
CONTINUOUS
 10
-0.442732
 20
-0.843106
  0
VERTEX
  8
PLAN_1
 62
     2
  6
CONTINUOUS
 10
-0.443240
 20
-0.845134
  0
VERTEX
  8
PLAN_1
 62
     2
  6
CONTINUOUS
 10
-0.443748
 20
-0.847165
  0
VERTEX
  8
PLAN_1
 62
     2
  6
CONTINUOUS
 10
-0.443748
 20
-0.849197
  0
VERTEX
  8
PLAN_1
 62
     2
  6
CONTINUOUS
 10
-0.443240
 20
-0.851228
  0
VERTEX
  8
PLAN_1
 62
     2
  6
CONTINUOUS
 10
-0.442224
 20
-0.852752
  0
VERTEX
  8
PLAN_1
 62
     2
  6
CONTINUOUS
 10
-0.441209
 20
-0.854276
  0
VERTEX
  8
PLAN_1
 62
     2
  6
CONTINUOUS
 10
-0.440193
 20
-0.855291
  0
VERTEX
  8
PLAN_1
 62
     2
  6
CONTINUOUS
 10
-0.438161
 20
-0.856307
  0
VERTEX
  8
PLAN_1
 62
     2
  6
CONTINUOUS
 10
-0.436130
 20
-0.856815
  0
VERTEX
  8
PLAN_1
 62
     2
  6
CONTINUOUS
 10
-0.433591
 20
-0.856815
  0
VERTEX
  8
PLAN_1
 62
     2
  6
CONTINUOUS
 10
-0.430547
 20
-0.856307
  0
VERTEX
  8
PLAN_1
 62
     2
  6
CONTINUOUS
 10
-0.427500
 20
-0.855799
  0
VERTEX
  8
PLAN_1
 62
     2
  6
CONTINUOUS
 10
-0.424961
 20
-0.854783
  0
VERTEX
  8
PLAN_1
 62
     2
  6
CONTINUOUS
 10
-0.422421
 20
-0.853260
  0
VERTEX
  8
PLAN_1
 62
     2
  6
CONTINUOUS
 10
-0.419882
 20
-0.851228
  0
VERTEX
  8
PLAN_1
 62
     2
  6
CONTINUOUS
 10
-0.418362
 20
-0.849197
  0
VERTEX
  8
PLAN_1
 62
     2
  6
CONTINUOUS
 10
-0.417346
 20
-0.846657
  0
VERTEX
  8
PLAN_1
 62
     2
  6
CONTINUOUS
 10
-0.416839
 20
-0.844122
  0
VERTEX
  8
PLAN_1
 62
     2
  6
CONTINUOUS
 10
-0.416839
 20
-0.834980
  0
SEQEND
  8
0
  0
POLYLINE
  8
PLAN_1
 62
     2
  6
CONTINUOUS
 66
     1
 40
0.003000
 41
0.003000
  0
VERTEX
  8
PLAN_1
 62
     2
  6
CONTINUOUS
 10
-0.356925
 20
-0.862906
  0
VERTEX
  8
PLAN_1
 62
     2
  6
CONTINUOUS
 10
-0.356925
 20
-0.854783
  0
VERTEX
  8
PLAN_1
 62
     2
  6
CONTINUOUS
 10
-0.358449
 20
-0.856815
  0
VERTEX
  8
PLAN_1
 62
     2
  6
CONTINUOUS
 10
-0.359972
 20
-0.858843
  0
VERTEX
  8
PLAN_1
 62
     2
  6
CONTINUOUS
 10
-0.362004
 20
-0.860366
  0
VERTEX
  8
PLAN_1
 62
     2
  6
CONTINUOUS
 10
-0.364035
 20
-0.861890
  0
VERTEX
  8
PLAN_1
 62
     2
  6
CONTINUOUS
 10
-0.366067
 20
-0.862906
  0
VERTEX
  8
PLAN_1
 62
     2
  6
CONTINUOUS
 10
-0.368602
 20
-0.863921
  0
VERTEX
  8
PLAN_1
 62
     2
  6
CONTINUOUS
 10
-0.371142
 20
-0.864429
  0
VERTEX
  8
PLAN_1
 62
     2
  6
CONTINUOUS
 10
-0.374189
 20
-0.864429
  0
VERTEX
  8
PLAN_1
 62
     2
  6
CONTINUOUS
 10
-0.377236
 20
-0.863921
  0
VERTEX
  8
PLAN_1
 62
     2
  6
CONTINUOUS
 10
-0.380283
 20
-0.863413
  0
VERTEX
  8
PLAN_1
 62
     2
  6
CONTINUOUS
 10
-0.383327
 20
-0.862398
  0
VERTEX
  8
PLAN_1
 62
     2
  6
CONTINUOUS
 10
-0.385866
 20
-0.860874
  0
VERTEX
  8
PLAN_1
 62
     2
  6
CONTINUOUS
 10
-0.388406
 20
-0.858335
  0
VERTEX
  8
PLAN_1
 62
     2
  6
CONTINUOUS
 10
-0.390437
 20
-0.855799
  0
VERTEX
  8
PLAN_1
 62
     2
  6
CONTINUOUS
 10
-0.391453
 20
-0.851736
  0
VERTEX
  8
PLAN_1
 62
     2
  6
CONTINUOUS
 10
-0.391961
 20
-0.847673
  0
VERTEX
  8
PLAN_1
 62
     2
  6
CONTINUOUS
 10
-0.391961
 20
-0.808579
  0
VERTEX
  8
PLAN_1
 62
     2
  6
CONTINUOUS
 10
-0.382819
 20
-0.808579
  0
VERTEX
  8
PLAN_1
 62
     2
  6
CONTINUOUS
 10
-0.382819
 20
-0.844630
  0
VERTEX
  8
PLAN_1
 62
     2
  6
CONTINUOUS
 10
-0.382819
 20
-0.847673
  0
VERTEX
  8
PLAN_1
 62
     2
  6
CONTINUOUS
 10
-0.381803
 20
-0.850213
  0
VERTEX
  8
PLAN_1
 62
     2
  6
CONTINUOUS
 10
-0.380787
 20
-0.852244
  0
VERTEX
  8
PLAN_1
 62
     2
  6
CONTINUOUS
 10
-0.379776
 20
-0.853768
  0
VERTEX
  8
PLAN_1
 62
     2
  6
CONTINUOUS
 10
-0.378252
 20
-0.854783
  0
VERTEX
  8
PLAN_1
 62
     2
  6
CONTINUOUS
 10
-0.376220
 20
-0.855799
  0
VERTEX
  8
PLAN_1
 62
     2
  6
CONTINUOUS
 10
-0.374189
 20
-0.856307
  0
VERTEX
  8
PLAN_1
 62
     2
  6
CONTINUOUS
 10
-0.372157
 20
-0.856307
  0
VERTEX
  8
PLAN_1
 62
     2
  6
CONTINUOUS
 10
-0.368094
 20
-0.855799
  0
VERTEX
  8
PLAN_1
 62
     2
  6
CONTINUOUS
 10
-0.365051
 20
-0.854783
  0
VERTEX
  8
PLAN_1
 62
     2
  6
CONTINUOUS
 10
-0.362512
 20
-0.852752
  0
VERTEX
  8
PLAN_1
 62
     2
  6
CONTINUOUS
 10
-0.360480
 20
-0.850213
  0
VERTEX
  8
PLAN_1
 62
     2
  6
CONTINUOUS
 10
-0.358957
 20
-0.847673
  0
VERTEX
  8
PLAN_1
 62
     2
  6
CONTINUOUS
 10
-0.357941
 20
-0.844630
  0
VERTEX
  8
PLAN_1
 62
     2
  6
CONTINUOUS
 10
-0.357433
 20
-0.841583
  0
VERTEX
  8
PLAN_1
 62
     2
  6
CONTINUOUS
 10
-0.357433
 20
-0.838535
  0
VERTEX
  8
PLAN_1
 62
     2
  6
CONTINUOUS
 10
-0.357433
 20
-0.808579
  0
VERTEX
  8
PLAN_1
 62
     2
  6
CONTINUOUS
 10
-0.348295
 20
-0.808579
  0
VERTEX
  8
PLAN_1
 62
     2
  6
CONTINUOUS
 10
-0.348295
 20
-0.862906
  0
VERTEX
  8
PLAN_1
 62
     2
  6
CONTINUOUS
 10
-0.356925
 20
-0.862906
  0
SEQEND
  8
0
  0
POLYLINE
  8
PLAN_1
 62
     2
  6
CONTINUOUS
 66
     1
 40
0.003000
 41
0.003000
  0
VERTEX
  8
PLAN_1
 62
     2
  6
CONTINUOUS
 10
-0.289402
 20
-0.862906
  0
VERTEX
  8
PLAN_1
 62
     2
  6
CONTINUOUS
 10
-0.298031
 20
-0.862906
  0
VERTEX
  8
PLAN_1
 62
     2
  6
CONTINUOUS
 10
-0.298031
 20
-0.855291
  0
VERTEX
  8
PLAN_1
 62
     2
  6
CONTINUOUS
 10
-0.299555
 20
-0.857827
  0
VERTEX
  8
PLAN_1
 62
     2
  6
CONTINUOUS
 10
-0.301587
 20
-0.859858
  0
VERTEX
  8
PLAN_1
 62
     2
  6
CONTINUOUS
 10
-0.303110
 20
-0.861382
  0
VERTEX
  8
PLAN_1
 62
     2
  6
CONTINUOUS
 10
-0.305138
 20
-0.862398
  0
VERTEX
  8
PLAN_1
 62
     2
  6
CONTINUOUS
 10
-0.307169
 20
-0.863413
  0
VERTEX
  8
PLAN_1
 62
     2
  6
CONTINUOUS
 10
-0.309201
 20
-0.863921
  0
VERTEX
  8
PLAN_1
 62
     2
  6
CONTINUOUS
 10
-0.311740
 20
-0.864429
  0
VERTEX
  8
PLAN_1
 62
     2
  6
CONTINUOUS
 10
-0.313772
 20
-0.864429
  0
VERTEX
  8
PLAN_1
 62
     2
  6
CONTINUOUS
 10
-0.316815
 20
-0.863921
  0
VERTEX
  8
PLAN_1
 62
     2
  6
CONTINUOUS
 10
-0.319862
 20
-0.863413
  0
VERTEX
  8
PLAN_1
 62
     2
  6
CONTINUOUS
 10
-0.322402
 20
-0.862906
  0
VERTEX
  8
PLAN_1
 62
     2
  6
CONTINUOUS
 10
-0.324941
 20
-0.861382
  0
VERTEX
  8
PLAN_1
 62
     2
  6
CONTINUOUS
 10
-0.327480
 20
-0.859858
  0
VERTEX
  8
PLAN_1
 62
     2
  6
CONTINUOUS
 10
-0.329508
 20
-0.858335
  0
VERTEX
  8
PLAN_1
 62
     2
  6
CONTINUOUS
 10
-0.331031
 20
-0.856307
  0
VERTEX
  8
PLAN_1
 62
     2
  6
CONTINUOUS
 10
-0.332555
 20
-0.854276
  0
VERTEX
  8
PLAN_1
 62
     2
  6
CONTINUOUS
 10
-0.334587
 20
-0.849197
  0
VERTEX
  8
PLAN_1
 62
     2
  6
CONTINUOUS
 10
-0.336110
 20
-0.844122
  0
VERTEX
  8
PLAN_1
 62
     2
  6
CONTINUOUS
 10
-0.337126
 20
-0.839043
  0
VERTEX
  8
PLAN_1
 62
     2
  6
CONTINUOUS
 10
-0.337634
 20
-0.833965
  0
VERTEX
  8
PLAN_1
 62
     2
  6
CONTINUOUS
 10
-0.337126
 20
-0.828382
  0
VERTEX
  8
PLAN_1
 62
     2
  6
CONTINUOUS
 10
-0.336110
 20
-0.823303
  0
VERTEX
  8
PLAN_1
 62
     2
  6
CONTINUOUS
 10
-0.334079
 20
-0.818736
  0
VERTEX
  8
PLAN_1
 62
     2
  6
CONTINUOUS
 10
-0.331539
 20
-0.814673
  0
VERTEX
  8
PLAN_1
 62
     2
  6
CONTINUOUS
 10
-0.330016
 20
-0.813150
  0
VERTEX
  8
PLAN_1
 62
     2
  6
CONTINUOUS
 10
-0.328496
 20
-0.811118
  0
VERTEX
  8
PLAN_1
 62
     2
  6
CONTINUOUS
 10
-0.326465
 20
-0.810102
  0
VERTEX
  8
PLAN_1
 62
     2
  6
CONTINUOUS
 10
-0.324433
 20
-0.809087
  0
VERTEX
  8
PLAN_1
 62
     2
  6
CONTINUOUS
 10
-0.322402
 20
-0.808071
  0
VERTEX
  8
PLAN_1
 62
     2
  6
CONTINUOUS
 10
-0.319862
 20
-0.807563
  0
VERTEX
  8
PLAN_1
 62
     2
  6
CONTINUOUS
 10
-0.317323
 20
-0.807055
  0
VERTEX
  8
PLAN_1
 62
     2
  6
CONTINUOUS
 10
-0.314787
 20
-0.807055
  0
VERTEX
  8
PLAN_1
 62
     2
  6
CONTINUOUS
 10
-0.311232
 20
-0.807055
  0
VERTEX
  8
PLAN_1
 62
     2
  6
CONTINUOUS
 10
-0.308185
 20
-0.807563
  0
VERTEX
  8
PLAN_1
 62
     2
  6
CONTINUOUS
 10
-0.305646
 20
-0.809087
  0
VERTEX
  8
PLAN_1
 62
     2
  6
CONTINUOUS
 10
-0.303614
 20
-0.810102
  0
VERTEX
  8
PLAN_1
 62
     2
  6
CONTINUOUS
 10
-0.302094
 20
-0.811626
  0
VERTEX
  8
PLAN_1
 62
     2
  6
CONTINUOUS
 10
-0.300571
 20
-0.813150
  0
VERTEX
  8
PLAN_1
 62
     2
  6
CONTINUOUS
 10
-0.299555
 20
-0.814673
  0
VERTEX
  8
PLAN_1
 62
     2
  6
CONTINUOUS
 10
-0.298539
 20
-0.816197
  0
VERTEX
  8
PLAN_1
 62
     2
  6
CONTINUOUS
 10
-0.298539
 20
-0.815181
  0
VERTEX
  8
PLAN_1
 62
     2
  6
CONTINUOUS
 10
-0.298539
 20
-0.788272
  0
VERTEX
  8
PLAN_1
 62
     2
  6
CONTINUOUS
 10
-0.289402
 20
-0.788272
  0
VERTEX
  8
PLAN_1
 62
     2
  6
CONTINUOUS
 10
-0.289402
 20
-0.862906
  0
SEQEND
  8
0
  0
POLYLINE
  8
PLAN_1
 62
     2
  6
CONTINUOUS
 66
     1
 40
0.003000
 41
0.003000
  0
VERTEX
  8
PLAN_1
 62
     2
  6
CONTINUOUS
 10
-0.313264
 20
-0.856307
  0
VERTEX
  8
PLAN_1
 62
     2
  6
CONTINUOUS
 10
-0.311232
 20
-0.856307
  0
VERTEX
  8
PLAN_1
 62
     2
  6
CONTINUOUS
 10
-0.308693
 20
-0.855799
  0
VERTEX
  8
PLAN_1
 62
     2
  6
CONTINUOUS
 10
-0.306154
 20
-0.854276
  0
VERTEX
  8
PLAN_1
 62
     2
  6
CONTINUOUS
 10
-0.303614
 20
-0.852752
  0
VERTEX
  8
PLAN_1
 62
     2
  6
CONTINUOUS
 10
-0.301587
 20
-0.850213
  0
VERTEX
  8
PLAN_1
 62
     2
  6
CONTINUOUS
 10
-0.300063
 20
-0.847165
  0
VERTEX
  8
PLAN_1
 62
     2
  6
CONTINUOUS
 10
-0.299047
 20
-0.843106
  0
VERTEX
  8
PLAN_1
 62
     2
  6
CONTINUOUS
 10
-0.298539
 20
-0.838028
  0
VERTEX
  8
PLAN_1
 62
     2
  6
CONTINUOUS
 10
-0.298539
 20
-0.834472
  0
VERTEX
  8
PLAN_1
 62
     2
  6
CONTINUOUS
 10
-0.299047
 20
-0.830921
  0
VERTEX
  8
PLAN_1
 62
     2
  6
CONTINUOUS
 10
-0.299555
 20
-0.826858
  0
VERTEX
  8
PLAN_1
 62
     2
  6
CONTINUOUS
 10
-0.301079
 20
-0.823303
  0
VERTEX
  8
PLAN_1
 62
     2
  6
CONTINUOUS
 10
-0.302602
 20
-0.820256
  0
VERTEX
  8
PLAN_1
 62
     2
  6
CONTINUOUS
 10
-0.305138
 20
-0.817213
  0
VERTEX
  8
PLAN_1
 62
     2
  6
CONTINUOUS
 10
-0.306661
 20
-0.816197
  0
VERTEX
  8
PLAN_1
 62
     2
  6
CONTINUOUS
 10
-0.308693
 20
-0.815689
  0
VERTEX
  8
PLAN_1
 62
     2
  6
CONTINUOUS
 10
-0.310724
 20
-0.815181
  0
VERTEX
  8
PLAN_1
 62
     2
  6
CONTINUOUS
 10
-0.313264
 20
-0.815181
  0
VERTEX
  8
PLAN_1
 62
     2
  6
CONTINUOUS
 10
-0.315803
 20
-0.815181
  0
VERTEX
  8
PLAN_1
 62
     2
  6
CONTINUOUS
 10
-0.317831
 20
-0.815689
  0
VERTEX
  8
PLAN_1
 62
     2
  6
CONTINUOUS
 10
-0.319862
 20
-0.816197
  0
VERTEX
  8
PLAN_1
 62
     2
  6
CONTINUOUS
 10
-0.321386
 20
-0.817213
  0
VERTEX
  8
PLAN_1
 62
     2
  6
CONTINUOUS
 10
-0.323925
 20
-0.819748
  0
VERTEX
  8
PLAN_1
 62
     2
  6
CONTINUOUS
 10
-0.325957
 20
-0.822795
  0
VERTEX
  8
PLAN_1
 62
     2
  6
CONTINUOUS
 10
-0.326972
 20
-0.825843
  0
VERTEX
  8
PLAN_1
 62
     2
  6
CONTINUOUS
 10
-0.327480
 20
-0.829398
  0
VERTEX
  8
PLAN_1
 62
     2
  6
CONTINUOUS
 10
-0.327988
 20
-0.832441
  0
VERTEX
  8
PLAN_1
 62
     2
  6
CONTINUOUS
 10
-0.327988
 20
-0.835488
  0
VERTEX
  8
PLAN_1
 62
     2
  6
CONTINUOUS
 10
-0.327988
 20
-0.839551
  0
VERTEX
  8
PLAN_1
 62
     2
  6
CONTINUOUS
 10
-0.326972
 20
-0.843614
  0
VERTEX
  8
PLAN_1
 62
     2
  6
CONTINUOUS
 10
-0.325957
 20
-0.847165
  0
VERTEX
  8
PLAN_1
 62
     2
  6
CONTINUOUS
 10
-0.324433
 20
-0.850213
  0
VERTEX
  8
PLAN_1
 62
     2
  6
CONTINUOUS
 10
-0.322402
 20
-0.852752
  0
VERTEX
  8
PLAN_1
 62
     2
  6
CONTINUOUS
 10
-0.319862
 20
-0.854783
  0
VERTEX
  8
PLAN_1
 62
     2
  6
CONTINUOUS
 10
-0.316815
 20
-0.855799
  0
VERTEX
  8
PLAN_1
 62
     2
  6
CONTINUOUS
 10
-0.313264
 20
-0.856307
  0
SEQEND
  8
0
  0
SOLID
  8
PLAN_1
 62
     2
 10
-0.251827
 20
-0.800965
 11
-0.258937
 21
-0.800965
 12
-0.238122
 22
-0.786240
 13
-0.249799
 23
-0.786240
  0
POLYLINE
  8
PLAN_1
 62
     2
  6
CONTINUOUS
 66
     1
 40
0.003000
 41
0.003000
  0
VERTEX
  8
PLAN_1
 62
     2
  6
CONTINUOUS
 10
-0.251827
 20
-0.800965
  0
VERTEX
  8
PLAN_1
 62
     2
  6
CONTINUOUS
 10
-0.258937
 20
-0.800965
  0
VERTEX
  8
PLAN_1
 62
     2
  6
CONTINUOUS
 10
-0.249799
 20
-0.786240
  0
VERTEX
  8
PLAN_1
 62
     2
  6
CONTINUOUS
 10
-0.238122
 20
-0.786240
  0
VERTEX
  8
PLAN_1
 62
     2
  6
CONTINUOUS
 10
-0.251827
 20
-0.800965
  0
SEQEND
  8
0
  0
POLYLINE
  8
PLAN_1
 62
     2
  6
CONTINUOUS
 66
     1
 40
0.003000
 41
0.003000
  0
VERTEX
  8
PLAN_1
 62
     2
  6
CONTINUOUS
 10
-0.230504
 20
-0.845642
  0
VERTEX
  8
PLAN_1
 62
     2
  6
CONTINUOUS
 10
-0.230504
 20
-0.847165
  0
VERTEX
  8
PLAN_1
 62
     2
  6
CONTINUOUS
 10
-0.231012
 20
-0.848689
  0
VERTEX
  8
PLAN_1
 62
     2
  6
CONTINUOUS
 10
-0.231520
 20
-0.850213
  0
VERTEX
  8
PLAN_1
 62
     2
  6
CONTINUOUS
 10
-0.232535
 20
-0.852244
  0
VERTEX
  8
PLAN_1
 62
     2
  6
CONTINUOUS
 10
-0.234059
 20
-0.854783
  0
VERTEX
  8
PLAN_1
 62
     2
  6
CONTINUOUS
 10
-0.235583
 20
-0.856815
  0
VERTEX
  8
PLAN_1
 62
     2
  6
CONTINUOUS
 10
-0.237614
 20
-0.858843
  0
VERTEX
  8
PLAN_1
 62
     2
  6
CONTINUOUS
 10
-0.240150
 20
-0.860366
  0
VERTEX
  8
PLAN_1
 62
     2
  6
CONTINUOUS
 10
-0.241165
 20
-0.861382
  0
VERTEX
  8
PLAN_1
 62
     2
  6
CONTINUOUS
 10
-0.242181
 20
-0.861890
  0
VERTEX
  8
PLAN_1
 62
     2
  6
CONTINUOUS
 10
-0.243197
 20
-0.862398
  0
VERTEX
  8
PLAN_1
 62
     2
  6
CONTINUOUS
 10
-0.245228
 20
-0.862906
  0
VERTEX
  8
PLAN_1
 62
     2
  6
CONTINUOUS
 10
-0.246752
 20
-0.863413
  0
VERTEX
  8
PLAN_1
 62
     2
  6
CONTINUOUS
 10
-0.249291
 20
-0.863921
  0
VERTEX
  8
PLAN_1
 62
     2
  6
CONTINUOUS
 10
-0.251827
 20
-0.864429
  0
VERTEX
  8
PLAN_1
 62
     2
  6
CONTINUOUS
 10
-0.254874
 20
-0.864429
  0
VERTEX
  8
PLAN_1
 62
     2
  6
CONTINUOUS
 10
-0.257413
 20
-0.864429
  0
VERTEX
  8
PLAN_1
 62
     2
  6
CONTINUOUS
 10
-0.259953
 20
-0.863921
  0
VERTEX
  8
PLAN_1
 62
     2
  6
CONTINUOUS
 10
-0.262492
 20
-0.863413
  0
VERTEX
  8
PLAN_1
 62
     2
  6
CONTINUOUS
 10
-0.265028
 20
-0.862398
  0
VERTEX
  8
PLAN_1
 62
     2
  6
CONTINUOUS
 10
-0.267059
 20
-0.861382
  0
VERTEX
  8
PLAN_1
 62
     2
  6
CONTINUOUS
 10
-0.269091
 20
-0.859858
  0
VERTEX
  8
PLAN_1
 62
     2
  6
CONTINUOUS
 10
-0.271122
 20
-0.858335
  0
VERTEX
  8
PLAN_1
 62
     2
  6
CONTINUOUS
 10
-0.272646
 20
-0.856815
  0
VERTEX
  8
PLAN_1
 62
     2
  6
CONTINUOUS
 10
-0.275185
 20
-0.852752
  0
VERTEX
  8
PLAN_1
 62
     2
  6
CONTINUOUS
 10
-0.277217
 20
-0.848181
  0
VERTEX
  8
PLAN_1
 62
     2
  6
CONTINUOUS
 10
-0.278736
 20
-0.842598
  0
VERTEX
  8
PLAN_1
 62
     2
  6
CONTINUOUS
 10
-0.279244
 20
-0.837012
  0
VERTEX
  8
PLAN_1
 62
     2
  6
CONTINUOUS
 10
-0.278736
 20
-0.830921
  0
VERTEX
  8
PLAN_1
 62
     2
  6
CONTINUOUS
 10
-0.277720
 20
-0.825335
  0
VERTEX
  8
PLAN_1
 62
     2
  6
CONTINUOUS
 10
-0.276709
 20
-0.822795
  0
VERTEX
  8
PLAN_1
 62
     2
  6
CONTINUOUS
 10
-0.275693
 20
-0.820256
  0
VERTEX
  8
PLAN_1
 62
     2
  6
CONTINUOUS
 10
-0.274169
 20
-0.817720
  0
VERTEX
  8
PLAN_1
 62
     2
  6
CONTINUOUS
 10
-0.272646
 20
-0.815689
  0
VERTEX
  8
PLAN_1
 62
     2
  6
CONTINUOUS
 10
-0.271122
 20
-0.813657
  0
VERTEX
  8
PLAN_1
 62
     2
  6
CONTINUOUS
 10
-0.269091
 20
-0.812134
  0
VERTEX
  8
PLAN_1
 62
     2
  6
CONTINUOUS
 10
-0.267059
 20
-0.810610
  0
VERTEX
  8
PLAN_1
 62
     2
  6
CONTINUOUS
 10
-0.264520
 20
-0.809087
  0
VERTEX
  8
PLAN_1
 62
     2
  6
CONTINUOUS
 10
-0.261984
 20
-0.808071
  0
VERTEX
  8
PLAN_1
 62
     2
  6
CONTINUOUS
 10
-0.259445
 20
-0.807563
  0
VERTEX
  8
PLAN_1
 62
     2
  6
CONTINUOUS
 10
-0.256398
 20
-0.807055
  0
VERTEX
  8
PLAN_1
 62
     2
  6
CONTINUOUS
 10
-0.252843
 20
-0.807055
  0
VERTEX
  8
PLAN_1
 62
     2
  6
CONTINUOUS
 10
-0.250307
 20
-0.807055
  0
VERTEX
  8
PLAN_1
 62
     2
  6
CONTINUOUS
 10
-0.247260
 20
-0.807563
  0
VERTEX
  8
PLAN_1
 62
     2
  6
CONTINUOUS
 10
-0.244720
 20
-0.808071
  0
VERTEX
  8
PLAN_1
 62
     2
  6
CONTINUOUS
 10
-0.242689
 20
-0.809087
  0
VERTEX
  8
PLAN_1
 62
     2
  6
CONTINUOUS
 10
-0.240657
 20
-0.810102
  0
VERTEX
  8
PLAN_1
 62
     2
  6
CONTINUOUS
 10
-0.238630
 20
-0.811626
  0
VERTEX
  8
PLAN_1
 62
     2
  6
CONTINUOUS
 10
-0.237106
 20
-0.813657
  0
VERTEX
  8
PLAN_1
 62
     2
  6
CONTINUOUS
 10
-0.235583
 20
-0.815689
  0
VERTEX
  8
PLAN_1
 62
     2
  6
CONTINUOUS
 10
-0.233043
 20
-0.820256
  0
VERTEX
  8
PLAN_1
 62
     2
  6
CONTINUOUS
 10
-0.231012
 20
-0.825335
  0
VERTEX
  8
PLAN_1
 62
     2
  6
CONTINUOUS
 10
-0.229996
 20
-0.831429
  0
VERTEX
  8
PLAN_1
 62
     2
  6
CONTINUOUS
 10
-0.229488
 20
-0.838535
  0
VERTEX
  8
PLAN_1
 62
     2
  6
CONTINUOUS
 10
-0.269091
 20
-0.838535
  0
VERTEX
  8
PLAN_1
 62
     2
  6
CONTINUOUS
 10
-0.269091
 20
-0.842598
  0
VERTEX
  8
PLAN_1
 62
     2
  6
CONTINUOUS
 10
-0.268075
 20
-0.846150
  0
VERTEX
  8
PLAN_1
 62
     2
  6
CONTINUOUS
 10
-0.267059
 20
-0.849197
  0
VERTEX
  8
PLAN_1
 62
     2
  6
CONTINUOUS
 10
-0.265535
 20
-0.851736
  0
VERTEX
  8
PLAN_1
 62
     2
  6
CONTINUOUS
 10
-0.263000
 20
-0.853768
  0
VERTEX
  8
PLAN_1
 62
     2
  6
CONTINUOUS
 10
-0.260461
 20
-0.855291
  0
VERTEX
  8
PLAN_1
 62
     2
  6
CONTINUOUS
 10
-0.257413
 20
-0.856307
  0
VERTEX
  8
PLAN_1
 62
     2
  6
CONTINUOUS
 10
-0.253350
 20
-0.856307
  0
VERTEX
  8
PLAN_1
 62
     2
  6
CONTINUOUS
 10
-0.250307
 20
-0.856307
  0
VERTEX
  8
PLAN_1
 62
     2
  6
CONTINUOUS
 10
-0.247768
 20
-0.855291
  0
VERTEX
  8
PLAN_1
 62
     2
  6
CONTINUOUS
 10
-0.245228
 20
-0.854276
  0
VERTEX
  8
PLAN_1
 62
     2
  6
CONTINUOUS
 10
-0.243197
 20
-0.852752
  0
VERTEX
  8
PLAN_1
 62
     2
  6
CONTINUOUS
 10
-0.241673
 20
-0.850720
  0
VERTEX
  8
PLAN_1
 62
     2
  6
CONTINUOUS
 10
-0.240657
 20
-0.849197
  0
VERTEX
  8
PLAN_1
 62
     2
  6
CONTINUOUS
 10
-0.239642
 20
-0.847165
  0
VERTEX
  8
PLAN_1
 62
     2
  6
CONTINUOUS
 10
-0.239642
 20
-0.845642
  0
VERTEX
  8
PLAN_1
 62
     2
  6
CONTINUOUS
 10
-0.230504
 20
-0.845642
  0
SEQEND
  8
0
  0
POLYLINE
  8
PLAN_1
 62
     2
  6
CONTINUOUS
 66
     1
 40
0.003000
 41
0.003000
  0
VERTEX
  8
PLAN_1
 62
     2
  6
CONTINUOUS
 10
-0.239134
 20
-0.831429
  0
VERTEX
  8
PLAN_1
 62
     2
  6
CONTINUOUS
 10
-0.239134
 20
-0.828382
  0
VERTEX
  8
PLAN_1
 62
     2
  6
CONTINUOUS
 10
-0.240150
 20
-0.825335
  0
VERTEX
  8
PLAN_1
 62
     2
  6
CONTINUOUS
 10
-0.241165
 20
-0.822287
  0
VERTEX
  8
PLAN_1
 62
     2
  6
CONTINUOUS
 10
-0.242689
 20
-0.819748
  0
VERTEX
  8
PLAN_1
 62
     2
  6
CONTINUOUS
 10
-0.244720
 20
-0.817720
  0
VERTEX
  8
PLAN_1
 62
     2
  6
CONTINUOUS
 10
-0.247260
 20
-0.816197
  0
VERTEX
  8
PLAN_1
 62
     2
  6
CONTINUOUS
 10
-0.250307
 20
-0.815181
  0
VERTEX
  8
PLAN_1
 62
     2
  6
CONTINUOUS
 10
-0.254366
 20
-0.815181
  0
VERTEX
  8
PLAN_1
 62
     2
  6
CONTINUOUS
 10
-0.257413
 20
-0.815181
  0
VERTEX
  8
PLAN_1
 62
     2
  6
CONTINUOUS
 10
-0.259953
 20
-0.816197
  0
VERTEX
  8
PLAN_1
 62
     2
  6
CONTINUOUS
 10
-0.262492
 20
-0.817720
  0
VERTEX
  8
PLAN_1
 62
     2
  6
CONTINUOUS
 10
-0.265028
 20
-0.819748
  0
VERTEX
  8
PLAN_1
 62
     2
  6
CONTINUOUS
 10
-0.266551
 20
-0.822287
  0
VERTEX
  8
PLAN_1
 62
     2
  6
CONTINUOUS
 10
-0.268075
 20
-0.825335
  0
VERTEX
  8
PLAN_1
 62
     2
  6
CONTINUOUS
 10
-0.269091
 20
-0.828382
  0
VERTEX
  8
PLAN_1
 62
     2
  6
CONTINUOUS
 10
-0.269091
 20
-0.831429
  0
VERTEX
  8
PLAN_1
 62
     2
  6
CONTINUOUS
 10
-0.239134
 20
-0.831429
  0
SEQEND
  8
0
  0
POLYLINE
  8
PLAN_1
 62
     2
  6
CONTINUOUS
 66
     1
 40
0.003000
 41
0.003000
  0
VERTEX
  8
PLAN_1
 62
     2
  6
CONTINUOUS
 10
-0.187854
 20
-0.823811
  0
VERTEX
  8
PLAN_1
 62
     2
  6
CONTINUOUS
 10
-0.187854
 20
-0.822287
  0
VERTEX
  8
PLAN_1
 62
     2
  6
CONTINUOUS
 10
-0.187854
 20
-0.820764
  0
VERTEX
  8
PLAN_1
 62
     2
  6
CONTINUOUS
 10
-0.188870
 20
-0.819240
  0
VERTEX
  8
PLAN_1
 62
     2
  6
CONTINUOUS
 10
-0.189886
 20
-0.818228
  0
VERTEX
  8
PLAN_1
 62
     2
  6
CONTINUOUS
 10
-0.191409
 20
-0.816705
  0
VERTEX
  8
PLAN_1
 62
     2
  6
CONTINUOUS
 10
-0.193441
 20
-0.815689
  0
VERTEX
  8
PLAN_1
 62
     2
  6
CONTINUOUS
 10
-0.196488
 20
-0.815181
  0
VERTEX
  8
PLAN_1
 62
     2
  6
CONTINUOUS
 10
-0.200547
 20
-0.814673
  0
VERTEX
  8
PLAN_1
 62
     2
  6
CONTINUOUS
 10
-0.202071
 20
-0.814673
  0
VERTEX
  8
PLAN_1
 62
     2
  6
CONTINUOUS
 10
-0.203594
 20
-0.815181
  0
VERTEX
  8
PLAN_1
 62
     2
  6
CONTINUOUS
 10
-0.205118
 20
-0.815181
  0
VERTEX
  8
PLAN_1
 62
     2
  6
CONTINUOUS
 10
-0.207150
 20
-0.816197
  0
VERTEX
  8
PLAN_1
 62
     2
  6
CONTINUOUS
 10
-0.208673
 20
-0.817213
  0
VERTEX
  8
PLAN_1
 62
     2
  6
CONTINUOUS
 10
-0.210197
 20
-0.818228
  0
VERTEX
  8
PLAN_1
 62
     2
  6
CONTINUOUS
 10
-0.211213
 20
-0.820256
  0
VERTEX
  8
PLAN_1
 62
     2
  6
CONTINUOUS
 10
-0.211213
 20
-0.822287
  0
VERTEX
  8
PLAN_1
 62
     2
  6
CONTINUOUS
 10
-0.211213
 20
-0.823811
  0
VERTEX
  8
PLAN_1
 62
     2
  6
CONTINUOUS
 10
-0.210705
 20
-0.825335
  0
VERTEX
  8
PLAN_1
 62
     2
  6
CONTINUOUS
 10
-0.210197
 20
-0.826350
  0
VERTEX
  8
PLAN_1
 62
     2
  6
CONTINUOUS
 10
-0.209181
 20
-0.826858
  0
VERTEX
  8
PLAN_1
 62
     2
  6
CONTINUOUS
 10
-0.207657
 20
-0.827874
  0
VERTEX
  8
PLAN_1
 62
     2
  6
CONTINUOUS
 10
-0.206134
 20
-0.828382
  0
VERTEX
  8
PLAN_1
 62
     2
  6
CONTINUOUS
 10
-0.204102
 20
-0.828890
  0
VERTEX
  8
PLAN_1
 62
     2
  6
CONTINUOUS
 10
-0.201563
 20
-0.829906
  0
VERTEX
  8
PLAN_1
 62
     2
  6
CONTINUOUS
 10
-0.192425
 20
-0.831933
  0
VERTEX
  8
PLAN_1
 62
     2
  6
CONTINUOUS
 10
-0.188362
 20
-0.832949
  0
VERTEX
  8
PLAN_1
 62
     2
  6
CONTINUOUS
 10
-0.185319
 20
-0.834472
  0
VERTEX
  8
PLAN_1
 62
     2
  6
CONTINUOUS
 10
-0.182780
 20
-0.835996
  0
VERTEX
  8
PLAN_1
 62
     2
  6
CONTINUOUS
 10
-0.180240
 20
-0.837520
  0
VERTEX
  8
PLAN_1
 62
     2
  6
CONTINUOUS
 10
-0.178717
 20
-0.839043
  0
VERTEX
  8
PLAN_1
 62
     2
  6
CONTINUOUS
 10
-0.177701
 20
-0.841583
  0
VERTEX
  8
PLAN_1
 62
     2
  6
CONTINUOUS
 10
-0.177193
 20
-0.843614
  0
VERTEX
  8
PLAN_1
 62
     2
  6
CONTINUOUS
 10
-0.177193
 20
-0.846150
  0
VERTEX
  8
PLAN_1
 62
     2
  6
CONTINUOUS
 10
-0.177701
 20
-0.850213
  0
VERTEX
  8
PLAN_1
 62
     2
  6
CONTINUOUS
 10
-0.178717
 20
-0.853768
  0
VERTEX
  8
PLAN_1
 62
     2
  6
CONTINUOUS
 10
-0.180748
 20
-0.856815
  0
VERTEX
  8
PLAN_1
 62
     2
  6
CONTINUOUS
 10
-0.183287
 20
-0.859350
  0
VERTEX
  8
PLAN_1
 62
     2
  6
CONTINUOUS
 10
-0.186335
 20
-0.861382
  0
VERTEX
  8
PLAN_1
 62
     2
  6
CONTINUOUS
 10
-0.189886
 20
-0.862906
  0
VERTEX
  8
PLAN_1
 62
     2
  6
CONTINUOUS
 10
-0.193949
 20
-0.863921
  0
VERTEX
  8
PLAN_1
 62
     2
  6
CONTINUOUS
 10
-0.198520
 20
-0.864429
  0
VERTEX
  8
PLAN_1
 62
     2
  6
CONTINUOUS
 10
-0.202579
 20
-0.864429
  0
VERTEX
  8
PLAN_1
 62
     2
  6
CONTINUOUS
 10
-0.205626
 20
-0.863921
  0
VERTEX
  8
PLAN_1
 62
     2
  6
CONTINUOUS
 10
-0.208673
 20
-0.862906
  0
VERTEX
  8
PLAN_1
 62
     2
  6
CONTINUOUS
 10
-0.211213
 20
-0.862398
  0
VERTEX
  8
PLAN_1
 62
     2
  6
CONTINUOUS
 10
-0.213748
 20
-0.861382
  0
VERTEX
  8
PLAN_1
 62
     2
  6
CONTINUOUS
 10
-0.215272
 20
-0.859858
  0
VERTEX
  8
PLAN_1
 62
     2
  6
CONTINUOUS
 10
-0.216795
 20
-0.858843
  0
VERTEX
  8
PLAN_1
 62
     2
  6
CONTINUOUS
 10
-0.218319
 20
-0.857323
  0
VERTEX
  8
PLAN_1
 62
     2
  6
CONTINUOUS
 10
-0.220350
 20
-0.854276
  0
VERTEX
  8
PLAN_1
 62
     2
  6
CONTINUOUS
 10
-0.221366
 20
-0.851228
  0
VERTEX
  8
PLAN_1
 62
     2
  6
CONTINUOUS
 10
-0.221874
 20
-0.848181
  0
VERTEX
  8
PLAN_1
 62
     2
  6
CONTINUOUS
 10
-0.221874
 20
-0.845134
  0
VERTEX
  8
PLAN_1
 62
     2
  6
CONTINUOUS
 10
-0.213240
 20
-0.845134
  0
VERTEX
  8
PLAN_1
 62
     2
  6
CONTINUOUS
 10
-0.212736
 20
-0.847165
  0
VERTEX
  8
PLAN_1
 62
     2
  6
CONTINUOUS
 10
-0.212736
 20
-0.848689
  0
VERTEX
  8
PLAN_1
 62
     2
  6
CONTINUOUS
 10
-0.211720
 20
-0.850720
  0
VERTEX
  8
PLAN_1
 62
     2
  6
CONTINUOUS
 10
-0.210705
 20
-0.852244
  0
VERTEX
  8
PLAN_1
 62
     2
  6
CONTINUOUS
 10
-0.208673
 20
-0.854276
  0
VERTEX
  8
PLAN_1
 62
     2
  6
CONTINUOUS
 10
-0.206134
 20
-0.855291
  0
VERTEX
  8
PLAN_1
 62
     2
  6
CONTINUOUS
 10
-0.203087
 20
-0.856307
  0
VERTEX
  8
PLAN_1
 62
     2
  6
CONTINUOUS
 10
-0.198520
 20
-0.856307
  0
VERTEX
  8
PLAN_1
 62
     2
  6
CONTINUOUS
 10
-0.196488
 20
-0.856307
  0
VERTEX
  8
PLAN_1
 62
     2
  6
CONTINUOUS
 10
-0.193949
 20
-0.855799
  0
VERTEX
  8
PLAN_1
 62
     2
  6
CONTINUOUS
 10
-0.191917
 20
-0.855291
  0
VERTEX
  8
PLAN_1
 62
     2
  6
CONTINUOUS
 10
-0.189886
 20
-0.854276
  0
VERTEX
  8
PLAN_1
 62
     2
  6
CONTINUOUS
 10
-0.188362
 20
-0.853260
  0
VERTEX
  8
PLAN_1
 62
     2
  6
CONTINUOUS
 10
-0.187346
 20
-0.851736
  0
VERTEX
  8
PLAN_1
 62
     2
  6
CONTINUOUS
 10
-0.186335
 20
-0.849705
  0
VERTEX
  8
PLAN_1
 62
     2
  6
CONTINUOUS
 10
-0.186335
 20
-0.847673
  0
VERTEX
  8
PLAN_1
 62
     2
  6
CONTINUOUS
 10
-0.186335
 20
-0.846150
  0
VERTEX
  8
PLAN_1
 62
     2
  6
CONTINUOUS
 10
-0.186843
 20
-0.845134
  0
VERTEX
  8
PLAN_1
 62
     2
  6
CONTINUOUS
 10
-0.187346
 20
-0.844122
  0
VERTEX
  8
PLAN_1
 62
     2
  6
CONTINUOUS
 10
-0.188870
 20
-0.843106
  0
VERTEX
  8
PLAN_1
 62
     2
  6
CONTINUOUS
 10
-0.190394
 20
-0.842091
  0
VERTEX
  8
PLAN_1
 62
     2
  6
CONTINUOUS
 10
-0.191917
 20
-0.841583
  0
VERTEX
  8
PLAN_1
 62
     2
  6
CONTINUOUS
 10
-0.194457
 20
-0.840567
  0
VERTEX
  8
PLAN_1
 62
     2
  6
CONTINUOUS
 10
-0.196996
 20
-0.840059
  0
VERTEX
  8
PLAN_1
 62
     2
  6
CONTINUOUS
 10
-0.207657
 20
-0.837520
  0
VERTEX
  8
PLAN_1
 62
     2
  6
CONTINUOUS
 10
-0.210197
 20
-0.836504
  0
VERTEX
  8
PLAN_1
 62
     2
  6
CONTINUOUS
 10
-0.212736
 20
-0.835488
  0
VERTEX
  8
PLAN_1
 62
     2
  6
CONTINUOUS
 10
-0.214764
 20
-0.834472
  0
VERTEX
  8
PLAN_1
 62
     2
  6
CONTINUOUS
 10
-0.216795
 20
-0.832949
  0
VERTEX
  8
PLAN_1
 62
     2
  6
CONTINUOUS
 10
-0.218319
 20
-0.830921
  0
VERTEX
  8
PLAN_1
 62
     2
  6
CONTINUOUS
 10
-0.219335
 20
-0.828890
  0
VERTEX
  8
PLAN_1
 62
     2
  6
CONTINUOUS
 10
-0.219843
 20
-0.826858
  0
VERTEX
  8
PLAN_1
 62
     2
  6
CONTINUOUS
 10
-0.220350
 20
-0.824319
  0
VERTEX
  8
PLAN_1
 62
     2
  6
CONTINUOUS
 10
-0.219843
 20
-0.819748
  0
VERTEX
  8
PLAN_1
 62
     2
  6
CONTINUOUS
 10
-0.218319
 20
-0.816197
  0
VERTEX
  8
PLAN_1
 62
     2
  6
CONTINUOUS
 10
-0.216287
 20
-0.813657
  0
VERTEX
  8
PLAN_1
 62
     2
  6
CONTINUOUS
 10
-0.213748
 20
-0.811118
  0
VERTEX
  8
PLAN_1
 62
     2
  6
CONTINUOUS
 10
-0.210705
 20
-0.809087
  0
VERTEX
  8
PLAN_1
 62
     2
  6
CONTINUOUS
 10
-0.207150
 20
-0.808071
  0
VERTEX
  8
PLAN_1
 62
     2
  6
CONTINUOUS
 10
-0.203594
 20
-0.807055
  0
VERTEX
  8
PLAN_1
 62
     2
  6
CONTINUOUS
 10
-0.199535
 20
-0.807055
  0
VERTEX
  8
PLAN_1
 62
     2
  6
CONTINUOUS
 10
-0.195980
 20
-0.807055
  0
VERTEX
  8
PLAN_1
 62
     2
  6
CONTINUOUS
 10
-0.192933
 20
-0.807563
  0
VERTEX
  8
PLAN_1
 62
     2
  6
CONTINUOUS
 10
-0.190394
 20
-0.808071
  0
VERTEX
  8
PLAN_1
 62
     2
  6
CONTINUOUS
 10
-0.188362
 20
-0.809087
  0
VERTEX
  8
PLAN_1
 62
     2
  6
CONTINUOUS
 10
-0.186335
 20
-0.810102
  0
VERTEX
  8
PLAN_1
 62
     2
  6
CONTINUOUS
 10
-0.184303
 20
-0.811626
  0
VERTEX
  8
PLAN_1
 62
     2
  6
CONTINUOUS
 10
-0.183287
 20
-0.812642
  0
VERTEX
  8
PLAN_1
 62
     2
  6
CONTINUOUS
 10
-0.181764
 20
-0.814165
  0
VERTEX
  8
PLAN_1
 62
     2
  6
CONTINUOUS
 10
-0.180240
 20
-0.817213
  0
VERTEX
  8
PLAN_1
 62
     2
  6
CONTINUOUS
 10
-0.179224
 20
-0.820256
  0
VERTEX
  8
PLAN_1
 62
     2
  6
CONTINUOUS
 10
-0.178717
 20
-0.822287
  0
VERTEX
  8
PLAN_1
 62
     2
  6
CONTINUOUS
 10
-0.178717
 20
-0.823811
  0
VERTEX
  8
PLAN_1
 62
     2
  6
CONTINUOUS
 10
-0.187854
 20
-0.823811
  0
SEQEND
  8
0
  0
POLYLINE
  8
PLAN_1
 62
     2
  6
CONTINUOUS
 66
     1
 40
0.003000
 41
0.003000
  0
VERTEX
  8
PLAN_1
 62
     2
  6
CONTINUOUS
 10
-0.107130
 20
-0.862906
  0
VERTEX
  8
PLAN_1
 62
     2
  6
CONTINUOUS
 10
-0.116776
 20
-0.862906
  0
VERTEX
  8
PLAN_1
 62
     2
  6
CONTINUOUS
 10
-0.116776
 20
-0.810610
  0
VERTEX
  8
PLAN_1
 62
     2
  6
CONTINUOUS
 10
-0.134039
 20
-0.810610
  0
VERTEX
  8
PLAN_1
 62
     2
  6
CONTINUOUS
 10
-0.134039
 20
-0.803504
  0
VERTEX
  8
PLAN_1
 62
     2
  6
CONTINUOUS
 10
-0.129469
 20
-0.802996
  0
VERTEX
  8
PLAN_1
 62
     2
  6
CONTINUOUS
 10
-0.125913
 20
-0.802488
  0
VERTEX
  8
PLAN_1
 62
     2
  6
CONTINUOUS
 10
-0.123374
 20
-0.801980
  0
VERTEX
  8
PLAN_1
 62
     2
  6
CONTINUOUS
 10
-0.120839
 20
-0.800965
  0
VERTEX
  8
PLAN_1
 62
     2
  6
CONTINUOUS
 10
-0.118299
 20
-0.798933
  0
VERTEX
  8
PLAN_1
 62
     2
  6
CONTINUOUS
 10
-0.116776
 20
-0.796902
  0
VERTEX
  8
PLAN_1
 62
     2
  6
CONTINUOUS
 10
-0.115252
 20
-0.793854
  0
VERTEX
  8
PLAN_1
 62
     2
  6
CONTINUOUS
 10
-0.114236
 20
-0.789795
  0
VERTEX
  8
PLAN_1
 62
     2
  6
CONTINUOUS
 10
-0.107130
 20
-0.789795
  0
VERTEX
  8
PLAN_1
 62
     2
  6
CONTINUOUS
 10
-0.107130
 20
-0.862906
  0
SEQEND
  8
0
  0
POLYLINE
  8
PLAN_1
 62
     2
  6
CONTINUOUS
 66
     1
 40
0.003000
 41
0.003000
  0
VERTEX
  8
PLAN_1
 62
     2
  6
CONTINUOUS
 10
-0.049248
 20
-0.862906
  0
VERTEX
  8
PLAN_1
 62
     2
  6
CONTINUOUS
 10
-0.058894
 20
-0.862906
  0
VERTEX
  8
PLAN_1
 62
     2
  6
CONTINUOUS
 10
-0.058894
 20
-0.810610
  0
VERTEX
  8
PLAN_1
 62
     2
  6
CONTINUOUS
 10
-0.076157
 20
-0.810610
  0
VERTEX
  8
PLAN_1
 62
     2
  6
CONTINUOUS
 10
-0.076157
 20
-0.803504
  0
VERTEX
  8
PLAN_1
 62
     2
  6
CONTINUOUS
 10
-0.071587
 20
-0.802996
  0
VERTEX
  8
PLAN_1
 62
     2
  6
CONTINUOUS
 10
-0.068035
 20
-0.802488
  0
VERTEX
  8
PLAN_1
 62
     2
  6
CONTINUOUS
 10
-0.065496
 20
-0.801980
  0
VERTEX
  8
PLAN_1
 62
     2
  6
CONTINUOUS
 10
-0.062957
 20
-0.800965
  0
VERTEX
  8
PLAN_1
 62
     2
  6
CONTINUOUS
 10
-0.060417
 20
-0.798933
  0
VERTEX
  8
PLAN_1
 62
     2
  6
CONTINUOUS
 10
-0.058894
 20
-0.796902
  0
VERTEX
  8
PLAN_1
 62
     2
  6
CONTINUOUS
 10
-0.057374
 20
-0.793854
  0
VERTEX
  8
PLAN_1
 62
     2
  6
CONTINUOUS
 10
-0.056358
 20
-0.789795
  0
VERTEX
  8
PLAN_1
 62
     2
  6
CONTINUOUS
 10
-0.049248
 20
-0.789795
  0
VERTEX
  8
PLAN_1
 62
     2
  6
CONTINUOUS
 10
-0.049248
 20
-0.862906
  0
SEQEND
  8
0
  0
POLYLINE
  8
PLAN_1
 62
     2
  6
CONTINUOUS
 66
     1
 40
0.003000
 41
0.003000
  0
VERTEX
  8
PLAN_1
 62
     2
  6
CONTINUOUS
 10
0.006598
 20
-0.808579
  0
VERTEX
  8
PLAN_1
 62
     2
  6
CONTINUOUS
 10
0.015232
 20
-0.808579
  0
VERTEX
  8
PLAN_1
 62
     2
  6
CONTINUOUS
 10
0.015232
 20
-0.816197
  0
VERTEX
  8
PLAN_1
 62
     2
  6
CONTINUOUS
 10
0.016248
 20
-0.814673
  0
VERTEX
  8
PLAN_1
 62
     2
  6
CONTINUOUS
 10
0.017264
 20
-0.813150
  0
VERTEX
  8
PLAN_1
 62
     2
  6
CONTINUOUS
 10
0.018787
 20
-0.811626
  0
VERTEX
  8
PLAN_1
 62
     2
  6
CONTINUOUS
 10
0.020307
 20
-0.810102
  0
VERTEX
  8
PLAN_1
 62
     2
  6
CONTINUOUS
 10
0.022846
 20
-0.809087
  0
VERTEX
  8
PLAN_1
 62
     2
  6
CONTINUOUS
 10
0.024878
 20
-0.807563
  0
VERTEX
  8
PLAN_1
 62
     2
  6
CONTINUOUS
 10
0.027925
 20
-0.807055
  0
VERTEX
  8
PLAN_1
 62
     2
  6
CONTINUOUS
 10
0.031480
 20
-0.807055
  0
VERTEX
  8
PLAN_1
 62
     2
  6
CONTINUOUS
 10
0.034016
 20
-0.807055
  0
VERTEX
  8
PLAN_1
 62
     2
  6
CONTINUOUS
 10
0.036555
 20
-0.807563
  0
VERTEX
  8
PLAN_1
 62
     2
  6
CONTINUOUS
 10
0.039094
 20
-0.808071
  0
VERTEX
  8
PLAN_1
 62
     2
  6
CONTINUOUS
 10
0.041126
 20
-0.809087
  0
VERTEX
  8
PLAN_1
 62
     2
  6
CONTINUOUS
 10
0.043157
 20
-0.810102
  0
VERTEX
  8
PLAN_1
 62
     2
  6
CONTINUOUS
 10
0.045185
 20
-0.811118
  0
VERTEX
  8
PLAN_1
 62
     2
  6
CONTINUOUS
 10
0.046709
 20
-0.813150
  0
VERTEX
  8
PLAN_1
 62
     2
  6
CONTINUOUS
 10
0.048232
 20
-0.814673
  0
VERTEX
  8
PLAN_1
 62
     2
  6
CONTINUOUS
 10
0.050772
 20
-0.818736
  0
VERTEX
  8
PLAN_1
 62
     2
  6
CONTINUOUS
 10
0.052803
 20
-0.823303
  0
VERTEX
  8
PLAN_1
 62
     2
  6
CONTINUOUS
 10
0.053819
 20
-0.828382
  0
VERTEX
  8
PLAN_1
 62
     2
  6
CONTINUOUS
 10
0.054327
 20
-0.833965
  0
VERTEX
  8
PLAN_1
 62
     2
  6
CONTINUOUS
 10
0.053819
 20
-0.839043
  0
VERTEX
  8
PLAN_1
 62
     2
  6
CONTINUOUS
 10
0.053311
 20
-0.844122
  0
VERTEX
  8
PLAN_1
 62
     2
  6
CONTINUOUS
 10
0.051280
 20
-0.849197
  0
VERTEX
  8
PLAN_1
 62
     2
  6
CONTINUOUS
 10
0.049248
 20
-0.854276
  0
VERTEX
  8
PLAN_1
 62
     2
  6
CONTINUOUS
 10
0.047724
 20
-0.856307
  0
VERTEX
  8
PLAN_1
 62
     2
  6
CONTINUOUS
 10
0.046201
 20
-0.858335
  0
VERTEX
  8
PLAN_1
 62
     2
  6
CONTINUOUS
 10
0.044173
 20
-0.859858
  0
VERTEX
  8
PLAN_1
 62
     2
  6
CONTINUOUS
 10
0.041634
 20
-0.861382
  0
VERTEX
  8
PLAN_1
 62
     2
  6
CONTINUOUS
 10
0.039094
 20
-0.862906
  0
VERTEX
  8
PLAN_1
 62
     2
  6
CONTINUOUS
 10
0.036555
 20
-0.863413
  0
VERTEX
  8
PLAN_1
 62
     2
  6
CONTINUOUS
 10
0.033508
 20
-0.863921
  0
VERTEX
  8
PLAN_1
 62
     2
  6
CONTINUOUS
 10
0.030465
 20
-0.864429
  0
VERTEX
  8
PLAN_1
 62
     2
  6
CONTINUOUS
 10
0.027417
 20
-0.864429
  0
VERTEX
  8
PLAN_1
 62
     2
  6
CONTINUOUS
 10
0.025386
 20
-0.863921
  0
VERTEX
  8
PLAN_1
 62
     2
  6
CONTINUOUS
 10
0.023354
 20
-0.862906
  0
VERTEX
  8
PLAN_1
 62
     2
  6
CONTINUOUS
 10
0.021323
 20
-0.861890
  0
VERTEX
  8
PLAN_1
 62
     2
  6
CONTINUOUS
 10
0.019295
 20
-0.860874
  0
VERTEX
  8
PLAN_1
 62
     2
  6
CONTINUOUS
 10
0.018280
 20
-0.859858
  0
VERTEX
  8
PLAN_1
 62
     2
  6
CONTINUOUS
 10
0.016756
 20
-0.858335
  0
VERTEX
  8
PLAN_1
 62
     2
  6
CONTINUOUS
 10
0.015740
 20
-0.856815
  0
VERTEX
  8
PLAN_1
 62
     2
  6
CONTINUOUS
 10
0.015740
 20
-0.884228
  0
VERTEX
  8
PLAN_1
 62
     2
  6
CONTINUOUS
 10
0.006598
 20
-0.884228
  0
VERTEX
  8
PLAN_1
 62
     2
  6
CONTINUOUS
 10
0.006598
 20
-0.808579
  0
SEQEND
  8
0
  0
POLYLINE
  8
PLAN_1
 62
     2
  6
CONTINUOUS
 66
     1
 40
0.003000
 41
0.003000
  0
VERTEX
  8
PLAN_1
 62
     2
  6
CONTINUOUS
 10
0.029957
 20
-0.856307
  0
VERTEX
  8
PLAN_1
 62
     2
  6
CONTINUOUS
 10
0.033508
 20
-0.855799
  0
VERTEX
  8
PLAN_1
 62
     2
  6
CONTINUOUS
 10
0.036555
 20
-0.854783
  0
VERTEX
  8
PLAN_1
 62
     2
  6
CONTINUOUS
 10
0.039094
 20
-0.852752
  0
VERTEX
  8
PLAN_1
 62
     2
  6
CONTINUOUS
 10
0.041126
 20
-0.850213
  0
VERTEX
  8
PLAN_1
 62
     2
  6
CONTINUOUS
 10
0.042650
 20
-0.847165
  0
VERTEX
  8
PLAN_1
 62
     2
  6
CONTINUOUS
 10
0.043665
 20
-0.843614
  0
VERTEX
  8
PLAN_1
 62
     2
  6
CONTINUOUS
 10
0.044681
 20
-0.839551
  0
VERTEX
  8
PLAN_1
 62
     2
  6
CONTINUOUS
 10
0.044681
 20
-0.835488
  0
VERTEX
  8
PLAN_1
 62
     2
  6
CONTINUOUS
 10
0.044681
 20
-0.832441
  0
VERTEX
  8
PLAN_1
 62
     2
  6
CONTINUOUS
 10
0.044173
 20
-0.829398
  0
VERTEX
  8
PLAN_1
 62
     2
  6
CONTINUOUS
 10
0.043665
 20
-0.825843
  0
VERTEX
  8
PLAN_1
 62
     2
  6
CONTINUOUS
 10
0.042650
 20
-0.822795
  0
VERTEX
  8
PLAN_1
 62
     2
  6
CONTINUOUS
 10
0.040618
 20
-0.819748
  0
VERTEX
  8
PLAN_1
 62
     2
  6
CONTINUOUS
 10
0.038079
 20
-0.817213
  0
VERTEX
  8
PLAN_1
 62
     2
  6
CONTINUOUS
 10
0.036555
 20
-0.816197
  0
VERTEX
  8
PLAN_1
 62
     2
  6
CONTINUOUS
 10
0.034524
 20
-0.815689
  0
VERTEX
  8
PLAN_1
 62
     2
  6
CONTINUOUS
 10
0.032492
 20
-0.815181
  0
VERTEX
  8
PLAN_1
 62
     2
  6
CONTINUOUS
 10
0.029957
 20
-0.815181
  0
VERTEX
  8
PLAN_1
 62
     2
  6
CONTINUOUS
 10
0.027417
 20
-0.815181
  0
VERTEX
  8
PLAN_1
 62
     2
  6
CONTINUOUS
 10
0.025386
 20
-0.815689
  0
VERTEX
  8
PLAN_1
 62
     2
  6
CONTINUOUS
 10
0.023354
 20
-0.816197
  0
VERTEX
  8
PLAN_1
 62
     2
  6
CONTINUOUS
 10
0.021831
 20
-0.817213
  0
VERTEX
  8
PLAN_1
 62
     2
  6
CONTINUOUS
 10
0.019295
 20
-0.820256
  0
VERTEX
  8
PLAN_1
 62
     2
  6
CONTINUOUS
 10
0.017772
 20
-0.823303
  0
VERTEX
  8
PLAN_1
 62
     2
  6
CONTINUOUS
 10
0.016248
 20
-0.826858
  0
VERTEX
  8
PLAN_1
 62
     2
  6
CONTINUOUS
 10
0.015740
 20
-0.830921
  0
VERTEX
  8
PLAN_1
 62
     2
  6
CONTINUOUS
 10
0.015232
 20
-0.834472
  0
VERTEX
  8
PLAN_1
 62
     2
  6
CONTINUOUS
 10
0.015232
 20
-0.838028
  0
VERTEX
  8
PLAN_1
 62
     2
  6
CONTINUOUS
 10
0.015740
 20
-0.843106
  0
VERTEX
  8
PLAN_1
 62
     2
  6
CONTINUOUS
 10
0.016756
 20
-0.847165
  0
VERTEX
  8
PLAN_1
 62
     2
  6
CONTINUOUS
 10
0.018280
 20
-0.850213
  0
VERTEX
  8
PLAN_1
 62
     2
  6
CONTINUOUS
 10
0.020307
 20
-0.852752
  0
VERTEX
  8
PLAN_1
 62
     2
  6
CONTINUOUS
 10
0.022846
 20
-0.854276
  0
VERTEX
  8
PLAN_1
 62
     2
  6
CONTINUOUS
 10
0.025386
 20
-0.855799
  0
VERTEX
  8
PLAN_1
 62
     2
  6
CONTINUOUS
 10
0.027925
 20
-0.856307
  0
VERTEX
  8
PLAN_1
 62
     2
  6
CONTINUOUS
 10
0.029957
 20
-0.856307
  0
SEQEND
  8
0
  0
POLYLINE
  8
PLAN_1
 62
     2
  6
CONTINUOUS
 66
     1
 40
0.003000
 41
0.003000
  0
VERTEX
  8
PLAN_1
 62
     2
  6
CONTINUOUS
 10
0.087327
 20
-0.807055
  0
VERTEX
  8
PLAN_1
 62
     2
  6
CONTINUOUS
 10
0.090374
 20
-0.807055
  0
VERTEX
  8
PLAN_1
 62
     2
  6
CONTINUOUS
 10
0.093421
 20
-0.807563
  0
VERTEX
  8
PLAN_1
 62
     2
  6
CONTINUOUS
 10
0.095961
 20
-0.808071
  0
VERTEX
  8
PLAN_1
 62
     2
  6
CONTINUOUS
 10
0.098496
 20
-0.809087
  0
VERTEX
  8
PLAN_1
 62
     2
  6
CONTINUOUS
 10
0.100528
 20
-0.810610
  0
VERTEX
  8
PLAN_1
 62
     2
  6
CONTINUOUS
 10
0.103067
 20
-0.812134
  0
VERTEX
  8
PLAN_1
 62
     2
  6
CONTINUOUS
 10
0.104591
 20
-0.814165
  0
VERTEX
  8
PLAN_1
 62
     2
  6
CONTINUOUS
 10
0.106622
 20
-0.815689
  0
VERTEX
  8
PLAN_1
 62
     2
  6
CONTINUOUS
 10
0.109161
 20
-0.820256
  0
VERTEX
  8
PLAN_1
 62
     2
  6
CONTINUOUS
 10
0.111189
 20
-0.825335
  0
VERTEX
  8
PLAN_1
 62
     2
  6
CONTINUOUS
 10
0.112205
 20
-0.830413
  0
VERTEX
  8
PLAN_1
 62
     2
  6
CONTINUOUS
 10
0.112713
 20
-0.835488
  0
VERTEX
  8
PLAN_1
 62
     2
  6
CONTINUOUS
 10
0.112205
 20
-0.840567
  0
VERTEX
  8
PLAN_1
 62
     2
  6
CONTINUOUS
 10
0.111189
 20
-0.846150
  0
VERTEX
  8
PLAN_1
 62
     2
  6
CONTINUOUS
 10
0.109161
 20
-0.850720
  0
VERTEX
  8
PLAN_1
 62
     2
  6
CONTINUOUS
 10
0.106622
 20
-0.855291
  0
VERTEX
  8
PLAN_1
 62
     2
  6
CONTINUOUS
 10
0.104591
 20
-0.857323
  0
VERTEX
  8
PLAN_1
 62
     2
  6
CONTINUOUS
 10
0.103067
 20
-0.858843
  0
VERTEX
  8
PLAN_1
 62
     2
  6
CONTINUOUS
 10
0.100528
 20
-0.860366
  0
VERTEX
  8
PLAN_1
 62
     2
  6
CONTINUOUS
 10
0.098496
 20
-0.861890
  0
VERTEX
  8
PLAN_1
 62
     2
  6
CONTINUOUS
 10
0.095961
 20
-0.862906
  0
VERTEX
  8
PLAN_1
 62
     2
  6
CONTINUOUS
 10
0.093421
 20
-0.863413
  0
VERTEX
  8
PLAN_1
 62
     2
  6
CONTINUOUS
 10
0.090374
 20
-0.863921
  0
VERTEX
  8
PLAN_1
 62
     2
  6
CONTINUOUS
 10
0.087327
 20
-0.864429
  0
VERTEX
  8
PLAN_1
 62
     2
  6
CONTINUOUS
 10
0.084280
 20
-0.863921
  0
VERTEX
  8
PLAN_1
 62
     2
  6
CONTINUOUS
 10
0.081236
 20
-0.863413
  0
VERTEX
  8
PLAN_1
 62
     2
  6
CONTINUOUS
 10
0.078189
 20
-0.862906
  0
VERTEX
  8
PLAN_1
 62
     2
  6
CONTINUOUS
 10
0.076157
 20
-0.861890
  0
VERTEX
  8
PLAN_1
 62
     2
  6
CONTINUOUS
 10
0.073618
 20
-0.860366
  0
VERTEX
  8
PLAN_1
 62
     2
  6
CONTINUOUS
 10
0.071587
 20
-0.858843
  0
VERTEX
  8
PLAN_1
 62
     2
  6
CONTINUOUS
 10
0.069559
 20
-0.857323
  0
VERTEX
  8
PLAN_1
 62
     2
  6
CONTINUOUS
 10
0.068035
 20
-0.855291
  0
VERTEX
  8
PLAN_1
 62
     2
  6
CONTINUOUS
 10
0.065496
 20
-0.850720
  0
VERTEX
  8
PLAN_1
 62
     2
  6
CONTINUOUS
 10
0.063465
 20
-0.846150
  0
VERTEX
  8
PLAN_1
 62
     2
  6
CONTINUOUS
 10
0.062449
 20
-0.840567
  0
VERTEX
  8
PLAN_1
 62
     2
  6
CONTINUOUS
 10
0.061941
 20
-0.835488
  0
VERTEX
  8
PLAN_1
 62
     2
  6
CONTINUOUS
 10
0.062449
 20
-0.830413
  0
VERTEX
  8
PLAN_1
 62
     2
  6
CONTINUOUS
 10
0.063465
 20
-0.825335
  0
VERTEX
  8
PLAN_1
 62
     2
  6
CONTINUOUS
 10
0.065496
 20
-0.820256
  0
VERTEX
  8
PLAN_1
 62
     2
  6
CONTINUOUS
 10
0.068035
 20
-0.815689
  0
VERTEX
  8
PLAN_1
 62
     2
  6
CONTINUOUS
 10
0.069559
 20
-0.814165
  0
VERTEX
  8
PLAN_1
 62
     2
  6
CONTINUOUS
 10
0.071587
 20
-0.812134
  0
VERTEX
  8
PLAN_1
 62
     2
  6
CONTINUOUS
 10
0.073618
 20
-0.810610
  0
VERTEX
  8
PLAN_1
 62
     2
  6
CONTINUOUS
 10
0.076157
 20
-0.809087
  0
VERTEX
  8
PLAN_1
 62
     2
  6
CONTINUOUS
 10
0.078189
 20
-0.808071
  0
VERTEX
  8
PLAN_1
 62
     2
  6
CONTINUOUS
 10
0.081236
 20
-0.807563
  0
VERTEX
  8
PLAN_1
 62
     2
  6
CONTINUOUS
 10
0.084280
 20
-0.807055
  0
VERTEX
  8
PLAN_1
 62
     2
  6
CONTINUOUS
 10
0.087327
 20
-0.807055
  0
SEQEND
  8
0
  0
POLYLINE
  8
PLAN_1
 62
     2
  6
CONTINUOUS
 66
     1
 40
0.003000
 41
0.003000
  0
VERTEX
  8
PLAN_1
 62
     2
  6
CONTINUOUS
 10
0.087327
 20
-0.856307
  0
VERTEX
  8
PLAN_1
 62
     2
  6
CONTINUOUS
 10
0.089358
 20
-0.856307
  0
VERTEX
  8
PLAN_1
 62
     2
  6
CONTINUOUS
 10
0.091898
 20
-0.855799
  0
VERTEX
  8
PLAN_1
 62
     2
  6
CONTINUOUS
 10
0.093421
 20
-0.854783
  0
VERTEX
  8
PLAN_1
 62
     2
  6
CONTINUOUS
 10
0.095453
 20
-0.854276
  0
VERTEX
  8
PLAN_1
 62
     2
  6
CONTINUOUS
 10
0.097988
 20
-0.851736
  0
VERTEX
  8
PLAN_1
 62
     2
  6
CONTINUOUS
 10
0.100020
 20
-0.848689
  0
VERTEX
  8
PLAN_1
 62
     2
  6
CONTINUOUS
 10
0.101543
 20
-0.845134
  0
VERTEX
  8
PLAN_1
 62
     2
  6
CONTINUOUS
 10
0.102559
 20
-0.842091
  0
VERTEX
  8
PLAN_1
 62
     2
  6
CONTINUOUS
 10
0.103067
 20
-0.838535
  0
VERTEX
  8
PLAN_1
 62
     2
  6
CONTINUOUS
 10
0.103067
 20
-0.835488
  0
VERTEX
  8
PLAN_1
 62
     2
  6
CONTINUOUS
 10
0.103067
 20
-0.832441
  0
VERTEX
  8
PLAN_1
 62
     2
  6
CONTINUOUS
 10
0.102559
 20
-0.829398
  0
VERTEX
  8
PLAN_1
 62
     2
  6
CONTINUOUS
 10
0.101543
 20
-0.825843
  0
VERTEX
  8
PLAN_1
 62
     2
  6
CONTINUOUS
 10
0.100020
 20
-0.822287
  0
VERTEX
  8
PLAN_1
 62
     2
  6
CONTINUOUS
 10
0.097988
 20
-0.819240
  0
VERTEX
  8
PLAN_1
 62
     2
  6
CONTINUOUS
 10
0.095453
 20
-0.816705
  0
VERTEX
  8
PLAN_1
 62
     2
  6
CONTINUOUS
 10
0.093421
 20
-0.816197
  0
VERTEX
  8
PLAN_1
 62
     2
  6
CONTINUOUS
 10
0.091898
 20
-0.815181
  0
VERTEX
  8
PLAN_1
 62
     2
  6
CONTINUOUS
 10
0.089358
 20
-0.814673
  0
VERTEX
  8
PLAN_1
 62
     2
  6
CONTINUOUS
 10
0.087327
 20
-0.814673
  0
VERTEX
  8
PLAN_1
 62
     2
  6
CONTINUOUS
 10
0.084787
 20
-0.814673
  0
VERTEX
  8
PLAN_1
 62
     2
  6
CONTINUOUS
 10
0.082760
 20
-0.815181
  0
VERTEX
  8
PLAN_1
 62
     2
  6
CONTINUOUS
 10
0.080728
 20
-0.816197
  0
VERTEX
  8
PLAN_1
 62
     2
  6
CONTINUOUS
 10
0.079205
 20
-0.816705
  0
VERTEX
  8
PLAN_1
 62
     2
  6
CONTINUOUS
 10
0.076665
 20
-0.819240
  0
VERTEX
  8
PLAN_1
 62
     2
  6
CONTINUOUS
 10
0.074634
 20
-0.822287
  0
VERTEX
  8
PLAN_1
 62
     2
  6
CONTINUOUS
 10
0.073110
 20
-0.825843
  0
VERTEX
  8
PLAN_1
 62
     2
  6
CONTINUOUS
 10
0.072094
 20
-0.829398
  0
VERTEX
  8
PLAN_1
 62
     2
  6
CONTINUOUS
 10
0.071587
 20
-0.832441
  0
VERTEX
  8
PLAN_1
 62
     2
  6
CONTINUOUS
 10
0.071587
 20
-0.835488
  0
VERTEX
  8
PLAN_1
 62
     2
  6
CONTINUOUS
 10
0.071587
 20
-0.838535
  0
VERTEX
  8
PLAN_1
 62
     2
  6
CONTINUOUS
 10
0.072094
 20
-0.842091
  0
VERTEX
  8
PLAN_1
 62
     2
  6
CONTINUOUS
 10
0.073110
 20
-0.845134
  0
VERTEX
  8
PLAN_1
 62
     2
  6
CONTINUOUS
 10
0.074634
 20
-0.848689
  0
VERTEX
  8
PLAN_1
 62
     2
  6
CONTINUOUS
 10
0.076665
 20
-0.851736
  0
VERTEX
  8
PLAN_1
 62
     2
  6
CONTINUOUS
 10
0.079205
 20
-0.854276
  0
VERTEX
  8
PLAN_1
 62
     2
  6
CONTINUOUS
 10
0.080728
 20
-0.854783
  0
VERTEX
  8
PLAN_1
 62
     2
  6
CONTINUOUS
 10
0.082760
 20
-0.855799
  0
VERTEX
  8
PLAN_1
 62
     2
  6
CONTINUOUS
 10
0.084787
 20
-0.856307
  0
VERTEX
  8
PLAN_1
 62
     2
  6
CONTINUOUS
 10
0.087327
 20
-0.856307
  0
SEQEND
  8
0
  0
POLYLINE
  8
PLAN_1
 62
     2
  6
CONTINUOUS
 66
     1
 40
0.003000
 41
0.003000
  0
VERTEX
  8
PLAN_1
 62
     2
  6
CONTINUOUS
 10
0.158409
 20
-0.862906
  0
VERTEX
  8
PLAN_1
 62
     2
  6
CONTINUOUS
 10
0.158409
 20
-0.854783
  0
VERTEX
  8
PLAN_1
 62
     2
  6
CONTINUOUS
 10
0.156886
 20
-0.856815
  0
VERTEX
  8
PLAN_1
 62
     2
  6
CONTINUOUS
 10
0.155362
 20
-0.858843
  0
VERTEX
  8
PLAN_1
 62
     2
  6
CONTINUOUS
 10
0.153331
 20
-0.860366
  0
VERTEX
  8
PLAN_1
 62
     2
  6
CONTINUOUS
 10
0.151299
 20
-0.861890
  0
VERTEX
  8
PLAN_1
 62
     2
  6
CONTINUOUS
 10
0.149268
 20
-0.862906
  0
VERTEX
  8
PLAN_1
 62
     2
  6
CONTINUOUS
 10
0.146732
 20
-0.863921
  0
VERTEX
  8
PLAN_1
 62
     2
  6
CONTINUOUS
 10
0.144193
 20
-0.864429
  0
VERTEX
  8
PLAN_1
 62
     2
  6
CONTINUOUS
 10
0.141146
 20
-0.864429
  0
VERTEX
  8
PLAN_1
 62
     2
  6
CONTINUOUS
 10
0.138098
 20
-0.863921
  0
VERTEX
  8
PLAN_1
 62
     2
  6
CONTINUOUS
 10
0.135055
 20
-0.863413
  0
VERTEX
  8
PLAN_1
 62
     2
  6
CONTINUOUS
 10
0.132008
 20
-0.862398
  0
VERTEX
  8
PLAN_1
 62
     2
  6
CONTINUOUS
 10
0.128961
 20
-0.860874
  0
VERTEX
  8
PLAN_1
 62
     2
  6
CONTINUOUS
 10
0.126929
 20
-0.858335
  0
VERTEX
  8
PLAN_1
 62
     2
  6
CONTINUOUS
 10
0.124898
 20
-0.855799
  0
VERTEX
  8
PLAN_1
 62
     2
  6
CONTINUOUS
 10
0.123882
 20
-0.851736
  0
VERTEX
  8
PLAN_1
 62
     2
  6
CONTINUOUS
 10
0.123374
 20
-0.847673
  0
VERTEX
  8
PLAN_1
 62
     2
  6
CONTINUOUS
 10
0.123374
 20
-0.808579
  0
VERTEX
  8
PLAN_1
 62
     2
  6
CONTINUOUS
 10
0.132516
 20
-0.808579
  0
VERTEX
  8
PLAN_1
 62
     2
  6
CONTINUOUS
 10
0.132516
 20
-0.844630
  0
VERTEX
  8
PLAN_1
 62
     2
  6
CONTINUOUS
 10
0.132516
 20
-0.847673
  0
VERTEX
  8
PLAN_1
 62
     2
  6
CONTINUOUS
 10
0.133024
 20
-0.850213
  0
VERTEX
  8
PLAN_1
 62
     2
  6
CONTINUOUS
 10
0.134039
 20
-0.852244
  0
VERTEX
  8
PLAN_1
 62
     2
  6
CONTINUOUS
 10
0.135559
 20
-0.853768
  0
VERTEX
  8
PLAN_1
 62
     2
  6
CONTINUOUS
 10
0.137083
 20
-0.854783
  0
VERTEX
  8
PLAN_1
 62
     2
  6
CONTINUOUS
 10
0.138606
 20
-0.855799
  0
VERTEX
  8
PLAN_1
 62
     2
  6
CONTINUOUS
 10
0.140638
 20
-0.856307
  0
VERTEX
  8
PLAN_1
 62
     2
  6
CONTINUOUS
 10
0.143177
 20
-0.856307
  0
VERTEX
  8
PLAN_1
 62
     2
  6
CONTINUOUS
 10
0.146732
 20
-0.855799
  0
VERTEX
  8
PLAN_1
 62
     2
  6
CONTINUOUS
 10
0.150283
 20
-0.854783
  0
VERTEX
  8
PLAN_1
 62
     2
  6
CONTINUOUS
 10
0.152823
 20
-0.852752
  0
VERTEX
  8
PLAN_1
 62
     2
  6
CONTINUOUS
 10
0.154854
 20
-0.850213
  0
VERTEX
  8
PLAN_1
 62
     2
  6
CONTINUOUS
 10
0.156378
 20
-0.847673
  0
VERTEX
  8
PLAN_1
 62
     2
  6
CONTINUOUS
 10
0.157394
 20
-0.844630
  0
VERTEX
  8
PLAN_1
 62
     2
  6
CONTINUOUS
 10
0.157902
 20
-0.841583
  0
VERTEX
  8
PLAN_1
 62
     2
  6
CONTINUOUS
 10
0.157902
 20
-0.838535
  0
VERTEX
  8
PLAN_1
 62
     2
  6
CONTINUOUS
 10
0.157902
 20
-0.808579
  0
VERTEX
  8
PLAN_1
 62
     2
  6
CONTINUOUS
 10
0.167039
 20
-0.808579
  0
VERTEX
  8
PLAN_1
 62
     2
  6
CONTINUOUS
 10
0.167039
 20
-0.862906
  0
VERTEX
  8
PLAN_1
 62
     2
  6
CONTINUOUS
 10
0.158409
 20
-0.862906
  0
SEQEND
  8
0
  0
POLYLINE
  8
PLAN_1
 62
     2
  6
CONTINUOUS
 66
     1
 40
0.003000
 41
0.003000
  0
VERTEX
  8
PLAN_1
 62
     2
  6
CONTINUOUS
 10
0.191409
 20
-0.862906
  0
VERTEX
  8
PLAN_1
 62
     2
  6
CONTINUOUS
 10
0.182272
 20
-0.862906
  0
VERTEX
  8
PLAN_1
 62
     2
  6
CONTINUOUS
 10
0.182272
 20
-0.808579
  0
VERTEX
  8
PLAN_1
 62
     2
  6
CONTINUOUS
 10
0.190902
 20
-0.808579
  0
VERTEX
  8
PLAN_1
 62
     2
  6
CONTINUOUS
 10
0.190902
 20
-0.817213
  0
VERTEX
  8
PLAN_1
 62
     2
  6
CONTINUOUS
 10
0.192425
 20
-0.815181
  0
VERTEX
  8
PLAN_1
 62
     2
  6
CONTINUOUS
 10
0.193949
 20
-0.813150
  0
VERTEX
  8
PLAN_1
 62
     2
  6
CONTINUOUS
 10
0.195472
 20
-0.811118
  0
VERTEX
  8
PLAN_1
 62
     2
  6
CONTINUOUS
 10
0.197504
 20
-0.809594
  0
VERTEX
  8
PLAN_1
 62
     2
  6
CONTINUOUS
 10
0.199535
 20
-0.808579
  0
VERTEX
  8
PLAN_1
 62
     2
  6
CONTINUOUS
 10
0.201563
 20
-0.807563
  0
VERTEX
  8
PLAN_1
 62
     2
  6
CONTINUOUS
 10
0.203594
 20
-0.807055
  0
VERTEX
  8
PLAN_1
 62
     2
  6
CONTINUOUS
 10
0.206134
 20
-0.807055
  0
VERTEX
  8
PLAN_1
 62
     2
  6
CONTINUOUS
 10
0.206642
 20
-0.807055
  0
VERTEX
  8
PLAN_1
 62
     2
  6
CONTINUOUS
 10
0.207150
 20
-0.807055
  0
VERTEX
  8
PLAN_1
 62
     2
  6
CONTINUOUS
 10
0.207657
 20
-0.807055
  0
VERTEX
  8
PLAN_1
 62
     2
  6
CONTINUOUS
 10
0.208165
 20
-0.807055
  0
VERTEX
  8
PLAN_1
 62
     2
  6
CONTINUOUS
 10
0.208673
 20
-0.807055
  0
VERTEX
  8
PLAN_1
 62
     2
  6
CONTINUOUS
 10
0.208673
 20
-0.816705
  0
VERTEX
  8
PLAN_1
 62
     2
  6
CONTINUOUS
 10
0.205118
 20
-0.816705
  0
VERTEX
  8
PLAN_1
 62
     2
  6
CONTINUOUS
 10
0.202071
 20
-0.816705
  0
VERTEX
  8
PLAN_1
 62
     2
  6
CONTINUOUS
 10
0.199535
 20
-0.817720
  0
VERTEX
  8
PLAN_1
 62
     2
  6
CONTINUOUS
 10
0.196996
 20
-0.819240
  0
VERTEX
  8
PLAN_1
 62
     2
  6
CONTINUOUS
 10
0.194965
 20
-0.820764
  0
VERTEX
  8
PLAN_1
 62
     2
  6
CONTINUOUS
 10
0.193441
 20
-0.823303
  0
VERTEX
  8
PLAN_1
 62
     2
  6
CONTINUOUS
 10
0.192425
 20
-0.825335
  0
VERTEX
  8
PLAN_1
 62
     2
  6
CONTINUOUS
 10
0.191409
 20
-0.828382
  0
VERTEX
  8
PLAN_1
 62
     2
  6
CONTINUOUS
 10
0.191409
 20
-0.830921
  0
VERTEX
  8
PLAN_1
 62
     2
  6
CONTINUOUS
 10
0.191409
 20
-0.862906
  0
SEQEND
  8
0
  0
POLYLINE
  8
PLAN_1
 62
     2
  6
CONTINUOUS
 66
     1
 40
0.003000
 41
0.003000
  0
VERTEX
  8
PLAN_1
 62
     2
  6
CONTINUOUS
 10
-0.918972
 20
-0.949724
  0
VERTEX
  8
PLAN_1
 62
     2
  6
CONTINUOUS
 10
-0.918465
 20
-0.945157
  0
VERTEX
  8
PLAN_1
 62
     2
  6
CONTINUOUS
 10
-0.917449
 20
-0.941602
  0
VERTEX
  8
PLAN_1
 62
     2
  6
CONTINUOUS
 10
-0.915417
 20
-0.938555
  0
VERTEX
  8
PLAN_1
 62
     2
  6
CONTINUOUS
 10
-0.912878
 20
-0.936016
  0
VERTEX
  8
PLAN_1
 62
     2
  6
CONTINUOUS
 10
-0.909831
 20
-0.933988
  0
VERTEX
  8
PLAN_1
 62
     2
  6
CONTINUOUS
 10
-0.905772
 20
-0.932972
  0
VERTEX
  8
PLAN_1
 62
     2
  6
CONTINUOUS
 10
-0.901709
 20
-0.931957
  0
VERTEX
  8
PLAN_1
 62
     2
  6
CONTINUOUS
 10
-0.896630
 20
-0.931957
  0
VERTEX
  8
PLAN_1
 62
     2
  6
CONTINUOUS
 10
-0.894602
 20
-0.931957
  0
VERTEX
  8
PLAN_1
 62
     2
  6
CONTINUOUS
 10
-0.891555
 20
-0.931957
  0
VERTEX
  8
PLAN_1
 62
     2
  6
CONTINUOUS
 10
-0.888508
 20
-0.932972
  0
VERTEX
  8
PLAN_1
 62
     2
  6
CONTINUOUS
 10
-0.884953
 20
-0.933988
  0
VERTEX
  8
PLAN_1
 62
     2
  6
CONTINUOUS
 10
-0.881909
 20
-0.936016
  0
VERTEX
  8
PLAN_1
 62
     2
  6
CONTINUOUS
 10
-0.878862
 20
-0.938555
  0
VERTEX
  8
PLAN_1
 62
     2
  6
CONTINUOUS
 10
-0.877846
 20
-0.940587
  0
VERTEX
  8
PLAN_1
 62
     2
  6
CONTINUOUS
 10
-0.877339
 20
-0.942110
  0
VERTEX
  8
PLAN_1
 62
     2
  6
CONTINUOUS
 10
-0.876831
 20
-0.944650
  0
VERTEX
  8
PLAN_1
 62
     2
  6
CONTINUOUS
 10
-0.876323
 20
-0.947189
  0
VERTEX
  8
PLAN_1
 62
     2
  6
CONTINUOUS
 10
-0.876323
 20
-0.978157
  0
VERTEX
  8
PLAN_1
 62
     2
  6
CONTINUOUS
 10
-0.876323
 20
-0.979173
  0
VERTEX
  8
PLAN_1
 62
     2
  6
CONTINUOUS
 10
-0.876323
 20
-0.979681
  0
VERTEX
  8
PLAN_1
 62
     2
  6
CONTINUOUS
 10
-0.875815
 20
-0.980189
  0
VERTEX
  8
PLAN_1
 62
     2
  6
CONTINUOUS
 10
-0.875815
 20
-0.980697
  0
VERTEX
  8
PLAN_1
 62
     2
  6
CONTINUOUS
 10
-0.875307
 20
-0.981205
  0
VERTEX
  8
PLAN_1
 62
     2
  6
CONTINUOUS
 10
-0.874799
 20
-0.981205
  0
VERTEX
  8
PLAN_1
 62
     2
  6
CONTINUOUS
 10
-0.874291
 20
-0.981713
  0
VERTEX
  8
PLAN_1
 62
     2
  6
CONTINUOUS
 10
-0.873276
 20
-0.981713
  0
VERTEX
  8
PLAN_1
 62
     2
  6
CONTINUOUS
 10
-0.872768
 20
-0.981713
  0
VERTEX
  8
PLAN_1
 62
     2
  6
CONTINUOUS
 10
-0.872260
 20
-0.981205
  0
VERTEX
  8
PLAN_1
 62
     2
  6
CONTINUOUS
 10
-0.871752
 20
-0.981205
  0
VERTEX
  8
PLAN_1
 62
     2
  6
CONTINUOUS
 10
-0.871244
 20
-0.981205
  0
VERTEX
  8
PLAN_1
 62
     2
  6
CONTINUOUS
 10
-0.870740
 20
-0.981205
  0
VERTEX
  8
PLAN_1
 62
     2
  6
CONTINUOUS
 10
-0.870232
 20
-0.981205
  0
VERTEX
  8
PLAN_1
 62
     2
  6
CONTINUOUS
 10
-0.870232
 20
-0.987803
  0
VERTEX
  8
PLAN_1
 62
     2
  6
CONTINUOUS
 10
-0.871244
 20
-0.987803
  0
VERTEX
  8
PLAN_1
 62
     2
  6
CONTINUOUS
 10
-0.871752
 20
-0.988311
  0
VERTEX
  8
PLAN_1
 62
     2
  6
CONTINUOUS
 10
-0.872260
 20
-0.988311
  0
VERTEX
  8
PLAN_1
 62
     2
  6
CONTINUOUS
 10
-0.872768
 20
-0.988311
  0
VERTEX
  8
PLAN_1
 62
     2
  6
CONTINUOUS
 10
-0.873276
 20
-0.988819
  0
VERTEX
  8
PLAN_1
 62
     2
  6
CONTINUOUS
 10
-0.873783
 20
-0.988819
  0
VERTEX
  8
PLAN_1
 62
     2
  6
CONTINUOUS
 10
-0.874799
 20
-0.988819
  0
VERTEX
  8
PLAN_1
 62
     2
  6
CONTINUOUS
 10
-0.875307
 20
-0.988819
  0
VERTEX
  8
PLAN_1
 62
     2
  6
CONTINUOUS
 10
-0.878354
 20
-0.988819
  0
VERTEX
  8
PLAN_1
 62
     2
  6
CONTINUOUS
 10
-0.880386
 20
-0.988311
  0
VERTEX
  8
PLAN_1
 62
     2
  6
CONTINUOUS
 10
-0.881909
 20
-0.987295
  0
VERTEX
  8
PLAN_1
 62
     2
  6
CONTINUOUS
 10
-0.883433
 20
-0.986283
  0
VERTEX
  8
PLAN_1
 62
     2
  6
CONTINUOUS
 10
-0.883937
 20
-0.984760
  0
VERTEX
  8
PLAN_1
 62
     2
  6
CONTINUOUS
 10
-0.884445
 20
-0.983744
  0
VERTEX
  8
PLAN_1
 62
     2
  6
CONTINUOUS
 10
-0.884953
 20
-0.982220
  0
VERTEX
  8
PLAN_1
 62
     2
  6
CONTINUOUS
 10
-0.884953
 20
-0.980697
  0
VERTEX
  8
PLAN_1
 62
     2
  6
CONTINUOUS
 10
-0.886476
 20
-0.981713
  0
VERTEX
  8
PLAN_1
 62
     2
  6
CONTINUOUS
 10
-0.888000
 20
-0.983236
  0
VERTEX
  8
PLAN_1
 62
     2
  6
CONTINUOUS
 10
-0.890031
 20
-0.984760
  0
VERTEX
  8
PLAN_1
 62
     2
  6
CONTINUOUS
 10
-0.892571
 20
-0.986283
  0
VERTEX
  8
PLAN_1
 62
     2
  6
CONTINUOUS
 10
-0.895110
 20
-0.987295
  0
VERTEX
  8
PLAN_1
 62
     2
  6
CONTINUOUS
 10
-0.897646
 20
-0.988311
  0
VERTEX
  8
PLAN_1
 62
     2
  6
CONTINUOUS
 10
-0.901201
 20
-0.989327
  0
VERTEX
  8
PLAN_1
 62
     2
  6
CONTINUOUS
 10
-0.904756
 20
-0.989327
  0
VERTEX
  8
PLAN_1
 62
     2
  6
CONTINUOUS
 10
-0.908311
 20
-0.988819
  0
VERTEX
  8
PLAN_1
 62
     2
  6
CONTINUOUS
 10
-0.911862
 20
-0.988311
  0
VERTEX
  8
PLAN_1
 62
     2
  6
CONTINUOUS
 10
-0.914402
 20
-0.986787
  0
VERTEX
  8
PLAN_1
 62
     2
  6
CONTINUOUS
 10
-0.916941
 20
-0.984760
  0
VERTEX
  8
PLAN_1
 62
     2
  6
CONTINUOUS
 10
-0.918972
 20
-0.982728
  0
VERTEX
  8
PLAN_1
 62
     2
  6
CONTINUOUS
 10
-0.920496
 20
-0.980189
  0
VERTEX
  8
PLAN_1
 62
     2
  6
CONTINUOUS
 10
-0.921512
 20
-0.977142
  0
VERTEX
  8
PLAN_1
 62
     2
  6
CONTINUOUS
 10
-0.922020
 20
-0.973591
  0
VERTEX
  8
PLAN_1
 62
     2
  6
CONTINUOUS
 10
-0.922020
 20
-0.971559
  0
VERTEX
  8
PLAN_1
 62
     2
  6
CONTINUOUS
 10
-0.921512
 20
-0.969528
  0
VERTEX
  8
PLAN_1
 62
     2
  6
CONTINUOUS
 10
-0.920496
 20
-0.966480
  0
VERTEX
  8
PLAN_1
 62
     2
  6
CONTINUOUS
 10
-0.919480
 20
-0.963941
  0
VERTEX
  8
PLAN_1
 62
     2
  6
CONTINUOUS
 10
-0.917449
 20
-0.961402
  0
VERTEX
  8
PLAN_1
 62
     2
  6
CONTINUOUS
 10
-0.914402
 20
-0.959374
  0
VERTEX
  8
PLAN_1
 62
     2
  6
CONTINUOUS
 10
-0.910339
 20
-0.957850
  0
VERTEX
  8
PLAN_1
 62
     2
  6
CONTINUOUS
 10
-0.905264
 20
-0.956327
  0
VERTEX
  8
PLAN_1
 62
     2
  6
CONTINUOUS
 10
-0.890031
 20
-0.954803
  0
VERTEX
  8
PLAN_1
 62
     2
  6
CONTINUOUS
 10
-0.889524
 20
-0.954803
  0
VERTEX
  8
PLAN_1
 62
     2
  6
CONTINUOUS
 10
-0.888508
 20
-0.954295
  0
VERTEX
  8
PLAN_1
 62
     2
  6
CONTINUOUS
 10
-0.888000
 20
-0.953787
  0
VERTEX
  8
PLAN_1
 62
     2
  6
CONTINUOUS
 10
-0.886984
 20
-0.953280
  0
VERTEX
  8
PLAN_1
 62
     2
  6
CONTINUOUS
 10
-0.886476
 20
-0.952772
  0
VERTEX
  8
PLAN_1
 62
     2
  6
CONTINUOUS
 10
-0.885969
 20
-0.951248
  0
VERTEX
  8
PLAN_1
 62
     2
  6
CONTINUOUS
 10
-0.885461
 20
-0.950232
  0
VERTEX
  8
PLAN_1
 62
     2
  6
CONTINUOUS
 10
-0.885461
 20
-0.948201
  0
VERTEX
  8
PLAN_1
 62
     2
  6
CONTINUOUS
 10
-0.885461
 20
-0.946173
  0
VERTEX
  8
PLAN_1
 62
     2
  6
CONTINUOUS
 10
-0.886476
 20
-0.944650
  0
VERTEX
  8
PLAN_1
 62
     2
  6
CONTINUOUS
 10
-0.886984
 20
-0.943126
  0
VERTEX
  8
PLAN_1
 62
     2
  6
CONTINUOUS
 10
-0.888508
 20
-0.941602
  0
VERTEX
  8
PLAN_1
 62
     2
  6
CONTINUOUS
 10
-0.890539
 20
-0.940587
  0
VERTEX
  8
PLAN_1
 62
     2
  6
CONTINUOUS
 10
-0.892571
 20
-0.940079
  0
VERTEX
  8
PLAN_1
 62
     2
  6
CONTINUOUS
 10
-0.895110
 20
-0.939571
  0
VERTEX
  8
PLAN_1
 62
     2
  6
CONTINUOUS
 10
-0.898154
 20
-0.939571
  0
VERTEX
  8
PLAN_1
 62
     2
  6
CONTINUOUS
 10
-0.901709
 20
-0.939571
  0
VERTEX
  8
PLAN_1
 62
     2
  6
CONTINUOUS
 10
-0.904756
 20
-0.940587
  0
VERTEX
  8
PLAN_1
 62
     2
  6
CONTINUOUS
 10
-0.906787
 20
-0.941602
  0
VERTEX
  8
PLAN_1
 62
     2
  6
CONTINUOUS
 10
-0.908311
 20
-0.943126
  0
VERTEX
  8
PLAN_1
 62
     2
  6
CONTINUOUS
 10
-0.909327
 20
-0.944650
  0
VERTEX
  8
PLAN_1
 62
     2
  6
CONTINUOUS
 10
-0.909831
 20
-0.946681
  0
VERTEX
  8
PLAN_1
 62
     2
  6
CONTINUOUS
 10
-0.910339
 20
-0.948201
  0
VERTEX
  8
PLAN_1
 62
     2
  6
CONTINUOUS
 10
-0.910846
 20
-0.949724
  0
VERTEX
  8
PLAN_1
 62
     2
  6
CONTINUOUS
 10
-0.918972
 20
-0.949724
  0
SEQEND
  8
0
  0
POLYLINE
  8
PLAN_1
 62
     2
  6
CONTINUOUS
 66
     1
 40
0.003000
 41
0.003000
  0
VERTEX
  8
PLAN_1
 62
     2
  6
CONTINUOUS
 10
-0.885461
 20
-0.959882
  0
VERTEX
  8
PLAN_1
 62
     2
  6
CONTINUOUS
 10
-0.886476
 20
-0.960390
  0
VERTEX
  8
PLAN_1
 62
     2
  6
CONTINUOUS
 10
-0.886984
 20
-0.960894
  0
VERTEX
  8
PLAN_1
 62
     2
  6
CONTINUOUS
 10
-0.888000
 20
-0.961402
  0
VERTEX
  8
PLAN_1
 62
     2
  6
CONTINUOUS
 10
-0.889524
 20
-0.961402
  0
VERTEX
  8
PLAN_1
 62
     2
  6
CONTINUOUS
 10
-0.891555
 20
-0.961909
  0
VERTEX
  8
PLAN_1
 62
     2
  6
CONTINUOUS
 10
-0.893587
 20
-0.962417
  0
VERTEX
  8
PLAN_1
 62
     2
  6
CONTINUOUS
 10
-0.897138
 20
-0.962925
  0
VERTEX
  8
PLAN_1
 62
     2
  6
CONTINUOUS
 10
-0.900693
 20
-0.963433
  0
VERTEX
  8
PLAN_1
 62
     2
  6
CONTINUOUS
 10
-0.902724
 20
-0.963433
  0
VERTEX
  8
PLAN_1
 62
     2
  6
CONTINUOUS
 10
-0.904248
 20
-0.963941
  0
VERTEX
  8
PLAN_1
 62
     2
  6
CONTINUOUS
 10
-0.906280
 20
-0.964449
  0
VERTEX
  8
PLAN_1
 62
     2
  6
CONTINUOUS
 10
-0.908311
 20
-0.965465
  0
VERTEX
  8
PLAN_1
 62
     2
  6
CONTINUOUS
 10
-0.909831
 20
-0.966480
  0
VERTEX
  8
PLAN_1
 62
     2
  6
CONTINUOUS
 10
-0.911354
 20
-0.968004
  0
VERTEX
  8
PLAN_1
 62
     2
  6
CONTINUOUS
 10
-0.911862
 20
-0.970035
  0
VERTEX
  8
PLAN_1
 62
     2
  6
CONTINUOUS
 10
-0.912370
 20
-0.972067
  0
VERTEX
  8
PLAN_1
 62
     2
  6
CONTINUOUS
 10
-0.912370
 20
-0.974602
  0
VERTEX
  8
PLAN_1
 62
     2
  6
CONTINUOUS
 10
-0.911862
 20
-0.976126
  0
VERTEX
  8
PLAN_1
 62
     2
  6
CONTINUOUS
 10
-0.910846
 20
-0.977650
  0
VERTEX
  8
PLAN_1
 62
     2
  6
CONTINUOUS
 10
-0.909831
 20
-0.979173
  0
VERTEX
  8
PLAN_1
 62
     2
  6
CONTINUOUS
 10
-0.908819
 20
-0.980189
  0
VERTEX
  8
PLAN_1
 62
     2
  6
CONTINUOUS
 10
-0.906787
 20
-0.981205
  0
VERTEX
  8
PLAN_1
 62
     2
  6
CONTINUOUS
 10
-0.904756
 20
-0.981713
  0
VERTEX
  8
PLAN_1
 62
     2
  6
CONTINUOUS
 10
-0.902724
 20
-0.981713
  0
VERTEX
  8
PLAN_1
 62
     2
  6
CONTINUOUS
 10
-0.899169
 20
-0.981713
  0
VERTEX
  8
PLAN_1
 62
     2
  6
CONTINUOUS
 10
-0.896126
 20
-0.980697
  0
VERTEX
  8
PLAN_1
 62
     2
  6
CONTINUOUS
 10
-0.893587
 20
-0.979681
  0
VERTEX
  8
PLAN_1
 62
     2
  6
CONTINUOUS
 10
-0.891047
 20
-0.978157
  0
VERTEX
  8
PLAN_1
 62
     2
  6
CONTINUOUS
 10
-0.888508
 20
-0.976126
  0
VERTEX
  8
PLAN_1
 62
     2
  6
CONTINUOUS
 10
-0.886984
 20
-0.974094
  0
VERTEX
  8
PLAN_1
 62
     2
  6
CONTINUOUS
 10
-0.885969
 20
-0.971559
  0
VERTEX
  8
PLAN_1
 62
     2
  6
CONTINUOUS
 10
-0.885461
 20
-0.969020
  0
VERTEX
  8
PLAN_1
 62
     2
  6
CONTINUOUS
 10
-0.885461
 20
-0.959882
  0
SEQEND
  8
0
  0
POLYLINE
  8
PLAN_1
 62
     2
  6
CONTINUOUS
 66
     1
 40
0.003000
 41
0.003000
  0
VERTEX
  8
PLAN_1
 62
     2
  6
CONTINUOUS
 10
-0.815906
 20
-0.987803
  0
VERTEX
  8
PLAN_1
 62
     2
  6
CONTINUOUS
 10
-0.824535
 20
-0.987803
  0
VERTEX
  8
PLAN_1
 62
     2
  6
CONTINUOUS
 10
-0.824535
 20
-0.980189
  0
VERTEX
  8
PLAN_1
 62
     2
  6
CONTINUOUS
 10
-0.826059
 20
-0.982728
  0
VERTEX
  8
PLAN_1
 62
     2
  6
CONTINUOUS
 10
-0.828091
 20
-0.984760
  0
VERTEX
  8
PLAN_1
 62
     2
  6
CONTINUOUS
 10
-0.830122
 20
-0.986283
  0
VERTEX
  8
PLAN_1
 62
     2
  6
CONTINUOUS
 10
-0.831646
 20
-0.987803
  0
VERTEX
  8
PLAN_1
 62
     2
  6
CONTINUOUS
 10
-0.834181
 20
-0.988311
  0
VERTEX
  8
PLAN_1
 62
     2
  6
CONTINUOUS
 10
-0.836213
 20
-0.988819
  0
VERTEX
  8
PLAN_1
 62
     2
  6
CONTINUOUS
 10
-0.838244
 20
-0.989327
  0
VERTEX
  8
PLAN_1
 62
     2
  6
CONTINUOUS
 10
-0.840276
 20
-0.989327
  0
VERTEX
  8
PLAN_1
 62
     2
  6
CONTINUOUS
 10
-0.843323
 20
-0.989327
  0
VERTEX
  8
PLAN_1
 62
     2
  6
CONTINUOUS
 10
-0.846366
 20
-0.988311
  0
VERTEX
  8
PLAN_1
 62
     2
  6
CONTINUOUS
 10
-0.849413
 20
-0.987803
  0
VERTEX
  8
PLAN_1
 62
     2
  6
CONTINUOUS
 10
-0.851953
 20
-0.986283
  0
VERTEX
  8
PLAN_1
 62
     2
  6
CONTINUOUS
 10
-0.853984
 20
-0.984760
  0
VERTEX
  8
PLAN_1
 62
     2
  6
CONTINUOUS
 10
-0.856016
 20
-0.983236
  0
VERTEX
  8
PLAN_1
 62
     2
  6
CONTINUOUS
 10
-0.857539
 20
-0.981205
  0
VERTEX
  8
PLAN_1
 62
     2
  6
CONTINUOUS
 10
-0.859059
 20
-0.979173
  0
VERTEX
  8
PLAN_1
 62
     2
  6
CONTINUOUS
 10
-0.861598
 20
-0.974094
  0
VERTEX
  8
PLAN_1
 62
     2
  6
CONTINUOUS
 10
-0.863122
 20
-0.969020
  0
VERTEX
  8
PLAN_1
 62
     2
  6
CONTINUOUS
 10
-0.863630
 20
-0.963941
  0
VERTEX
  8
PLAN_1
 62
     2
  6
CONTINUOUS
 10
-0.864138
 20
-0.958866
  0
VERTEX
  8
PLAN_1
 62
     2
  6
CONTINUOUS
 10
-0.863630
 20
-0.953280
  0
VERTEX
  8
PLAN_1
 62
     2
  6
CONTINUOUS
 10
-0.862614
 20
-0.948201
  0
VERTEX
  8
PLAN_1
 62
     2
  6
CONTINUOUS
 10
-0.860583
 20
-0.943634
  0
VERTEX
  8
PLAN_1
 62
     2
  6
CONTINUOUS
 10
-0.858043
 20
-0.939571
  0
VERTEX
  8
PLAN_1
 62
     2
  6
CONTINUOUS
 10
-0.856524
 20
-0.938047
  0
VERTEX
  8
PLAN_1
 62
     2
  6
CONTINUOUS
 10
-0.855000
 20
-0.936524
  0
VERTEX
  8
PLAN_1
 62
     2
  6
CONTINUOUS
 10
-0.852969
 20
-0.935000
  0
VERTEX
  8
PLAN_1
 62
     2
  6
CONTINUOUS
 10
-0.850937
 20
-0.933988
  0
VERTEX
  8
PLAN_1
 62
     2
  6
CONTINUOUS
 10
-0.848906
 20
-0.932972
  0
VERTEX
  8
PLAN_1
 62
     2
  6
CONTINUOUS
 10
-0.846366
 20
-0.932465
  0
VERTEX
  8
PLAN_1
 62
     2
  6
CONTINUOUS
 10
-0.843831
 20
-0.931957
  0
VERTEX
  8
PLAN_1
 62
     2
  6
CONTINUOUS
 10
-0.841291
 20
-0.931957
  0
VERTEX
  8
PLAN_1
 62
     2
  6
CONTINUOUS
 10
-0.837736
 20
-0.931957
  0
VERTEX
  8
PLAN_1
 62
     2
  6
CONTINUOUS
 10
-0.835197
 20
-0.932972
  0
VERTEX
  8
PLAN_1
 62
     2
  6
CONTINUOUS
 10
-0.832657
 20
-0.933988
  0
VERTEX
  8
PLAN_1
 62
     2
  6
CONTINUOUS
 10
-0.830630
 20
-0.935000
  0
VERTEX
  8
PLAN_1
 62
     2
  6
CONTINUOUS
 10
-0.828598
 20
-0.936524
  0
VERTEX
  8
PLAN_1
 62
     2
  6
CONTINUOUS
 10
-0.827075
 20
-0.938047
  0
VERTEX
  8
PLAN_1
 62
     2
  6
CONTINUOUS
 10
-0.826059
 20
-0.939571
  0
VERTEX
  8
PLAN_1
 62
     2
  6
CONTINUOUS
 10
-0.825043
 20
-0.941094
  0
VERTEX
  8
PLAN_1
 62
     2
  6
CONTINUOUS
 10
-0.825043
 20
-0.940079
  0
VERTEX
  8
PLAN_1
 62
     2
  6
CONTINUOUS
 10
-0.825043
 20
-0.913169
  0
VERTEX
  8
PLAN_1
 62
     2
  6
CONTINUOUS
 10
-0.815906
 20
-0.913169
  0
VERTEX
  8
PLAN_1
 62
     2
  6
CONTINUOUS
 10
-0.815906
 20
-0.987803
  0
SEQEND
  8
0
  0
POLYLINE
  8
PLAN_1
 62
     2
  6
CONTINUOUS
 66
     1
 40
0.003000
 41
0.003000
  0
VERTEX
  8
PLAN_1
 62
     2
  6
CONTINUOUS
 10
-0.839768
 20
-0.981205
  0
VERTEX
  8
PLAN_1
 62
     2
  6
CONTINUOUS
 10
-0.837736
 20
-0.981205
  0
VERTEX
  8
PLAN_1
 62
     2
  6
CONTINUOUS
 10
-0.835197
 20
-0.980697
  0
VERTEX
  8
PLAN_1
 62
     2
  6
CONTINUOUS
 10
-0.832657
 20
-0.979681
  0
VERTEX
  8
PLAN_1
 62
     2
  6
CONTINUOUS
 10
-0.830122
 20
-0.977650
  0
VERTEX
  8
PLAN_1
 62
     2
  6
CONTINUOUS
 10
-0.828091
 20
-0.975110
  0
VERTEX
  8
PLAN_1
 62
     2
  6
CONTINUOUS
 10
-0.826567
 20
-0.972067
  0
VERTEX
  8
PLAN_1
 62
     2
  6
CONTINUOUS
 10
-0.825551
 20
-0.968004
  0
VERTEX
  8
PLAN_1
 62
     2
  6
CONTINUOUS
 10
-0.825043
 20
-0.962925
  0
VERTEX
  8
PLAN_1
 62
     2
  6
CONTINUOUS
 10
-0.825043
 20
-0.959374
  0
VERTEX
  8
PLAN_1
 62
     2
  6
CONTINUOUS
 10
-0.825551
 20
-0.955819
  0
VERTEX
  8
PLAN_1
 62
     2
  6
CONTINUOUS
 10
-0.826059
 20
-0.951756
  0
VERTEX
  8
PLAN_1
 62
     2
  6
CONTINUOUS
 10
-0.827583
 20
-0.948201
  0
VERTEX
  8
PLAN_1
 62
     2
  6
CONTINUOUS
 10
-0.829106
 20
-0.945157
  0
VERTEX
  8
PLAN_1
 62
     2
  6
CONTINUOUS
 10
-0.831646
 20
-0.942618
  0
VERTEX
  8
PLAN_1
 62
     2
  6
CONTINUOUS
 10
-0.833673
 20
-0.941602
  0
VERTEX
  8
PLAN_1
 62
     2
  6
CONTINUOUS
 10
-0.835197
 20
-0.940587
  0
VERTEX
  8
PLAN_1
 62
     2
  6
CONTINUOUS
 10
-0.837228
 20
-0.940079
  0
VERTEX
  8
PLAN_1
 62
     2
  6
CONTINUOUS
 10
-0.839768
 20
-0.940079
  0
VERTEX
  8
PLAN_1
 62
     2
  6
CONTINUOUS
 10
-0.842307
 20
-0.940079
  0
VERTEX
  8
PLAN_1
 62
     2
  6
CONTINUOUS
 10
-0.844339
 20
-0.940587
  0
VERTEX
  8
PLAN_1
 62
     2
  6
CONTINUOUS
 10
-0.846366
 20
-0.941094
  0
VERTEX
  8
PLAN_1
 62
     2
  6
CONTINUOUS
 10
-0.847890
 20
-0.942110
  0
VERTEX
  8
PLAN_1
 62
     2
  6
CONTINUOUS
 10
-0.850429
 20
-0.944650
  0
VERTEX
  8
PLAN_1
 62
     2
  6
CONTINUOUS
 10
-0.852461
 20
-0.947697
  0
VERTEX
  8
PLAN_1
 62
     2
  6
CONTINUOUS
 10
-0.853476
 20
-0.950740
  0
VERTEX
  8
PLAN_1
 62
     2
  6
CONTINUOUS
 10
-0.854492
 20
-0.954295
  0
VERTEX
  8
PLAN_1
 62
     2
  6
CONTINUOUS
 10
-0.854492
 20
-0.957343
  0
VERTEX
  8
PLAN_1
 62
     2
  6
CONTINUOUS
 10
-0.854492
 20
-0.960390
  0
VERTEX
  8
PLAN_1
 62
     2
  6
CONTINUOUS
 10
-0.854492
 20
-0.964957
  0
VERTEX
  8
PLAN_1
 62
     2
  6
CONTINUOUS
 10
-0.853476
 20
-0.968512
  0
VERTEX
  8
PLAN_1
 62
     2
  6
CONTINUOUS
 10
-0.852461
 20
-0.972067
  0
VERTEX
  8
PLAN_1
 62
     2
  6
CONTINUOUS
 10
-0.850937
 20
-0.975618
  0
VERTEX
  8
PLAN_1
 62
     2
  6
CONTINUOUS
 10
-0.848906
 20
-0.978157
  0
VERTEX
  8
PLAN_1
 62
     2
  6
CONTINUOUS
 10
-0.846366
 20
-0.979681
  0
VERTEX
  8
PLAN_1
 62
     2
  6
CONTINUOUS
 10
-0.843323
 20
-0.981205
  0
VERTEX
  8
PLAN_1
 62
     2
  6
CONTINUOUS
 10
-0.839768
 20
-0.981205
  0
SEQEND
  8
0
  0
POLYLINE
  8
PLAN_1
 62
     2
  6
CONTINUOUS
 66
     1
 40
0.003000
 41
0.003000
  0
VERTEX
  8
PLAN_1
 62
     2
  6
CONTINUOUS
 10
-0.803213
 20
-0.949724
  0
VERTEX
  8
PLAN_1
 62
     2
  6
CONTINUOUS
 10
-0.802705
 20
-0.945157
  0
VERTEX
  8
PLAN_1
 62
     2
  6
CONTINUOUS
 10
-0.801689
 20
-0.941602
  0
VERTEX
  8
PLAN_1
 62
     2
  6
CONTINUOUS
 10
-0.799657
 20
-0.938555
  0
VERTEX
  8
PLAN_1
 62
     2
  6
CONTINUOUS
 10
-0.797118
 20
-0.936016
  0
VERTEX
  8
PLAN_1
 62
     2
  6
CONTINUOUS
 10
-0.793563
 20
-0.933988
  0
VERTEX
  8
PLAN_1
 62
     2
  6
CONTINUOUS
 10
-0.790012
 20
-0.932972
  0
VERTEX
  8
PLAN_1
 62
     2
  6
CONTINUOUS
 10
-0.785949
 20
-0.931957
  0
VERTEX
  8
PLAN_1
 62
     2
  6
CONTINUOUS
 10
-0.780870
 20
-0.931957
  0
VERTEX
  8
PLAN_1
 62
     2
  6
CONTINUOUS
 10
-0.778843
 20
-0.931957
  0
VERTEX
  8
PLAN_1
 62
     2
  6
CONTINUOUS
 10
-0.775795
 20
-0.931957
  0
VERTEX
  8
PLAN_1
 62
     2
  6
CONTINUOUS
 10
-0.772748
 20
-0.932972
  0
VERTEX
  8
PLAN_1
 62
     2
  6
CONTINUOUS
 10
-0.769193
 20
-0.933988
  0
VERTEX
  8
PLAN_1
 62
     2
  6
CONTINUOUS
 10
-0.766150
 20
-0.936016
  0
VERTEX
  8
PLAN_1
 62
     2
  6
CONTINUOUS
 10
-0.763102
 20
-0.938555
  0
VERTEX
  8
PLAN_1
 62
     2
  6
CONTINUOUS
 10
-0.762087
 20
-0.940587
  0
VERTEX
  8
PLAN_1
 62
     2
  6
CONTINUOUS
 10
-0.761579
 20
-0.942110
  0
VERTEX
  8
PLAN_1
 62
     2
  6
CONTINUOUS
 10
-0.761071
 20
-0.944650
  0
VERTEX
  8
PLAN_1
 62
     2
  6
CONTINUOUS
 10
-0.760563
 20
-0.947189
  0
VERTEX
  8
PLAN_1
 62
     2
  6
CONTINUOUS
 10
-0.760563
 20
-0.978157
  0
VERTEX
  8
PLAN_1
 62
     2
  6
CONTINUOUS
 10
-0.760563
 20
-0.979173
  0
VERTEX
  8
PLAN_1
 62
     2
  6
CONTINUOUS
 10
-0.760563
 20
-0.979681
  0
VERTEX
  8
PLAN_1
 62
     2
  6
CONTINUOUS
 10
-0.760055
 20
-0.980189
  0
VERTEX
  8
PLAN_1
 62
     2
  6
CONTINUOUS
 10
-0.760055
 20
-0.980697
  0
VERTEX
  8
PLAN_1
 62
     2
  6
CONTINUOUS
 10
-0.759547
 20
-0.981205
  0
VERTEX
  8
PLAN_1
 62
     2
  6
CONTINUOUS
 10
-0.759039
 20
-0.981205
  0
VERTEX
  8
PLAN_1
 62
     2
  6
CONTINUOUS
 10
-0.758531
 20
-0.981713
  0
VERTEX
  8
PLAN_1
 62
     2
  6
CONTINUOUS
 10
-0.757516
 20
-0.981713
  0
VERTEX
  8
PLAN_1
 62
     2
  6
CONTINUOUS
 10
-0.757008
 20
-0.981713
  0
VERTEX
  8
PLAN_1
 62
     2
  6
CONTINUOUS
 10
-0.756500
 20
-0.981205
  0
VERTEX
  8
PLAN_1
 62
     2
  6
CONTINUOUS
 10
-0.755992
 20
-0.981205
  0
VERTEX
  8
PLAN_1
 62
     2
  6
CONTINUOUS
 10
-0.755484
 20
-0.981205
  0
VERTEX
  8
PLAN_1
 62
     2
  6
CONTINUOUS
 10
-0.754976
 20
-0.981205
  0
VERTEX
  8
PLAN_1
 62
     2
  6
CONTINUOUS
 10
-0.754472
 20
-0.981205
  0
VERTEX
  8
PLAN_1
 62
     2
  6
CONTINUOUS
 10
-0.754472
 20
-0.987803
  0
VERTEX
  8
PLAN_1
 62
     2
  6
CONTINUOUS
 10
-0.755484
 20
-0.987803
  0
VERTEX
  8
PLAN_1
 62
     2
  6
CONTINUOUS
 10
-0.755992
 20
-0.988311
  0
VERTEX
  8
PLAN_1
 62
     2
  6
CONTINUOUS
 10
-0.756500
 20
-0.988311
  0
VERTEX
  8
PLAN_1
 62
     2
  6
CONTINUOUS
 10
-0.757008
 20
-0.988311
  0
VERTEX
  8
PLAN_1
 62
     2
  6
CONTINUOUS
 10
-0.757516
 20
-0.988819
  0
VERTEX
  8
PLAN_1
 62
     2
  6
CONTINUOUS
 10
-0.758024
 20
-0.988819
  0
VERTEX
  8
PLAN_1
 62
     2
  6
CONTINUOUS
 10
-0.759039
 20
-0.988819
  0
VERTEX
  8
PLAN_1
 62
     2
  6
CONTINUOUS
 10
-0.759547
 20
-0.988819
  0
VERTEX
  8
PLAN_1
 62
     2
  6
CONTINUOUS
 10
-0.762594
 20
-0.988819
  0
VERTEX
  8
PLAN_1
 62
     2
  6
CONTINUOUS
 10
-0.764626
 20
-0.988311
  0
VERTEX
  8
PLAN_1
 62
     2
  6
CONTINUOUS
 10
-0.766150
 20
-0.987295
  0
VERTEX
  8
PLAN_1
 62
     2
  6
CONTINUOUS
 10
-0.767669
 20
-0.986283
  0
VERTEX
  8
PLAN_1
 62
     2
  6
CONTINUOUS
 10
-0.768177
 20
-0.984760
  0
VERTEX
  8
PLAN_1
 62
     2
  6
CONTINUOUS
 10
-0.768685
 20
-0.983744
  0
VERTEX
  8
PLAN_1
 62
     2
  6
CONTINUOUS
 10
-0.769193
 20
-0.982220
  0
VERTEX
  8
PLAN_1
 62
     2
  6
CONTINUOUS
 10
-0.769193
 20
-0.980697
  0
VERTEX
  8
PLAN_1
 62
     2
  6
CONTINUOUS
 10
-0.770717
 20
-0.981713
  0
VERTEX
  8
PLAN_1
 62
     2
  6
CONTINUOUS
 10
-0.772240
 20
-0.983236
  0
VERTEX
  8
PLAN_1
 62
     2
  6
CONTINUOUS
 10
-0.774272
 20
-0.984760
  0
VERTEX
  8
PLAN_1
 62
     2
  6
CONTINUOUS
 10
-0.776303
 20
-0.986283
  0
VERTEX
  8
PLAN_1
 62
     2
  6
CONTINUOUS
 10
-0.778843
 20
-0.987295
  0
VERTEX
  8
PLAN_1
 62
     2
  6
CONTINUOUS
 10
-0.781886
 20
-0.988311
  0
VERTEX
  8
PLAN_1
 62
     2
  6
CONTINUOUS
 10
-0.785441
 20
-0.989327
  0
VERTEX
  8
PLAN_1
 62
     2
  6
CONTINUOUS
 10
-0.788996
 20
-0.989327
  0
VERTEX
  8
PLAN_1
 62
     2
  6
CONTINUOUS
 10
-0.792551
 20
-0.988819
  0
VERTEX
  8
PLAN_1
 62
     2
  6
CONTINUOUS
 10
-0.796102
 20
-0.988311
  0
VERTEX
  8
PLAN_1
 62
     2
  6
CONTINUOUS
 10
-0.798642
 20
-0.986787
  0
VERTEX
  8
PLAN_1
 62
     2
  6
CONTINUOUS
 10
-0.801181
 20
-0.984760
  0
VERTEX
  8
PLAN_1
 62
     2
  6
CONTINUOUS
 10
-0.803213
 20
-0.982728
  0
VERTEX
  8
PLAN_1
 62
     2
  6
CONTINUOUS
 10
-0.804736
 20
-0.980189
  0
VERTEX
  8
PLAN_1
 62
     2
  6
CONTINUOUS
 10
-0.805752
 20
-0.977142
  0
VERTEX
  8
PLAN_1
 62
     2
  6
CONTINUOUS
 10
-0.806260
 20
-0.973591
  0
VERTEX
  8
PLAN_1
 62
     2
  6
CONTINUOUS
 10
-0.805752
 20
-0.971559
  0
VERTEX
  8
PLAN_1
 62
     2
  6
CONTINUOUS
 10
-0.805752
 20
-0.969528
  0
VERTEX
  8
PLAN_1
 62
     2
  6
CONTINUOUS
 10
-0.804736
 20
-0.966480
  0
VERTEX
  8
PLAN_1
 62
     2
  6
CONTINUOUS
 10
-0.803720
 20
-0.963941
  0
VERTEX
  8
PLAN_1
 62
     2
  6
CONTINUOUS
 10
-0.801689
 20
-0.961402
  0
VERTEX
  8
PLAN_1
 62
     2
  6
CONTINUOUS
 10
-0.798642
 20
-0.959374
  0
VERTEX
  8
PLAN_1
 62
     2
  6
CONTINUOUS
 10
-0.794579
 20
-0.957850
  0
VERTEX
  8
PLAN_1
 62
     2
  6
CONTINUOUS
 10
-0.789504
 20
-0.956327
  0
VERTEX
  8
PLAN_1
 62
     2
  6
CONTINUOUS
 10
-0.774272
 20
-0.954803
  0
VERTEX
  8
PLAN_1
 62
     2
  6
CONTINUOUS
 10
-0.773764
 20
-0.954803
  0
VERTEX
  8
PLAN_1
 62
     2
  6
CONTINUOUS
 10
-0.772748
 20
-0.954295
  0
VERTEX
  8
PLAN_1
 62
     2
  6
CONTINUOUS
 10
-0.771732
 20
-0.953787
  0
VERTEX
  8
PLAN_1
 62
     2
  6
CONTINUOUS
 10
-0.771224
 20
-0.953280
  0
VERTEX
  8
PLAN_1
 62
     2
  6
CONTINUOUS
 10
-0.770717
 20
-0.952772
  0
VERTEX
  8
PLAN_1
 62
     2
  6
CONTINUOUS
 10
-0.770209
 20
-0.951248
  0
VERTEX
  8
PLAN_1
 62
     2
  6
CONTINUOUS
 10
-0.769701
 20
-0.950232
  0
VERTEX
  8
PLAN_1
 62
     2
  6
CONTINUOUS
 10
-0.769701
 20
-0.948201
  0
VERTEX
  8
PLAN_1
 62
     2
  6
CONTINUOUS
 10
-0.769701
 20
-0.946173
  0
VERTEX
  8
PLAN_1
 62
     2
  6
CONTINUOUS
 10
-0.770209
 20
-0.944650
  0
VERTEX
  8
PLAN_1
 62
     2
  6
CONTINUOUS
 10
-0.771224
 20
-0.943126
  0
VERTEX
  8
PLAN_1
 62
     2
  6
CONTINUOUS
 10
-0.772748
 20
-0.941602
  0
VERTEX
  8
PLAN_1
 62
     2
  6
CONTINUOUS
 10
-0.774780
 20
-0.940587
  0
VERTEX
  8
PLAN_1
 62
     2
  6
CONTINUOUS
 10
-0.776811
 20
-0.940079
  0
VERTEX
  8
PLAN_1
 62
     2
  6
CONTINUOUS
 10
-0.779350
 20
-0.939571
  0
VERTEX
  8
PLAN_1
 62
     2
  6
CONTINUOUS
 10
-0.782394
 20
-0.939571
  0
VERTEX
  8
PLAN_1
 62
     2
  6
CONTINUOUS
 10
-0.785949
 20
-0.939571
  0
VERTEX
  8
PLAN_1
 62
     2
  6
CONTINUOUS
 10
-0.788488
 20
-0.940587
  0
VERTEX
  8
PLAN_1
 62
     2
  6
CONTINUOUS
 10
-0.791028
 20
-0.941602
  0
VERTEX
  8
PLAN_1
 62
     2
  6
CONTINUOUS
 10
-0.792551
 20
-0.943126
  0
VERTEX
  8
PLAN_1
 62
     2
  6
CONTINUOUS
 10
-0.793563
 20
-0.944650
  0
VERTEX
  8
PLAN_1
 62
     2
  6
CONTINUOUS
 10
-0.794071
 20
-0.946681
  0
VERTEX
  8
PLAN_1
 62
     2
  6
CONTINUOUS
 10
-0.794579
 20
-0.948201
  0
VERTEX
  8
PLAN_1
 62
     2
  6
CONTINUOUS
 10
-0.795087
 20
-0.949724
  0
VERTEX
  8
PLAN_1
 62
     2
  6
CONTINUOUS
 10
-0.803213
 20
-0.949724
  0
SEQEND
  8
0
  0
POLYLINE
  8
PLAN_1
 62
     2
  6
CONTINUOUS
 66
     1
 40
0.003000
 41
0.003000
  0
VERTEX
  8
PLAN_1
 62
     2
  6
CONTINUOUS
 10
-0.769701
 20
-0.959882
  0
VERTEX
  8
PLAN_1
 62
     2
  6
CONTINUOUS
 10
-0.770717
 20
-0.960390
  0
VERTEX
  8
PLAN_1
 62
     2
  6
CONTINUOUS
 10
-0.771224
 20
-0.960894
  0
VERTEX
  8
PLAN_1
 62
     2
  6
CONTINUOUS
 10
-0.772240
 20
-0.961402
  0
VERTEX
  8
PLAN_1
 62
     2
  6
CONTINUOUS
 10
-0.773764
 20
-0.961402
  0
VERTEX
  8
PLAN_1
 62
     2
  6
CONTINUOUS
 10
-0.775795
 20
-0.961909
  0
VERTEX
  8
PLAN_1
 62
     2
  6
CONTINUOUS
 10
-0.777827
 20
-0.962417
  0
VERTEX
  8
PLAN_1
 62
     2
  6
CONTINUOUS
 10
-0.780870
 20
-0.962925
  0
VERTEX
  8
PLAN_1
 62
     2
  6
CONTINUOUS
 10
-0.784933
 20
-0.963433
  0
VERTEX
  8
PLAN_1
 62
     2
  6
CONTINUOUS
 10
-0.786965
 20
-0.963433
  0
VERTEX
  8
PLAN_1
 62
     2
  6
CONTINUOUS
 10
-0.788488
 20
-0.963941
  0
VERTEX
  8
PLAN_1
 62
     2
  6
CONTINUOUS
 10
-0.790520
 20
-0.964449
  0
VERTEX
  8
PLAN_1
 62
     2
  6
CONTINUOUS
 10
-0.792551
 20
-0.965465
  0
VERTEX
  8
PLAN_1
 62
     2
  6
CONTINUOUS
 10
-0.794071
 20
-0.966480
  0
VERTEX
  8
PLAN_1
 62
     2
  6
CONTINUOUS
 10
-0.795594
 20
-0.968004
  0
VERTEX
  8
PLAN_1
 62
     2
  6
CONTINUOUS
 10
-0.796102
 20
-0.970035
  0
VERTEX
  8
PLAN_1
 62
     2
  6
CONTINUOUS
 10
-0.796610
 20
-0.972067
  0
VERTEX
  8
PLAN_1
 62
     2
  6
CONTINUOUS
 10
-0.796610
 20
-0.974602
  0
VERTEX
  8
PLAN_1
 62
     2
  6
CONTINUOUS
 10
-0.796102
 20
-0.976126
  0
VERTEX
  8
PLAN_1
 62
     2
  6
CONTINUOUS
 10
-0.795087
 20
-0.977650
  0
VERTEX
  8
PLAN_1
 62
     2
  6
CONTINUOUS
 10
-0.794071
 20
-0.979173
  0
VERTEX
  8
PLAN_1
 62
     2
  6
CONTINUOUS
 10
-0.793059
 20
-0.980189
  0
VERTEX
  8
PLAN_1
 62
     2
  6
CONTINUOUS
 10
-0.791028
 20
-0.981205
  0
VERTEX
  8
PLAN_1
 62
     2
  6
CONTINUOUS
 10
-0.788996
 20
-0.981713
  0
VERTEX
  8
PLAN_1
 62
     2
  6
CONTINUOUS
 10
-0.786965
 20
-0.981713
  0
VERTEX
  8
PLAN_1
 62
     2
  6
CONTINUOUS
 10
-0.783409
 20
-0.981713
  0
VERTEX
  8
PLAN_1
 62
     2
  6
CONTINUOUS
 10
-0.780366
 20
-0.980697
  0
VERTEX
  8
PLAN_1
 62
     2
  6
CONTINUOUS
 10
-0.777827
 20
-0.979681
  0
VERTEX
  8
PLAN_1
 62
     2
  6
CONTINUOUS
 10
-0.775287
 20
-0.978157
  0
VERTEX
  8
PLAN_1
 62
     2
  6
CONTINUOUS
 10
-0.772748
 20
-0.976126
  0
VERTEX
  8
PLAN_1
 62
     2
  6
CONTINUOUS
 10
-0.771224
 20
-0.974094
  0
VERTEX
  8
PLAN_1
 62
     2
  6
CONTINUOUS
 10
-0.770209
 20
-0.971559
  0
VERTEX
  8
PLAN_1
 62
     2
  6
CONTINUOUS
 10
-0.769701
 20
-0.969020
  0
VERTEX
  8
PLAN_1
 62
     2
  6
CONTINUOUS
 10
-0.769701
 20
-0.959882
  0
SEQEND
  8
0
  0
POLYLINE
  8
PLAN_1
 62
     2
  6
CONTINUOUS
 66
     1
 40
0.003000
 41
0.003000
  0
VERTEX
  8
PLAN_1
 62
     2
  6
CONTINUOUS
 10
-0.745839
 20
-0.933480
  0
VERTEX
  8
PLAN_1
 62
     2
  6
CONTINUOUS
 10
-0.737209
 20
-0.933480
  0
VERTEX
  8
PLAN_1
 62
     2
  6
CONTINUOUS
 10
-0.737209
 20
-0.941094
  0
VERTEX
  8
PLAN_1
 62
     2
  6
CONTINUOUS
 10
-0.736193
 20
-0.939571
  0
VERTEX
  8
PLAN_1
 62
     2
  6
CONTINUOUS
 10
-0.735177
 20
-0.938047
  0
VERTEX
  8
PLAN_1
 62
     2
  6
CONTINUOUS
 10
-0.733654
 20
-0.936524
  0
VERTEX
  8
PLAN_1
 62
     2
  6
CONTINUOUS
 10
-0.731622
 20
-0.935000
  0
VERTEX
  8
PLAN_1
 62
     2
  6
CONTINUOUS
 10
-0.729591
 20
-0.933988
  0
VERTEX
  8
PLAN_1
 62
     2
  6
CONTINUOUS
 10
-0.727055
 20
-0.932972
  0
VERTEX
  8
PLAN_1
 62
     2
  6
CONTINUOUS
 10
-0.724516
 20
-0.931957
  0
VERTEX
  8
PLAN_1
 62
     2
  6
CONTINUOUS
 10
-0.720961
 20
-0.931957
  0
VERTEX
  8
PLAN_1
 62
     2
  6
CONTINUOUS
 10
-0.718421
 20
-0.931957
  0
VERTEX
  8
PLAN_1
 62
     2
  6
CONTINUOUS
 10
-0.715886
 20
-0.932465
  0
VERTEX
  8
PLAN_1
 62
     2
  6
CONTINUOUS
 10
-0.713346
 20
-0.932972
  0
VERTEX
  8
PLAN_1
 62
     2
  6
CONTINUOUS
 10
-0.711315
 20
-0.933988
  0
VERTEX
  8
PLAN_1
 62
     2
  6
CONTINUOUS
 10
-0.709283
 20
-0.935000
  0
VERTEX
  8
PLAN_1
 62
     2
  6
CONTINUOUS
 10
-0.707252
 20
-0.936524
  0
VERTEX
  8
PLAN_1
 62
     2
  6
CONTINUOUS
 10
-0.705728
 20
-0.938047
  0
VERTEX
  8
PLAN_1
 62
     2
  6
CONTINUOUS
 10
-0.704205
 20
-0.939571
  0
VERTEX
  8
PLAN_1
 62
     2
  6
CONTINUOUS
 10
-0.701669
 20
-0.943634
  0
VERTEX
  8
PLAN_1
 62
     2
  6
CONTINUOUS
 10
-0.699638
 20
-0.948201
  0
VERTEX
  8
PLAN_1
 62
     2
  6
CONTINUOUS
 10
-0.698622
 20
-0.953280
  0
VERTEX
  8
PLAN_1
 62
     2
  6
CONTINUOUS
 10
-0.698114
 20
-0.958866
  0
VERTEX
  8
PLAN_1
 62
     2
  6
CONTINUOUS
 10
-0.698622
 20
-0.963941
  0
VERTEX
  8
PLAN_1
 62
     2
  6
CONTINUOUS
 10
-0.699130
 20
-0.969020
  0
VERTEX
  8
PLAN_1
 62
     2
  6
CONTINUOUS
 10
-0.700654
 20
-0.974094
  0
VERTEX
  8
PLAN_1
 62
     2
  6
CONTINUOUS
 10
-0.703189
 20
-0.979173
  0
VERTEX
  8
PLAN_1
 62
     2
  6
CONTINUOUS
 10
-0.704713
 20
-0.981205
  0
VERTEX
  8
PLAN_1
 62
     2
  6
CONTINUOUS
 10
-0.706236
 20
-0.983236
  0
VERTEX
  8
PLAN_1
 62
     2
  6
CONTINUOUS
 10
-0.708268
 20
-0.984760
  0
VERTEX
  8
PLAN_1
 62
     2
  6
CONTINUOUS
 10
-0.710299
 20
-0.986283
  0
VERTEX
  8
PLAN_1
 62
     2
  6
CONTINUOUS
 10
-0.712839
 20
-0.987803
  0
VERTEX
  8
PLAN_1
 62
     2
  6
CONTINUOUS
 10
-0.715886
 20
-0.988311
  0
VERTEX
  8
PLAN_1
 62
     2
  6
CONTINUOUS
 10
-0.718929
 20
-0.989327
  0
VERTEX
  8
PLAN_1
 62
     2
  6
CONTINUOUS
 10
-0.721976
 20
-0.989327
  0
VERTEX
  8
PLAN_1
 62
     2
  6
CONTINUOUS
 10
-0.724516
 20
-0.989327
  0
VERTEX
  8
PLAN_1
 62
     2
  6
CONTINUOUS
 10
-0.727055
 20
-0.988819
  0
VERTEX
  8
PLAN_1
 62
     2
  6
CONTINUOUS
 10
-0.729083
 20
-0.987803
  0
VERTEX
  8
PLAN_1
 62
     2
  6
CONTINUOUS
 10
-0.731114
 20
-0.987295
  0
VERTEX
  8
PLAN_1
 62
     2
  6
CONTINUOUS
 10
-0.732638
 20
-0.986283
  0
VERTEX
  8
PLAN_1
 62
     2
  6
CONTINUOUS
 10
-0.734161
 20
-0.984760
  0
VERTEX
  8
PLAN_1
 62
     2
  6
CONTINUOUS
 10
-0.735685
 20
-0.983236
  0
VERTEX
  8
PLAN_1
 62
     2
  6
CONTINUOUS
 10
-0.736701
 20
-0.982220
  0
VERTEX
  8
PLAN_1
 62
     2
  6
CONTINUOUS
 10
-0.736701
 20
-1.009130
  0
VERTEX
  8
PLAN_1
 62
     2
  6
CONTINUOUS
 10
-0.745839
 20
-1.009130
  0
VERTEX
  8
PLAN_1
 62
     2
  6
CONTINUOUS
 10
-0.745839
 20
-0.933480
  0
SEQEND
  8
0
  0
POLYLINE
  8
PLAN_1
 62
     2
  6
CONTINUOUS
 66
     1
 40
0.003000
 41
0.003000
  0
VERTEX
  8
PLAN_1
 62
     2
  6
CONTINUOUS
 10
-0.722484
 20
-0.981205
  0
VERTEX
  8
PLAN_1
 62
     2
  6
CONTINUOUS
 10
-0.718929
 20
-0.981205
  0
VERTEX
  8
PLAN_1
 62
     2
  6
CONTINUOUS
 10
-0.715886
 20
-0.979681
  0
VERTEX
  8
PLAN_1
 62
     2
  6
CONTINUOUS
 10
-0.713346
 20
-0.978157
  0
VERTEX
  8
PLAN_1
 62
     2
  6
CONTINUOUS
 10
-0.711315
 20
-0.975618
  0
VERTEX
  8
PLAN_1
 62
     2
  6
CONTINUOUS
 10
-0.709791
 20
-0.972067
  0
VERTEX
  8
PLAN_1
 62
     2
  6
CONTINUOUS
 10
-0.708268
 20
-0.968512
  0
VERTEX
  8
PLAN_1
 62
     2
  6
CONTINUOUS
 10
-0.707760
 20
-0.964957
  0
VERTEX
  8
PLAN_1
 62
     2
  6
CONTINUOUS
 10
-0.707760
 20
-0.960390
  0
VERTEX
  8
PLAN_1
 62
     2
  6
CONTINUOUS
 10
-0.707760
 20
-0.957343
  0
VERTEX
  8
PLAN_1
 62
     2
  6
CONTINUOUS
 10
-0.707760
 20
-0.954295
  0
VERTEX
  8
PLAN_1
 62
     2
  6
CONTINUOUS
 10
-0.708776
 20
-0.950740
  0
VERTEX
  8
PLAN_1
 62
     2
  6
CONTINUOUS
 10
-0.709791
 20
-0.947697
  0
VERTEX
  8
PLAN_1
 62
     2
  6
CONTINUOUS
 10
-0.711315
 20
-0.944650
  0
VERTEX
  8
PLAN_1
 62
     2
  6
CONTINUOUS
 10
-0.714362
 20
-0.942110
  0
VERTEX
  8
PLAN_1
 62
     2
  6
CONTINUOUS
 10
-0.715886
 20
-0.941094
  0
VERTEX
  8
PLAN_1
 62
     2
  6
CONTINUOUS
 10
-0.717913
 20
-0.940587
  0
VERTEX
  8
PLAN_1
 62
     2
  6
CONTINUOUS
 10
-0.719945
 20
-0.940079
  0
VERTEX
  8
PLAN_1
 62
     2
  6
CONTINUOUS
 10
-0.722484
 20
-0.940079
  0
VERTEX
  8
PLAN_1
 62
     2
  6
CONTINUOUS
 10
-0.725024
 20
-0.940079
  0
VERTEX
  8
PLAN_1
 62
     2
  6
CONTINUOUS
 10
-0.727055
 20
-0.940587
  0
VERTEX
  8
PLAN_1
 62
     2
  6
CONTINUOUS
 10
-0.728579
 20
-0.941602
  0
VERTEX
  8
PLAN_1
 62
     2
  6
CONTINUOUS
 10
-0.730606
 20
-0.942618
  0
VERTEX
  8
PLAN_1
 62
     2
  6
CONTINUOUS
 10
-0.733146
 20
-0.945157
  0
VERTEX
  8
PLAN_1
 62
     2
  6
CONTINUOUS
 10
-0.734669
 20
-0.948201
  0
VERTEX
  8
PLAN_1
 62
     2
  6
CONTINUOUS
 10
-0.736193
 20
-0.951756
  0
VERTEX
  8
PLAN_1
 62
     2
  6
CONTINUOUS
 10
-0.736701
 20
-0.955819
  0
VERTEX
  8
PLAN_1
 62
     2
  6
CONTINUOUS
 10
-0.737209
 20
-0.959374
  0
VERTEX
  8
PLAN_1
 62
     2
  6
CONTINUOUS
 10
-0.737209
 20
-0.962925
  0
VERTEX
  8
PLAN_1
 62
     2
  6
CONTINUOUS
 10
-0.736701
 20
-0.968004
  0
VERTEX
  8
PLAN_1
 62
     2
  6
CONTINUOUS
 10
-0.735685
 20
-0.972067
  0
VERTEX
  8
PLAN_1
 62
     2
  6
CONTINUOUS
 10
-0.734161
 20
-0.975110
  0
VERTEX
  8
PLAN_1
 62
     2
  6
CONTINUOUS
 10
-0.732130
 20
-0.977650
  0
VERTEX
  8
PLAN_1
 62
     2
  6
CONTINUOUS
 10
-0.729591
 20
-0.979681
  0
VERTEX
  8
PLAN_1
 62
     2
  6
CONTINUOUS
 10
-0.727055
 20
-0.980697
  0
VERTEX
  8
PLAN_1
 62
     2
  6
CONTINUOUS
 10
-0.724516
 20
-0.981205
  0
VERTEX
  8
PLAN_1
 62
     2
  6
CONTINUOUS
 10
-0.722484
 20
-0.981205
  0
SEQEND
  8
0
  0
POLYLINE
  8
PLAN_1
 62
     2
  6
CONTINUOUS
 66
     1
 40
0.003000
 41
0.003000
  0
VERTEX
  8
PLAN_1
 62
     2
  6
CONTINUOUS
 10
-0.676283
 20
-0.941094
  0
VERTEX
  8
PLAN_1
 62
     2
  6
CONTINUOUS
 10
-0.676283
 20
-0.976126
  0
VERTEX
  8
PLAN_1
 62
     2
  6
CONTINUOUS
 10
-0.675776
 20
-0.977650
  0
VERTEX
  8
PLAN_1
 62
     2
  6
CONTINUOUS
 10
-0.675268
 20
-0.978665
  0
VERTEX
  8
PLAN_1
 62
     2
  6
CONTINUOUS
 10
-0.674760
 20
-0.979681
  0
VERTEX
  8
PLAN_1
 62
     2
  6
CONTINUOUS
 10
-0.673744
 20
-0.980189
  0
VERTEX
  8
PLAN_1
 62
     2
  6
CONTINUOUS
 10
-0.673236
 20
-0.980189
  0
VERTEX
  8
PLAN_1
 62
     2
  6
CONTINUOUS
 10
-0.672220
 20
-0.980697
  0
VERTEX
  8
PLAN_1
 62
     2
  6
CONTINUOUS
 10
-0.671205
 20
-0.980697
  0
VERTEX
  8
PLAN_1
 62
     2
  6
CONTINUOUS
 10
-0.670697
 20
-0.980697
  0
VERTEX
  8
PLAN_1
 62
     2
  6
CONTINUOUS
 10
-0.667142
 20
-0.980697
  0
VERTEX
  8
PLAN_1
 62
     2
  6
CONTINUOUS
 10
-0.667142
 20
-0.987803
  0
VERTEX
  8
PLAN_1
 62
     2
  6
CONTINUOUS
 10
-0.668665
 20
-0.987803
  0
VERTEX
  8
PLAN_1
 62
     2
  6
CONTINUOUS
 10
-0.669681
 20
-0.987803
  0
VERTEX
  8
PLAN_1
 62
     2
  6
CONTINUOUS
 10
-0.670697
 20
-0.988311
  0
VERTEX
  8
PLAN_1
 62
     2
  6
CONTINUOUS
 10
-0.671713
 20
-0.988311
  0
VERTEX
  8
PLAN_1
 62
     2
  6
CONTINUOUS
 10
-0.672220
 20
-0.988311
  0
VERTEX
  8
PLAN_1
 62
     2
  6
CONTINUOUS
 10
-0.673236
 20
-0.988311
  0
VERTEX
  8
PLAN_1
 62
     2
  6
CONTINUOUS
 10
-0.673744
 20
-0.988311
  0
VERTEX
  8
PLAN_1
 62
     2
  6
CONTINUOUS
 10
-0.674252
 20
-0.988311
  0
VERTEX
  8
PLAN_1
 62
     2
  6
CONTINUOUS
 10
-0.677295
 20
-0.988311
  0
VERTEX
  8
PLAN_1
 62
     2
  6
CONTINUOUS
 10
-0.679835
 20
-0.987803
  0
VERTEX
  8
PLAN_1
 62
     2
  6
CONTINUOUS
 10
-0.681866
 20
-0.986283
  0
VERTEX
  8
PLAN_1
 62
     2
  6
CONTINUOUS
 10
-0.682882
 20
-0.985268
  0
VERTEX
  8
PLAN_1
 62
     2
  6
CONTINUOUS
 10
-0.683898
 20
-0.983236
  0
VERTEX
  8
PLAN_1
 62
     2
  6
CONTINUOUS
 10
-0.684913
 20
-0.981205
  0
VERTEX
  8
PLAN_1
 62
     2
  6
CONTINUOUS
 10
-0.684913
 20
-0.979173
  0
VERTEX
  8
PLAN_1
 62
     2
  6
CONTINUOUS
 10
-0.685421
 20
-0.976634
  0
VERTEX
  8
PLAN_1
 62
     2
  6
CONTINUOUS
 10
-0.685421
 20
-0.941094
  0
VERTEX
  8
PLAN_1
 62
     2
  6
CONTINUOUS
 10
-0.692528
 20
-0.941094
  0
VERTEX
  8
PLAN_1
 62
     2
  6
CONTINUOUS
 10
-0.692528
 20
-0.933480
  0
VERTEX
  8
PLAN_1
 62
     2
  6
CONTINUOUS
 10
-0.685421
 20
-0.933480
  0
VERTEX
  8
PLAN_1
 62
     2
  6
CONTINUOUS
 10
-0.685421
 20
-0.918248
  0
VERTEX
  8
PLAN_1
 62
     2
  6
CONTINUOUS
 10
-0.676283
 20
-0.918248
  0
VERTEX
  8
PLAN_1
 62
     2
  6
CONTINUOUS
 10
-0.676283
 20
-0.933480
  0
VERTEX
  8
PLAN_1
 62
     2
  6
CONTINUOUS
 10
-0.667142
 20
-0.933480
  0
VERTEX
  8
PLAN_1
 62
     2
  6
CONTINUOUS
 10
-0.667142
 20
-0.941094
  0
VERTEX
  8
PLAN_1
 62
     2
  6
CONTINUOUS
 10
-0.676283
 20
-0.941094
  0
SEQEND
  8
0
  0
POLYLINE
  8
PLAN_1
 62
     2
  6
CONTINUOUS
 66
     1
 40
0.003000
 41
0.003000
  0
VERTEX
  8
PLAN_1
 62
     2
  6
CONTINUOUS
 10
-0.658512
 20
-0.949724
  0
VERTEX
  8
PLAN_1
 62
     2
  6
CONTINUOUS
 10
-0.658004
 20
-0.945157
  0
VERTEX
  8
PLAN_1
 62
     2
  6
CONTINUOUS
 10
-0.656988
 20
-0.941602
  0
VERTEX
  8
PLAN_1
 62
     2
  6
CONTINUOUS
 10
-0.654957
 20
-0.938555
  0
VERTEX
  8
PLAN_1
 62
     2
  6
CONTINUOUS
 10
-0.652417
 20
-0.936016
  0
VERTEX
  8
PLAN_1
 62
     2
  6
CONTINUOUS
 10
-0.648866
 20
-0.933988
  0
VERTEX
  8
PLAN_1
 62
     2
  6
CONTINUOUS
 10
-0.645311
 20
-0.932972
  0
VERTEX
  8
PLAN_1
 62
     2
  6
CONTINUOUS
 10
-0.640740
 20
-0.931957
  0
VERTEX
  8
PLAN_1
 62
     2
  6
CONTINUOUS
 10
-0.636173
 20
-0.931957
  0
VERTEX
  8
PLAN_1
 62
     2
  6
CONTINUOUS
 10
-0.634142
 20
-0.931957
  0
VERTEX
  8
PLAN_1
 62
     2
  6
CONTINUOUS
 10
-0.631094
 20
-0.931957
  0
VERTEX
  8
PLAN_1
 62
     2
  6
CONTINUOUS
 10
-0.628047
 20
-0.932972
  0
VERTEX
  8
PLAN_1
 62
     2
  6
CONTINUOUS
 10
-0.624496
 20
-0.933988
  0
VERTEX
  8
PLAN_1
 62
     2
  6
CONTINUOUS
 10
-0.621449
 20
-0.936016
  0
VERTEX
  8
PLAN_1
 62
     2
  6
CONTINUOUS
 10
-0.618402
 20
-0.938555
  0
VERTEX
  8
PLAN_1
 62
     2
  6
CONTINUOUS
 10
-0.617386
 20
-0.940587
  0
VERTEX
  8
PLAN_1
 62
     2
  6
CONTINUOUS
 10
-0.616878
 20
-0.942110
  0
VERTEX
  8
PLAN_1
 62
     2
  6
CONTINUOUS
 10
-0.616370
 20
-0.944650
  0
VERTEX
  8
PLAN_1
 62
     2
  6
CONTINUOUS
 10
-0.615862
 20
-0.947189
  0
VERTEX
  8
PLAN_1
 62
     2
  6
CONTINUOUS
 10
-0.615862
 20
-0.978157
  0
VERTEX
  8
PLAN_1
 62
     2
  6
CONTINUOUS
 10
-0.615862
 20
-0.979173
  0
VERTEX
  8
PLAN_1
 62
     2
  6
CONTINUOUS
 10
-0.615862
 20
-0.979681
  0
VERTEX
  8
PLAN_1
 62
     2
  6
CONTINUOUS
 10
-0.615354
 20
-0.980189
  0
VERTEX
  8
PLAN_1
 62
     2
  6
CONTINUOUS
 10
-0.615354
 20
-0.980697
  0
VERTEX
  8
PLAN_1
 62
     2
  6
CONTINUOUS
 10
-0.614846
 20
-0.981205
  0
VERTEX
  8
PLAN_1
 62
     2
  6
CONTINUOUS
 10
-0.614339
 20
-0.981205
  0
VERTEX
  8
PLAN_1
 62
     2
  6
CONTINUOUS
 10
-0.613831
 20
-0.981713
  0
VERTEX
  8
PLAN_1
 62
     2
  6
CONTINUOUS
 10
-0.612815
 20
-0.981713
  0
VERTEX
  8
PLAN_1
 62
     2
  6
CONTINUOUS
 10
-0.612311
 20
-0.981713
  0
VERTEX
  8
PLAN_1
 62
     2
  6
CONTINUOUS
 10
-0.611803
 20
-0.981205
  0
VERTEX
  8
PLAN_1
 62
     2
  6
CONTINUOUS
 10
-0.611295
 20
-0.981205
  0
VERTEX
  8
PLAN_1
 62
     2
  6
CONTINUOUS
 10
-0.610787
 20
-0.981205
  0
VERTEX
  8
PLAN_1
 62
     2
  6
CONTINUOUS
 10
-0.610280
 20
-0.981205
  0
VERTEX
  8
PLAN_1
 62
     2
  6
CONTINUOUS
 10
-0.609772
 20
-0.981205
  0
VERTEX
  8
PLAN_1
 62
     2
  6
CONTINUOUS
 10
-0.609772
 20
-0.987803
  0
VERTEX
  8
PLAN_1
 62
     2
  6
CONTINUOUS
 10
-0.610787
 20
-0.987803
  0
VERTEX
  8
PLAN_1
 62
     2
  6
CONTINUOUS
 10
-0.611295
 20
-0.988311
  0
VERTEX
  8
PLAN_1
 62
     2
  6
CONTINUOUS
 10
-0.611803
 20
-0.988311
  0
VERTEX
  8
PLAN_1
 62
     2
  6
CONTINUOUS
 10
-0.612311
 20
-0.988311
  0
VERTEX
  8
PLAN_1
 62
     2
  6
CONTINUOUS
 10
-0.612815
 20
-0.988819
  0
VERTEX
  8
PLAN_1
 62
     2
  6
CONTINUOUS
 10
-0.613323
 20
-0.988819
  0
VERTEX
  8
PLAN_1
 62
     2
  6
CONTINUOUS
 10
-0.614339
 20
-0.988819
  0
VERTEX
  8
PLAN_1
 62
     2
  6
CONTINUOUS
 10
-0.614846
 20
-0.988819
  0
VERTEX
  8
PLAN_1
 62
     2
  6
CONTINUOUS
 10
-0.617894
 20
-0.988819
  0
VERTEX
  8
PLAN_1
 62
     2
  6
CONTINUOUS
 10
-0.619925
 20
-0.988311
  0
VERTEX
  8
PLAN_1
 62
     2
  6
CONTINUOUS
 10
-0.621449
 20
-0.987295
  0
VERTEX
  8
PLAN_1
 62
     2
  6
CONTINUOUS
 10
-0.622465
 20
-0.986283
  0
VERTEX
  8
PLAN_1
 62
     2
  6
CONTINUOUS
 10
-0.623480
 20
-0.984760
  0
VERTEX
  8
PLAN_1
 62
     2
  6
CONTINUOUS
 10
-0.623988
 20
-0.983744
  0
VERTEX
  8
PLAN_1
 62
     2
  6
CONTINUOUS
 10
-0.624496
 20
-0.982220
  0
VERTEX
  8
PLAN_1
 62
     2
  6
CONTINUOUS
 10
-0.624496
 20
-0.980697
  0
VERTEX
  8
PLAN_1
 62
     2
  6
CONTINUOUS
 10
-0.626016
 20
-0.981713
  0
VERTEX
  8
PLAN_1
 62
     2
  6
CONTINUOUS
 10
-0.627539
 20
-0.983236
  0
VERTEX
  8
PLAN_1
 62
     2
  6
CONTINUOUS
 10
-0.629571
 20
-0.984760
  0
VERTEX
  8
PLAN_1
 62
     2
  6
CONTINUOUS
 10
-0.631602
 20
-0.986283
  0
VERTEX
  8
PLAN_1
 62
     2
  6
CONTINUOUS
 10
-0.634142
 20
-0.987295
  0
VERTEX
  8
PLAN_1
 62
     2
  6
CONTINUOUS
 10
-0.637189
 20
-0.988311
  0
VERTEX
  8
PLAN_1
 62
     2
  6
CONTINUOUS
 10
-0.640740
 20
-0.989327
  0
VERTEX
  8
PLAN_1
 62
     2
  6
CONTINUOUS
 10
-0.644295
 20
-0.989327
  0
VERTEX
  8
PLAN_1
 62
     2
  6
CONTINUOUS
 10
-0.647850
 20
-0.988819
  0
VERTEX
  8
PLAN_1
 62
     2
  6
CONTINUOUS
 10
-0.651406
 20
-0.988311
  0
VERTEX
  8
PLAN_1
 62
     2
  6
CONTINUOUS
 10
-0.653941
 20
-0.986787
  0
VERTEX
  8
PLAN_1
 62
     2
  6
CONTINUOUS
 10
-0.656480
 20
-0.984760
  0
VERTEX
  8
PLAN_1
 62
     2
  6
CONTINUOUS
 10
-0.658512
 20
-0.982728
  0
VERTEX
  8
PLAN_1
 62
     2
  6
CONTINUOUS
 10
-0.660035
 20
-0.980189
  0
VERTEX
  8
PLAN_1
 62
     2
  6
CONTINUOUS
 10
-0.661051
 20
-0.977142
  0
VERTEX
  8
PLAN_1
 62
     2
  6
CONTINUOUS
 10
-0.661559
 20
-0.973591
  0
VERTEX
  8
PLAN_1
 62
     2
  6
CONTINUOUS
 10
-0.661051
 20
-0.971559
  0
VERTEX
  8
PLAN_1
 62
     2
  6
CONTINUOUS
 10
-0.661051
 20
-0.969528
  0
VERTEX
  8
PLAN_1
 62
     2
  6
CONTINUOUS
 10
-0.660035
 20
-0.966480
  0
VERTEX
  8
PLAN_1
 62
     2
  6
CONTINUOUS
 10
-0.659020
 20
-0.963941
  0
VERTEX
  8
PLAN_1
 62
     2
  6
CONTINUOUS
 10
-0.656480
 20
-0.961402
  0
VERTEX
  8
PLAN_1
 62
     2
  6
CONTINUOUS
 10
-0.653941
 20
-0.959374
  0
VERTEX
  8
PLAN_1
 62
     2
  6
CONTINUOUS
 10
-0.649882
 20
-0.957850
  0
VERTEX
  8
PLAN_1
 62
     2
  6
CONTINUOUS
 10
-0.644803
 20
-0.956327
  0
VERTEX
  8
PLAN_1
 62
     2
  6
CONTINUOUS
 10
-0.629571
 20
-0.954803
  0
VERTEX
  8
PLAN_1
 62
     2
  6
CONTINUOUS
 10
-0.629063
 20
-0.954803
  0
VERTEX
  8
PLAN_1
 62
     2
  6
CONTINUOUS
 10
-0.628047
 20
-0.954295
  0
VERTEX
  8
PLAN_1
 62
     2
  6
CONTINUOUS
 10
-0.627031
 20
-0.953787
  0
VERTEX
  8
PLAN_1
 62
     2
  6
CONTINUOUS
 10
-0.626524
 20
-0.953280
  0
VERTEX
  8
PLAN_1
 62
     2
  6
CONTINUOUS
 10
-0.626016
 20
-0.952772
  0
VERTEX
  8
PLAN_1
 62
     2
  6
CONTINUOUS
 10
-0.625512
 20
-0.951248
  0
VERTEX
  8
PLAN_1
 62
     2
  6
CONTINUOUS
 10
-0.625004
 20
-0.950232
  0
VERTEX
  8
PLAN_1
 62
     2
  6
CONTINUOUS
 10
-0.625004
 20
-0.948201
  0
VERTEX
  8
PLAN_1
 62
     2
  6
CONTINUOUS
 10
-0.625004
 20
-0.946173
  0
VERTEX
  8
PLAN_1
 62
     2
  6
CONTINUOUS
 10
-0.625512
 20
-0.944650
  0
VERTEX
  8
PLAN_1
 62
     2
  6
CONTINUOUS
 10
-0.626524
 20
-0.943126
  0
VERTEX
  8
PLAN_1
 62
     2
  6
CONTINUOUS
 10
-0.628047
 20
-0.941602
  0
VERTEX
  8
PLAN_1
 62
     2
  6
CONTINUOUS
 10
-0.630079
 20
-0.940587
  0
VERTEX
  8
PLAN_1
 62
     2
  6
CONTINUOUS
 10
-0.632110
 20
-0.940079
  0
VERTEX
  8
PLAN_1
 62
     2
  6
CONTINUOUS
 10
-0.634650
 20
-0.939571
  0
VERTEX
  8
PLAN_1
 62
     2
  6
CONTINUOUS
 10
-0.637697
 20
-0.939571
  0
VERTEX
  8
PLAN_1
 62
     2
  6
CONTINUOUS
 10
-0.641248
 20
-0.939571
  0
VERTEX
  8
PLAN_1
 62
     2
  6
CONTINUOUS
 10
-0.643787
 20
-0.940587
  0
VERTEX
  8
PLAN_1
 62
     2
  6
CONTINUOUS
 10
-0.646327
 20
-0.941602
  0
VERTEX
  8
PLAN_1
 62
     2
  6
CONTINUOUS
 10
-0.647850
 20
-0.943126
  0
VERTEX
  8
PLAN_1
 62
     2
  6
CONTINUOUS
 10
-0.648866
 20
-0.944650
  0
VERTEX
  8
PLAN_1
 62
     2
  6
CONTINUOUS
 10
-0.649374
 20
-0.946681
  0
VERTEX
  8
PLAN_1
 62
     2
  6
CONTINUOUS
 10
-0.649882
 20
-0.948201
  0
VERTEX
  8
PLAN_1
 62
     2
  6
CONTINUOUS
 10
-0.650390
 20
-0.949724
  0
VERTEX
  8
PLAN_1
 62
     2
  6
CONTINUOUS
 10
-0.658512
 20
-0.949724
  0
SEQEND
  8
0
  0
POLYLINE
  8
PLAN_1
 62
     2
  6
CONTINUOUS
 66
     1
 40
0.003000
 41
0.003000
  0
VERTEX
  8
PLAN_1
 62
     2
  6
CONTINUOUS
 10
-0.625004
 20
-0.959882
  0
VERTEX
  8
PLAN_1
 62
     2
  6
CONTINUOUS
 10
-0.625512
 20
-0.960390
  0
VERTEX
  8
PLAN_1
 62
     2
  6
CONTINUOUS
 10
-0.626524
 20
-0.960894
  0
VERTEX
  8
PLAN_1
 62
     2
  6
CONTINUOUS
 10
-0.627539
 20
-0.961402
  0
VERTEX
  8
PLAN_1
 62
     2
  6
CONTINUOUS
 10
-0.629063
 20
-0.961402
  0
VERTEX
  8
PLAN_1
 62
     2
  6
CONTINUOUS
 10
-0.631094
 20
-0.961909
  0
VERTEX
  8
PLAN_1
 62
     2
  6
CONTINUOUS
 10
-0.633126
 20
-0.962417
  0
VERTEX
  8
PLAN_1
 62
     2
  6
CONTINUOUS
 10
-0.636173
 20
-0.962925
  0
VERTEX
  8
PLAN_1
 62
     2
  6
CONTINUOUS
 10
-0.640232
 20
-0.963433
  0
VERTEX
  8
PLAN_1
 62
     2
  6
CONTINUOUS
 10
-0.642264
 20
-0.963433
  0
VERTEX
  8
PLAN_1
 62
     2
  6
CONTINUOUS
 10
-0.643787
 20
-0.963941
  0
VERTEX
  8
PLAN_1
 62
     2
  6
CONTINUOUS
 10
-0.645819
 20
-0.964449
  0
VERTEX
  8
PLAN_1
 62
     2
  6
CONTINUOUS
 10
-0.647850
 20
-0.965465
  0
VERTEX
  8
PLAN_1
 62
     2
  6
CONTINUOUS
 10
-0.649374
 20
-0.966480
  0
VERTEX
  8
PLAN_1
 62
     2
  6
CONTINUOUS
 10
-0.650898
 20
-0.968004
  0
VERTEX
  8
PLAN_1
 62
     2
  6
CONTINUOUS
 10
-0.651406
 20
-0.970035
  0
VERTEX
  8
PLAN_1
 62
     2
  6
CONTINUOUS
 10
-0.651909
 20
-0.972067
  0
VERTEX
  8
PLAN_1
 62
     2
  6
CONTINUOUS
 10
-0.651909
 20
-0.974602
  0
VERTEX
  8
PLAN_1
 62
     2
  6
CONTINUOUS
 10
-0.651406
 20
-0.976126
  0
VERTEX
  8
PLAN_1
 62
     2
  6
CONTINUOUS
 10
-0.650390
 20
-0.977650
  0
VERTEX
  8
PLAN_1
 62
     2
  6
CONTINUOUS
 10
-0.649374
 20
-0.979173
  0
VERTEX
  8
PLAN_1
 62
     2
  6
CONTINUOUS
 10
-0.648358
 20
-0.980189
  0
VERTEX
  8
PLAN_1
 62
     2
  6
CONTINUOUS
 10
-0.646327
 20
-0.981205
  0
VERTEX
  8
PLAN_1
 62
     2
  6
CONTINUOUS
 10
-0.644295
 20
-0.981713
  0
VERTEX
  8
PLAN_1
 62
     2
  6
CONTINUOUS
 10
-0.641756
 20
-0.981713
  0
VERTEX
  8
PLAN_1
 62
     2
  6
CONTINUOUS
 10
-0.638709
 20
-0.981713
  0
VERTEX
  8
PLAN_1
 62
     2
  6
CONTINUOUS
 10
-0.635665
 20
-0.980697
  0
VERTEX
  8
PLAN_1
 62
     2
  6
CONTINUOUS
 10
-0.633126
 20
-0.979681
  0
VERTEX
  8
PLAN_1
 62
     2
  6
CONTINUOUS
 10
-0.630587
 20
-0.978157
  0
VERTEX
  8
PLAN_1
 62
     2
  6
CONTINUOUS
 10
-0.628047
 20
-0.976126
  0
VERTEX
  8
PLAN_1
 62
     2
  6
CONTINUOUS
 10
-0.626524
 20
-0.974094
  0
VERTEX
  8
PLAN_1
 62
     2
  6
CONTINUOUS
 10
-0.625512
 20
-0.971559
  0
VERTEX
  8
PLAN_1
 62
     2
  6
CONTINUOUS
 10
-0.625004
 20
-0.969020
  0
VERTEX
  8
PLAN_1
 62
     2
  6
CONTINUOUS
 10
-0.625004
 20
-0.959882
  0
SEQEND
  8
0
  0
POLYLINE
  8
PLAN_1
 62
     2
  6
CONTINUOUS
 66
     1
 40
0.003000
 41
0.003000
  0
VERTEX
  8
PLAN_1
 62
     2
  6
CONTINUOUS
 10
-0.588953
 20
-0.941094
  0
VERTEX
  8
PLAN_1
 62
     2
  6
CONTINUOUS
 10
-0.588953
 20
-0.976126
  0
VERTEX
  8
PLAN_1
 62
     2
  6
CONTINUOUS
 10
-0.588953
 20
-0.977650
  0
VERTEX
  8
PLAN_1
 62
     2
  6
CONTINUOUS
 10
-0.588445
 20
-0.978665
  0
VERTEX
  8
PLAN_1
 62
     2
  6
CONTINUOUS
 10
-0.587937
 20
-0.979681
  0
VERTEX
  8
PLAN_1
 62
     2
  6
CONTINUOUS
 10
-0.586925
 20
-0.980189
  0
VERTEX
  8
PLAN_1
 62
     2
  6
CONTINUOUS
 10
-0.586417
 20
-0.980189
  0
VERTEX
  8
PLAN_1
 62
     2
  6
CONTINUOUS
 10
-0.585402
 20
-0.980697
  0
VERTEX
  8
PLAN_1
 62
     2
  6
CONTINUOUS
 10
-0.584386
 20
-0.980697
  0
VERTEX
  8
PLAN_1
 62
     2
  6
CONTINUOUS
 10
-0.583878
 20
-0.980697
  0
VERTEX
  8
PLAN_1
 62
     2
  6
CONTINUOUS
 10
-0.580323
 20
-0.980697
  0
VERTEX
  8
PLAN_1
 62
     2
  6
CONTINUOUS
 10
-0.580323
 20
-0.987803
  0
VERTEX
  8
PLAN_1
 62
     2
  6
CONTINUOUS
 10
-0.581846
 20
-0.987803
  0
VERTEX
  8
PLAN_1
 62
     2
  6
CONTINUOUS
 10
-0.582862
 20
-0.987803
  0
VERTEX
  8
PLAN_1
 62
     2
  6
CONTINUOUS
 10
-0.583878
 20
-0.988311
  0
VERTEX
  8
PLAN_1
 62
     2
  6
CONTINUOUS
 10
-0.584894
 20
-0.988311
  0
VERTEX
  8
PLAN_1
 62
     2
  6
CONTINUOUS
 10
-0.585402
 20
-0.988311
  0
VERTEX
  8
PLAN_1
 62
     2
  6
CONTINUOUS
 10
-0.586417
 20
-0.988311
  0
VERTEX
  8
PLAN_1
 62
     2
  6
CONTINUOUS
 10
-0.586925
 20
-0.988311
  0
VERTEX
  8
PLAN_1
 62
     2
  6
CONTINUOUS
 10
-0.587429
 20
-0.988311
  0
VERTEX
  8
PLAN_1
 62
     2
  6
CONTINUOUS
 10
-0.590476
 20
-0.988311
  0
VERTEX
  8
PLAN_1
 62
     2
  6
CONTINUOUS
 10
-0.593016
 20
-0.987803
  0
VERTEX
  8
PLAN_1
 62
     2
  6
CONTINUOUS
 10
-0.595047
 20
-0.986283
  0
VERTEX
  8
PLAN_1
 62
     2
  6
CONTINUOUS
 10
-0.596063
 20
-0.985268
  0
VERTEX
  8
PLAN_1
 62
     2
  6
CONTINUOUS
 10
-0.597079
 20
-0.983236
  0
VERTEX
  8
PLAN_1
 62
     2
  6
CONTINUOUS
 10
-0.598094
 20
-0.981205
  0
VERTEX
  8
PLAN_1
 62
     2
  6
CONTINUOUS
 10
-0.598094
 20
-0.979173
  0
VERTEX
  8
PLAN_1
 62
     2
  6
CONTINUOUS
 10
-0.598602
 20
-0.976634
  0
VERTEX
  8
PLAN_1
 62
     2
  6
CONTINUOUS
 10
-0.598602
 20
-0.941094
  0
VERTEX
  8
PLAN_1
 62
     2
  6
CONTINUOUS
 10
-0.605709
 20
-0.941094
  0
VERTEX
  8
PLAN_1
 62
     2
  6
CONTINUOUS
 10
-0.605709
 20
-0.933480
  0
VERTEX
  8
PLAN_1
 62
     2
  6
CONTINUOUS
 10
-0.598602
 20
-0.933480
  0
VERTEX
  8
PLAN_1
 62
     2
  6
CONTINUOUS
 10
-0.598602
 20
-0.918248
  0
VERTEX
  8
PLAN_1
 62
     2
  6
CONTINUOUS
 10
-0.588953
 20
-0.918248
  0
VERTEX
  8
PLAN_1
 62
     2
  6
CONTINUOUS
 10
-0.588953
 20
-0.933480
  0
VERTEX
  8
PLAN_1
 62
     2
  6
CONTINUOUS
 10
-0.580323
 20
-0.933480
  0
VERTEX
  8
PLAN_1
 62
     2
  6
CONTINUOUS
 10
-0.580323
 20
-0.941094
  0
VERTEX
  8
PLAN_1
 62
     2
  6
CONTINUOUS
 10
-0.588953
 20
-0.941094
  0
SEQEND
  8
0
  0
POLYLINE
  8
PLAN_1
 62
     2
  6
CONTINUOUS
 66
     1
 40
0.003000
 41
0.003000
  0
VERTEX
  8
PLAN_1
 62
     2
  6
CONTINUOUS
 10
-0.525488
 20
-0.970543
  0
VERTEX
  8
PLAN_1
 62
     2
  6
CONTINUOUS
 10
-0.525488
 20
-0.972067
  0
VERTEX
  8
PLAN_1
 62
     2
  6
CONTINUOUS
 10
-0.525996
 20
-0.973591
  0
VERTEX
  8
PLAN_1
 62
     2
  6
CONTINUOUS
 10
-0.526504
 20
-0.975110
  0
VERTEX
  8
PLAN_1
 62
     2
  6
CONTINUOUS
 10
-0.527520
 20
-0.977142
  0
VERTEX
  8
PLAN_1
 62
     2
  6
CONTINUOUS
 10
-0.529043
 20
-0.979681
  0
VERTEX
  8
PLAN_1
 62
     2
  6
CONTINUOUS
 10
-0.530567
 20
-0.981713
  0
VERTEX
  8
PLAN_1
 62
     2
  6
CONTINUOUS
 10
-0.532598
 20
-0.983744
  0
VERTEX
  8
PLAN_1
 62
     2
  6
CONTINUOUS
 10
-0.535138
 20
-0.985776
  0
VERTEX
  8
PLAN_1
 62
     2
  6
CONTINUOUS
 10
-0.536150
 20
-0.986283
  0
VERTEX
  8
PLAN_1
 62
     2
  6
CONTINUOUS
 10
-0.537165
 20
-0.986787
  0
VERTEX
  8
PLAN_1
 62
     2
  6
CONTINUOUS
 10
-0.538689
 20
-0.987295
  0
VERTEX
  8
PLAN_1
 62
     2
  6
CONTINUOUS
 10
-0.540213
 20
-0.988311
  0
VERTEX
  8
PLAN_1
 62
     2
  6
CONTINUOUS
 10
-0.541736
 20
-0.988819
  0
VERTEX
  8
PLAN_1
 62
     2
  6
CONTINUOUS
 10
-0.544276
 20
-0.988819
  0
VERTEX
  8
PLAN_1
 62
     2
  6
CONTINUOUS
 10
-0.546815
 20
-0.989327
  0
VERTEX
  8
PLAN_1
 62
     2
  6
CONTINUOUS
 10
-0.549858
 20
-0.989327
  0
VERTEX
  8
PLAN_1
 62
     2
  6
CONTINUOUS
 10
-0.552398
 20
-0.989327
  0
VERTEX
  8
PLAN_1
 62
     2
  6
CONTINUOUS
 10
-0.555445
 20
-0.988819
  0
VERTEX
  8
PLAN_1
 62
     2
  6
CONTINUOUS
 10
-0.557476
 20
-0.988311
  0
VERTEX
  8
PLAN_1
 62
     2
  6
CONTINUOUS
 10
-0.560016
 20
-0.987295
  0
VERTEX
  8
PLAN_1
 62
     2
  6
CONTINUOUS
 10
-0.562043
 20
-0.986283
  0
VERTEX
  8
PLAN_1
 62
     2
  6
CONTINUOUS
 10
-0.564075
 20
-0.984760
  0
VERTEX
  8
PLAN_1
 62
     2
  6
CONTINUOUS
 10
-0.566106
 20
-0.983236
  0
VERTEX
  8
PLAN_1
 62
     2
  6
CONTINUOUS
 10
-0.567630
 20
-0.981713
  0
VERTEX
  8
PLAN_1
 62
     2
  6
CONTINUOUS
 10
-0.570677
 20
-0.977650
  0
VERTEX
  8
PLAN_1
 62
     2
  6
CONTINUOUS
 10
-0.572709
 20
-0.973083
  0
VERTEX
  8
PLAN_1
 62
     2
  6
CONTINUOUS
 10
-0.573724
 20
-0.967496
  0
VERTEX
  8
PLAN_1
 62
     2
  6
CONTINUOUS
 10
-0.574228
 20
-0.961909
  0
VERTEX
  8
PLAN_1
 62
     2
  6
CONTINUOUS
 10
-0.573724
 20
-0.955819
  0
VERTEX
  8
PLAN_1
 62
     2
  6
CONTINUOUS
 10
-0.572709
 20
-0.950232
  0
VERTEX
  8
PLAN_1
 62
     2
  6
CONTINUOUS
 10
-0.571693
 20
-0.947697
  0
VERTEX
  8
PLAN_1
 62
     2
  6
CONTINUOUS
 10
-0.570677
 20
-0.945157
  0
VERTEX
  8
PLAN_1
 62
     2
  6
CONTINUOUS
 10
-0.569154
 20
-0.942618
  0
VERTEX
  8
PLAN_1
 62
     2
  6
CONTINUOUS
 10
-0.567630
 20
-0.940587
  0
VERTEX
  8
PLAN_1
 62
     2
  6
CONTINUOUS
 10
-0.566106
 20
-0.938555
  0
VERTEX
  8
PLAN_1
 62
     2
  6
CONTINUOUS
 10
-0.564075
 20
-0.937031
  0
VERTEX
  8
PLAN_1
 62
     2
  6
CONTINUOUS
 10
-0.562043
 20
-0.935508
  0
VERTEX
  8
PLAN_1
 62
     2
  6
CONTINUOUS
 10
-0.559508
 20
-0.933988
  0
VERTEX
  8
PLAN_1
 62
     2
  6
CONTINUOUS
 10
-0.556969
 20
-0.932972
  0
VERTEX
  8
PLAN_1
 62
     2
  6
CONTINUOUS
 10
-0.554429
 20
-0.932465
  0
VERTEX
  8
PLAN_1
 62
     2
  6
CONTINUOUS
 10
-0.551382
 20
-0.931957
  0
VERTEX
  8
PLAN_1
 62
     2
  6
CONTINUOUS
 10
-0.547831
 20
-0.931957
  0
VERTEX
  8
PLAN_1
 62
     2
  6
CONTINUOUS
 10
-0.545291
 20
-0.931957
  0
VERTEX
  8
PLAN_1
 62
     2
  6
CONTINUOUS
 10
-0.542244
 20
-0.932465
  0
VERTEX
  8
PLAN_1
 62
     2
  6
CONTINUOUS
 10
-0.540213
 20
-0.932972
  0
VERTEX
  8
PLAN_1
 62
     2
  6
CONTINUOUS
 10
-0.537673
 20
-0.933988
  0
VERTEX
  8
PLAN_1
 62
     2
  6
CONTINUOUS
 10
-0.535642
 20
-0.935508
  0
VERTEX
  8
PLAN_1
 62
     2
  6
CONTINUOUS
 10
-0.533614
 20
-0.936524
  0
VERTEX
  8
PLAN_1
 62
     2
  6
CONTINUOUS
 10
-0.532091
 20
-0.938555
  0
VERTEX
  8
PLAN_1
 62
     2
  6
CONTINUOUS
 10
-0.530567
 20
-0.940587
  0
VERTEX
  8
PLAN_1
 62
     2
  6
CONTINUOUS
 10
-0.528028
 20
-0.945157
  0
VERTEX
  8
PLAN_1
 62
     2
  6
CONTINUOUS
 10
-0.525996
 20
-0.950232
  0
VERTEX
  8
PLAN_1
 62
     2
  6
CONTINUOUS
 10
-0.524980
 20
-0.956835
  0
VERTEX
  8
PLAN_1
 62
     2
  6
CONTINUOUS
 10
-0.524472
 20
-0.963433
  0
VERTEX
  8
PLAN_1
 62
     2
  6
CONTINUOUS
 10
-0.564075
 20
-0.963433
  0
VERTEX
  8
PLAN_1
 62
     2
  6
CONTINUOUS
 10
-0.564075
 20
-0.967496
  0
VERTEX
  8
PLAN_1
 62
     2
  6
CONTINUOUS
 10
-0.563567
 20
-0.971051
  0
VERTEX
  8
PLAN_1
 62
     2
  6
CONTINUOUS
 10
-0.562043
 20
-0.974094
  0
VERTEX
  8
PLAN_1
 62
     2
  6
CONTINUOUS
 10
-0.560524
 20
-0.976634
  0
VERTEX
  8
PLAN_1
 62
     2
  6
CONTINUOUS
 10
-0.557984
 20
-0.978665
  0
VERTEX
  8
PLAN_1
 62
     2
  6
CONTINUOUS
 10
-0.555445
 20
-0.980189
  0
VERTEX
  8
PLAN_1
 62
     2
  6
CONTINUOUS
 10
-0.552398
 20
-0.981205
  0
VERTEX
  8
PLAN_1
 62
     2
  6
CONTINUOUS
 10
-0.548335
 20
-0.981205
  0
VERTEX
  8
PLAN_1
 62
     2
  6
CONTINUOUS
 10
-0.545291
 20
-0.981205
  0
VERTEX
  8
PLAN_1
 62
     2
  6
CONTINUOUS
 10
-0.542752
 20
-0.980189
  0
VERTEX
  8
PLAN_1
 62
     2
  6
CONTINUOUS
 10
-0.540213
 20
-0.979173
  0
VERTEX
  8
PLAN_1
 62
     2
  6
CONTINUOUS
 10
-0.538181
 20
-0.977650
  0
VERTEX
  8
PLAN_1
 62
     2
  6
CONTINUOUS
 10
-0.536657
 20
-0.975618
  0
VERTEX
  8
PLAN_1
 62
     2
  6
CONTINUOUS
 10
-0.535642
 20
-0.974094
  0
VERTEX
  8
PLAN_1
 62
     2
  6
CONTINUOUS
 10
-0.534630
 20
-0.972067
  0
VERTEX
  8
PLAN_1
 62
     2
  6
CONTINUOUS
 10
-0.534630
 20
-0.970543
  0
VERTEX
  8
PLAN_1
 62
     2
  6
CONTINUOUS
 10
-0.525488
 20
-0.970543
  0
SEQEND
  8
0
  0
POLYLINE
  8
PLAN_1
 62
     2
  6
CONTINUOUS
 66
     1
 40
0.003000
 41
0.003000
  0
VERTEX
  8
PLAN_1
 62
     2
  6
CONTINUOUS
 10
-0.534122
 20
-0.956327
  0
VERTEX
  8
PLAN_1
 62
     2
  6
CONTINUOUS
 10
-0.534630
 20
-0.953280
  0
VERTEX
  8
PLAN_1
 62
     2
  6
CONTINUOUS
 10
-0.535138
 20
-0.950232
  0
VERTEX
  8
PLAN_1
 62
     2
  6
CONTINUOUS
 10
-0.536150
 20
-0.947189
  0
VERTEX
  8
PLAN_1
 62
     2
  6
CONTINUOUS
 10
-0.537673
 20
-0.945157
  0
VERTEX
  8
PLAN_1
 62
     2
  6
CONTINUOUS
 10
-0.539705
 20
-0.943126
  0
VERTEX
  8
PLAN_1
 62
     2
  6
CONTINUOUS
 10
-0.542244
 20
-0.941602
  0
VERTEX
  8
PLAN_1
 62
     2
  6
CONTINUOUS
 10
-0.545291
 20
-0.940587
  0
VERTEX
  8
PLAN_1
 62
     2
  6
CONTINUOUS
 10
-0.549350
 20
-0.940079
  0
VERTEX
  8
PLAN_1
 62
     2
  6
CONTINUOUS
 10
-0.552398
 20
-0.940587
  0
VERTEX
  8
PLAN_1
 62
     2
  6
CONTINUOUS
 10
-0.554937
 20
-0.941602
  0
VERTEX
  8
PLAN_1
 62
     2
  6
CONTINUOUS
 10
-0.557476
 20
-0.943126
  0
VERTEX
  8
PLAN_1
 62
     2
  6
CONTINUOUS
 10
-0.560016
 20
-0.945157
  0
VERTEX
  8
PLAN_1
 62
     2
  6
CONTINUOUS
 10
-0.561535
 20
-0.947189
  0
VERTEX
  8
PLAN_1
 62
     2
  6
CONTINUOUS
 10
-0.563059
 20
-0.950232
  0
VERTEX
  8
PLAN_1
 62
     2
  6
CONTINUOUS
 10
-0.564075
 20
-0.953280
  0
VERTEX
  8
PLAN_1
 62
     2
  6
CONTINUOUS
 10
-0.564075
 20
-0.956327
  0
VERTEX
  8
PLAN_1
 62
     2
  6
CONTINUOUS
 10
-0.534122
 20
-0.956327
  0
SEQEND
  8
0
  0
POLYLINE
  8
PLAN_1
 62
     2
  6
CONTINUOUS
 66
     1
 40
0.003000
 41
0.003000
  0
VERTEX
  8
PLAN_1
 62
     2
  6
CONTINUOUS
 10
-0.478272
 20
-0.987803
  0
VERTEX
  8
PLAN_1
 62
     2
  6
CONTINUOUS
 10
-0.478272
 20
-0.979681
  0
VERTEX
  8
PLAN_1
 62
     2
  6
CONTINUOUS
 10
-0.479795
 20
-0.981713
  0
VERTEX
  8
PLAN_1
 62
     2
  6
CONTINUOUS
 10
-0.481319
 20
-0.983744
  0
VERTEX
  8
PLAN_1
 62
     2
  6
CONTINUOUS
 10
-0.483350
 20
-0.985268
  0
VERTEX
  8
PLAN_1
 62
     2
  6
CONTINUOUS
 10
-0.485378
 20
-0.986787
  0
VERTEX
  8
PLAN_1
 62
     2
  6
CONTINUOUS
 10
-0.487409
 20
-0.987803
  0
VERTEX
  8
PLAN_1
 62
     2
  6
CONTINUOUS
 10
-0.489949
 20
-0.988819
  0
VERTEX
  8
PLAN_1
 62
     2
  6
CONTINUOUS
 10
-0.492488
 20
-0.989327
  0
VERTEX
  8
PLAN_1
 62
     2
  6
CONTINUOUS
 10
-0.495535
 20
-0.989327
  0
VERTEX
  8
PLAN_1
 62
     2
  6
CONTINUOUS
 10
-0.498579
 20
-0.989327
  0
VERTEX
  8
PLAN_1
 62
     2
  6
CONTINUOUS
 10
-0.501626
 20
-0.988311
  0
VERTEX
  8
PLAN_1
 62
     2
  6
CONTINUOUS
 10
-0.504673
 20
-0.987295
  0
VERTEX
  8
PLAN_1
 62
     2
  6
CONTINUOUS
 10
-0.507213
 20
-0.985776
  0
VERTEX
  8
PLAN_1
 62
     2
  6
CONTINUOUS
 10
-0.509748
 20
-0.983744
  0
VERTEX
  8
PLAN_1
 62
     2
  6
CONTINUOUS
 10
-0.511780
 20
-0.980697
  0
VERTEX
  8
PLAN_1
 62
     2
  6
CONTINUOUS
 10
-0.512795
 20
-0.977142
  0
VERTEX
  8
PLAN_1
 62
     2
  6
CONTINUOUS
 10
-0.513303
 20
-0.972575
  0
VERTEX
  8
PLAN_1
 62
     2
  6
CONTINUOUS
 10
-0.513303
 20
-0.933480
  0
VERTEX
  8
PLAN_1
 62
     2
  6
CONTINUOUS
 10
-0.504165
 20
-0.933480
  0
VERTEX
  8
PLAN_1
 62
     2
  6
CONTINUOUS
 10
-0.504165
 20
-0.969528
  0
VERTEX
  8
PLAN_1
 62
     2
  6
CONTINUOUS
 10
-0.504165
 20
-0.972575
  0
VERTEX
  8
PLAN_1
 62
     2
  6
CONTINUOUS
 10
-0.503150
 20
-0.975110
  0
VERTEX
  8
PLAN_1
 62
     2
  6
CONTINUOUS
 10
-0.502134
 20
-0.977142
  0
VERTEX
  8
PLAN_1
 62
     2
  6
CONTINUOUS
 10
-0.501118
 20
-0.978665
  0
VERTEX
  8
PLAN_1
 62
     2
  6
CONTINUOUS
 10
-0.499594
 20
-0.980189
  0
VERTEX
  8
PLAN_1
 62
     2
  6
CONTINUOUS
 10
-0.497563
 20
-0.980697
  0
VERTEX
  8
PLAN_1
 62
     2
  6
CONTINUOUS
 10
-0.496043
 20
-0.981205
  0
VERTEX
  8
PLAN_1
 62
     2
  6
CONTINUOUS
 10
-0.493504
 20
-0.981205
  0
VERTEX
  8
PLAN_1
 62
     2
  6
CONTINUOUS
 10
-0.489441
 20
-0.981205
  0
VERTEX
  8
PLAN_1
 62
     2
  6
CONTINUOUS
 10
-0.486394
 20
-0.979681
  0
VERTEX
  8
PLAN_1
 62
     2
  6
CONTINUOUS
 10
-0.483854
 20
-0.977650
  0
VERTEX
  8
PLAN_1
 62
     2
  6
CONTINUOUS
 10
-0.481827
 20
-0.975110
  0
VERTEX
  8
PLAN_1
 62
     2
  6
CONTINUOUS
 10
-0.480303
 20
-0.972575
  0
VERTEX
  8
PLAN_1
 62
     2
  6
CONTINUOUS
 10
-0.479287
 20
-0.969528
  0
VERTEX
  8
PLAN_1
 62
     2
  6
CONTINUOUS
 10
-0.478780
 20
-0.966480
  0
VERTEX
  8
PLAN_1
 62
     2
  6
CONTINUOUS
 10
-0.478780
 20
-0.963433
  0
VERTEX
  8
PLAN_1
 62
     2
  6
CONTINUOUS
 10
-0.478780
 20
-0.933480
  0
VERTEX
  8
PLAN_1
 62
     2
  6
CONTINUOUS
 10
-0.469642
 20
-0.933480
  0
VERTEX
  8
PLAN_1
 62
     2
  6
CONTINUOUS
 10
-0.469642
 20
-0.987803
  0
VERTEX
  8
PLAN_1
 62
     2
  6
CONTINUOUS
 10
-0.478272
 20
-0.987803
  0
SEQEND
  8
0
  0
POLYLINE
  8
PLAN_1
 62
     2
  6
CONTINUOUS
 66
     1
 40
0.003000
 41
0.003000
  0
VERTEX
  8
PLAN_1
 62
     2
  6
CONTINUOUS
 10
-0.445268
 20
-0.987803
  0
VERTEX
  8
PLAN_1
 62
     2
  6
CONTINUOUS
 10
-0.454409
 20
-0.987803
  0
VERTEX
  8
PLAN_1
 62
     2
  6
CONTINUOUS
 10
-0.454409
 20
-0.933480
  0
VERTEX
  8
PLAN_1
 62
     2
  6
CONTINUOUS
 10
-0.445776
 20
-0.933480
  0
VERTEX
  8
PLAN_1
 62
     2
  6
CONTINUOUS
 10
-0.445776
 20
-0.942618
  0
VERTEX
  8
PLAN_1
 62
     2
  6
CONTINUOUS
 10
-0.444256
 20
-0.940079
  0
VERTEX
  8
PLAN_1
 62
     2
  6
CONTINUOUS
 10
-0.442732
 20
-0.938047
  0
VERTEX
  8
PLAN_1
 62
     2
  6
CONTINUOUS
 10
-0.441209
 20
-0.936016
  0
VERTEX
  8
PLAN_1
 62
     2
  6
CONTINUOUS
 10
-0.439177
 20
-0.934496
  0
VERTEX
  8
PLAN_1
 62
     2
  6
CONTINUOUS
 10
-0.437146
 20
-0.933480
  0
VERTEX
  8
PLAN_1
 62
     2
  6
CONTINUOUS
 10
-0.435114
 20
-0.932465
  0
VERTEX
  8
PLAN_1
 62
     2
  6
CONTINUOUS
 10
-0.432575
 20
-0.931957
  0
VERTEX
  8
PLAN_1
 62
     2
  6
CONTINUOUS
 10
-0.430547
 20
-0.931957
  0
VERTEX
  8
PLAN_1
 62
     2
  6
CONTINUOUS
 10
-0.430039
 20
-0.931957
  0
VERTEX
  8
PLAN_1
 62
     2
  6
CONTINUOUS
 10
-0.429531
 20
-0.931957
  0
VERTEX
  8
PLAN_1
 62
     2
  6
CONTINUOUS
 10
-0.429024
 20
-0.931957
  0
VERTEX
  8
PLAN_1
 62
     2
  6
CONTINUOUS
 10
-0.428516
 20
-0.931957
  0
VERTEX
  8
PLAN_1
 62
     2
  6
CONTINUOUS
 10
-0.428008
 20
-0.931957
  0
VERTEX
  8
PLAN_1
 62
     2
  6
CONTINUOUS
 10
-0.428008
 20
-0.941602
  0
VERTEX
  8
PLAN_1
 62
     2
  6
CONTINUOUS
 10
-0.431563
 20
-0.941602
  0
VERTEX
  8
PLAN_1
 62
     2
  6
CONTINUOUS
 10
-0.434606
 20
-0.942110
  0
VERTEX
  8
PLAN_1
 62
     2
  6
CONTINUOUS
 10
-0.437146
 20
-0.942618
  0
VERTEX
  8
PLAN_1
 62
     2
  6
CONTINUOUS
 10
-0.439685
 20
-0.944142
  0
VERTEX
  8
PLAN_1
 62
     2
  6
CONTINUOUS
 10
-0.441717
 20
-0.945665
  0
VERTEX
  8
PLAN_1
 62
     2
  6
CONTINUOUS
 10
-0.443240
 20
-0.948201
  0
VERTEX
  8
PLAN_1
 62
     2
  6
CONTINUOUS
 10
-0.444256
 20
-0.950740
  0
VERTEX
  8
PLAN_1
 62
     2
  6
CONTINUOUS
 10
-0.445268
 20
-0.953280
  0
VERTEX
  8
PLAN_1
 62
     2
  6
CONTINUOUS
 10
-0.445268
 20
-0.956327
  0
VERTEX
  8
PLAN_1
 62
     2
  6
CONTINUOUS
 10
-0.445268
 20
-0.987803
  0
SEQEND
  8
0
  0
POLYLINE
  8
PLAN_1
 62
     2
  6
CONTINUOUS
 66
     1
 40
0.003000
 41
0.003000
  0
VERTEX
  8
PLAN_1
 62
     2
  6
CONTINUOUS
 10
-0.361496
 20
-0.987803
  0
VERTEX
  8
PLAN_1
 62
     2
  6
CONTINUOUS
 10
-0.371142
 20
-0.987803
  0
VERTEX
  8
PLAN_1
 62
     2
  6
CONTINUOUS
 10
-0.371142
 20
-0.936016
  0
VERTEX
  8
PLAN_1
 62
     2
  6
CONTINUOUS
 10
-0.388406
 20
-0.936016
  0
VERTEX
  8
PLAN_1
 62
     2
  6
CONTINUOUS
 10
-0.388406
 20
-0.928402
  0
VERTEX
  8
PLAN_1
 62
     2
  6
CONTINUOUS
 10
-0.384343
 20
-0.928402
  0
VERTEX
  8
PLAN_1
 62
     2
  6
CONTINUOUS
 10
-0.380787
 20
-0.927894
  0
VERTEX
  8
PLAN_1
 62
     2
  6
CONTINUOUS
 10
-0.377744
 20
-0.926878
  0
VERTEX
  8
PLAN_1
 62
     2
  6
CONTINUOUS
 10
-0.375205
 20
-0.925862
  0
VERTEX
  8
PLAN_1
 62
     2
  6
CONTINUOUS
 10
-0.373173
 20
-0.923831
  0
VERTEX
  8
PLAN_1
 62
     2
  6
CONTINUOUS
 10
-0.371142
 20
-0.921803
  0
VERTEX
  8
PLAN_1
 62
     2
  6
CONTINUOUS
 10
-0.370126
 20
-0.918756
  0
VERTEX
  8
PLAN_1
 62
     2
  6
CONTINUOUS
 10
-0.368602
 20
-0.914693
  0
VERTEX
  8
PLAN_1
 62
     2
  6
CONTINUOUS
 10
-0.361496
 20
-0.914693
  0
VERTEX
  8
PLAN_1
 62
     2
  6
CONTINUOUS
 10
-0.361496
 20
-0.987803
  0
SEQEND
  8
0
  0
SOLID
  8
PLAN_1
 62
     2
 10
-0.335602
 20
-0.989835
 11
-0.342709
 21
-0.989835
 12
-0.310217
 22
-0.911138
 13
-0.317323
 23
-0.911138
  0
POLYLINE
  8
PLAN_1
 62
     2
  6
CONTINUOUS
 66
     1
 40
0.003000
 41
0.003000
  0
VERTEX
  8
PLAN_1
 62
     2
  6
CONTINUOUS
 10
-0.335602
 20
-0.989835
  0
VERTEX
  8
PLAN_1
 62
     2
  6
CONTINUOUS
 10
-0.342709
 20
-0.989835
  0
VERTEX
  8
PLAN_1
 62
     2
  6
CONTINUOUS
 10
-0.317323
 20
-0.911138
  0
VERTEX
  8
PLAN_1
 62
     2
  6
CONTINUOUS
 10
-0.310217
 20
-0.911138
  0
VERTEX
  8
PLAN_1
 62
     2
  6
CONTINUOUS
 10
-0.335602
 20
-0.989835
  0
SEQEND
  8
0
  0
POLYLINE
  8
PLAN_1
 62
     2
  6
CONTINUOUS
 66
     1
 40
0.003000
 41
0.003000
  0
VERTEX
  8
PLAN_1
 62
     2
  6
CONTINUOUS
 10
-0.307677
 20
-0.940587
  0
VERTEX
  8
PLAN_1
 62
     2
  6
CONTINUOUS
 10
-0.307169
 20
-0.936524
  0
VERTEX
  8
PLAN_1
 62
     2
  6
CONTINUOUS
 10
-0.306661
 20
-0.932972
  0
VERTEX
  8
PLAN_1
 62
     2
  6
CONTINUOUS
 10
-0.305646
 20
-0.929417
  0
VERTEX
  8
PLAN_1
 62
     2
  6
CONTINUOUS
 10
-0.304630
 20
-0.926878
  0
VERTEX
  8
PLAN_1
 62
     2
  6
CONTINUOUS
 10
-0.303110
 20
-0.924339
  0
VERTEX
  8
PLAN_1
 62
     2
  6
CONTINUOUS
 10
-0.301587
 20
-0.922307
  0
VERTEX
  8
PLAN_1
 62
     2
  6
CONTINUOUS
 10
-0.299555
 20
-0.920280
  0
VERTEX
  8
PLAN_1
 62
     2
  6
CONTINUOUS
 10
-0.298031
 20
-0.918756
  0
VERTEX
  8
PLAN_1
 62
     2
  6
CONTINUOUS
 10
-0.293461
 20
-0.916724
  0
VERTEX
  8
PLAN_1
 62
     2
  6
CONTINUOUS
 10
-0.289402
 20
-0.915201
  0
VERTEX
  8
PLAN_1
 62
     2
  6
CONTINUOUS
 10
-0.285339
 20
-0.914693
  0
VERTEX
  8
PLAN_1
 62
     2
  6
CONTINUOUS
 10
-0.282291
 20
-0.914693
  0
VERTEX
  8
PLAN_1
 62
     2
  6
CONTINUOUS
 10
-0.277720
 20
-0.915201
  0
VERTEX
  8
PLAN_1
 62
     2
  6
CONTINUOUS
 10
-0.273154
 20
-0.916217
  0
VERTEX
  8
PLAN_1
 62
     2
  6
CONTINUOUS
 10
-0.269598
 20
-0.917740
  0
VERTEX
  8
PLAN_1
 62
     2
  6
CONTINUOUS
 10
-0.266043
 20
-0.920280
  0
VERTEX
  8
PLAN_1
 62
     2
  6
CONTINUOUS
 10
-0.263000
 20
-0.923323
  0
VERTEX
  8
PLAN_1
 62
     2
  6
CONTINUOUS
 10
-0.260969
 20
-0.927386
  0
VERTEX
  8
PLAN_1
 62
     2
  6
CONTINUOUS
 10
-0.259953
 20
-0.931449
  0
VERTEX
  8
PLAN_1
 62
     2
  6
CONTINUOUS
 10
-0.259445
 20
-0.936524
  0
VERTEX
  8
PLAN_1
 62
     2
  6
CONTINUOUS
 10
-0.259953
 20
-0.941094
  0
VERTEX
  8
PLAN_1
 62
     2
  6
CONTINUOUS
 10
-0.260969
 20
-0.945157
  0
VERTEX
  8
PLAN_1
 62
     2
  6
CONTINUOUS
 10
-0.262492
 20
-0.948201
  0
VERTEX
  8
PLAN_1
 62
     2
  6
CONTINUOUS
 10
-0.265028
 20
-0.951248
  0
VERTEX
  8
PLAN_1
 62
     2
  6
CONTINUOUS
 10
-0.268075
 20
-0.954295
  0
VERTEX
  8
PLAN_1
 62
     2
  6
CONTINUOUS
 10
-0.271122
 20
-0.956327
  0
VERTEX
  8
PLAN_1
 62
     2
  6
CONTINUOUS
 10
-0.274677
 20
-0.958866
  0
VERTEX
  8
PLAN_1
 62
     2
  6
CONTINUOUS
 10
-0.278736
 20
-0.960894
  0
VERTEX
  8
PLAN_1
 62
     2
  6
CONTINUOUS
 10
-0.286354
 20
-0.964957
  0
VERTEX
  8
PLAN_1
 62
     2
  6
CONTINUOUS
 10
-0.289909
 20
-0.966988
  0
VERTEX
  8
PLAN_1
 62
     2
  6
CONTINUOUS
 10
-0.292445
 20
-0.969020
  0
VERTEX
  8
PLAN_1
 62
     2
  6
CONTINUOUS
 10
-0.294476
 20
-0.971051
  0
VERTEX
  8
PLAN_1
 62
     2
  6
CONTINUOUS
 10
-0.296508
 20
-0.973083
  0
VERTEX
  8
PLAN_1
 62
     2
  6
CONTINUOUS
 10
-0.297524
 20
-0.975110
  0
VERTEX
  8
PLAN_1
 62
     2
  6
CONTINUOUS
 10
-0.298539
 20
-0.976634
  0
VERTEX
  8
PLAN_1
 62
     2
  6
CONTINUOUS
 10
-0.299047
 20
-0.978157
  0
VERTEX
  8
PLAN_1
 62
     2
  6
CONTINUOUS
 10
-0.299047
 20
-0.979173
  0
VERTEX
  8
PLAN_1
 62
     2
  6
CONTINUOUS
 10
-0.259445
 20
-0.979173
  0
VERTEX
  8
PLAN_1
 62
     2
  6
CONTINUOUS
 10
-0.259445
 20
-0.987803
  0
VERTEX
  8
PLAN_1
 62
     2
  6
CONTINUOUS
 10
-0.309201
 20
-0.987803
  0
VERTEX
  8
PLAN_1
 62
     2
  6
CONTINUOUS
 10
-0.308693
 20
-0.982220
  0
VERTEX
  8
PLAN_1
 62
     2
  6
CONTINUOUS
 10
-0.307677
 20
-0.977650
  0
VERTEX
  8
PLAN_1
 62
     2
  6
CONTINUOUS
 10
-0.306154
 20
-0.973591
  0
VERTEX
  8
PLAN_1
 62
     2
  6
CONTINUOUS
 10
-0.304122
 20
-0.969528
  0
VERTEX
  8
PLAN_1
 62
     2
  6
CONTINUOUS
 10
-0.301587
 20
-0.966480
  0
VERTEX
  8
PLAN_1
 62
     2
  6
CONTINUOUS
 10
-0.299047
 20
-0.963433
  0
VERTEX
  8
PLAN_1
 62
     2
  6
CONTINUOUS
 10
-0.295492
 20
-0.960894
  0
VERTEX
  8
PLAN_1
 62
     2
  6
CONTINUOUS
 10
-0.291937
 20
-0.958866
  0
VERTEX
  8
PLAN_1
 62
     2
  6
CONTINUOUS
 10
-0.282291
 20
-0.953280
  0
VERTEX
  8
PLAN_1
 62
     2
  6
CONTINUOUS
 10
-0.279752
 20
-0.951248
  0
VERTEX
  8
PLAN_1
 62
     2
  6
CONTINUOUS
 10
-0.277217
 20
-0.949724
  0
VERTEX
  8
PLAN_1
 62
     2
  6
CONTINUOUS
 10
-0.274677
 20
-0.948201
  0
VERTEX
  8
PLAN_1
 62
     2
  6
CONTINUOUS
 10
-0.272646
 20
-0.946681
  0
VERTEX
  8
PLAN_1
 62
     2
  6
CONTINUOUS
 10
-0.271122
 20
-0.944650
  0
VERTEX
  8
PLAN_1
 62
     2
  6
CONTINUOUS
 10
-0.270106
 20
-0.942110
  0
VERTEX
  8
PLAN_1
 62
     2
  6
CONTINUOUS
 10
-0.269091
 20
-0.939571
  0
VERTEX
  8
PLAN_1
 62
     2
  6
CONTINUOUS
 10
-0.269091
 20
-0.936016
  0
VERTEX
  8
PLAN_1
 62
     2
  6
CONTINUOUS
 10
-0.269091
 20
-0.933988
  0
VERTEX
  8
PLAN_1
 62
     2
  6
CONTINUOUS
 10
-0.269598
 20
-0.931449
  0
VERTEX
  8
PLAN_1
 62
     2
  6
CONTINUOUS
 10
-0.270614
 20
-0.929417
  0
VERTEX
  8
PLAN_1
 62
     2
  6
CONTINUOUS
 10
-0.272138
 20
-0.927386
  0
VERTEX
  8
PLAN_1
 62
     2
  6
CONTINUOUS
 10
-0.274169
 20
-0.925354
  0
VERTEX
  8
PLAN_1
 62
     2
  6
CONTINUOUS
 10
-0.276709
 20
-0.923831
  0
VERTEX
  8
PLAN_1
 62
     2
  6
CONTINUOUS
 10
-0.279752
 20
-0.923323
  0
VERTEX
  8
PLAN_1
 62
     2
  6
CONTINUOUS
 10
-0.283307
 20
-0.922815
  0
VERTEX
  8
PLAN_1
 62
     2
  6
CONTINUOUS
 10
-0.285846
 20
-0.922815
  0
VERTEX
  8
PLAN_1
 62
     2
  6
CONTINUOUS
 10
-0.288386
 20
-0.923323
  0
VERTEX
  8
PLAN_1
 62
     2
  6
CONTINUOUS
 10
-0.289909
 20
-0.923831
  0
VERTEX
  8
PLAN_1
 62
     2
  6
CONTINUOUS
 10
-0.291429
 20
-0.924846
  0
VERTEX
  8
PLAN_1
 62
     2
  6
CONTINUOUS
 10
-0.293969
 20
-0.927386
  0
VERTEX
  8
PLAN_1
 62
     2
  6
CONTINUOUS
 10
-0.296000
 20
-0.929925
  0
VERTEX
  8
PLAN_1
 62
     2
  6
CONTINUOUS
 10
-0.297016
 20
-0.932972
  0
VERTEX
  8
PLAN_1
 62
     2
  6
CONTINUOUS
 10
-0.298031
 20
-0.936016
  0
VERTEX
  8
PLAN_1
 62
     2
  6
CONTINUOUS
 10
-0.298031
 20
-0.938555
  0
VERTEX
  8
PLAN_1
 62
     2
  6
CONTINUOUS
 10
-0.298539
 20
-0.940587
  0
VERTEX
  8
PLAN_1
 62
     2
  6
CONTINUOUS
 10
-0.307677
 20
-0.940587
  0
SEQEND
  8
0
  0
SOLID
  8
PLAN_1
 62
     2
 10
-0.246752
 20
-0.913169
 11
-0.239134
 21
-0.913169
 12
-0.246752
 22
-0.939571
 13
-0.239134
 23
-0.939571
  0
POLYLINE
  8
PLAN_1
 62
     2
  6
CONTINUOUS
 66
     1
 40
0.003000
 41
0.003000
  0
VERTEX
  8
PLAN_1
 62
     2
  6
CONTINUOUS
 10
-0.246752
 20
-0.913169
  0
VERTEX
  8
PLAN_1
 62
     2
  6
CONTINUOUS
 10
-0.239134
 20
-0.913169
  0
VERTEX
  8
PLAN_1
 62
     2
  6
CONTINUOUS
 10
-0.239134
 20
-0.939571
  0
VERTEX
  8
PLAN_1
 62
     2
  6
CONTINUOUS
 10
-0.246752
 20
-0.939571
  0
VERTEX
  8
PLAN_1
 62
     2
  6
CONTINUOUS
 10
-0.246752
 20
-0.913169
  0
SEQEND
  8
0
  0
SOLID
  8
PLAN_1
 62
     2
 10
-0.232028
 20
-0.913169
 11
-0.224413
 21
-0.913169
 12
-0.232028
 22
-0.939571
 13
-0.224413
 23
-0.939571
  0
POLYLINE
  8
PLAN_1
 62
     2
  6
CONTINUOUS
 66
     1
 40
0.003000
 41
0.003000
  0
VERTEX
  8
PLAN_1
 62
     2
  6
CONTINUOUS
 10
-0.232028
 20
-0.913169
  0
VERTEX
  8
PLAN_1
 62
     2
  6
CONTINUOUS
 10
-0.224413
 20
-0.913169
  0
VERTEX
  8
PLAN_1
 62
     2
  6
CONTINUOUS
 10
-0.224413
 20
-0.939571
  0
VERTEX
  8
PLAN_1
 62
     2
  6
CONTINUOUS
 10
-0.232028
 20
-0.939571
  0
VERTEX
  8
PLAN_1
 62
     2
  6
CONTINUOUS
 10
-0.232028
 20
-0.913169
  0
SEQEND
  8
0
  0
POLYLINE
  8
PLAN_1
 62
     2
  6
CONTINUOUS
 66
     1
 40
0.003000
 41
0.003000
  0
VERTEX
  8
PLAN_1
 62
     2
  6
CONTINUOUS
 10
-0.130992
 20
-0.913169
  0
VERTEX
  8
PLAN_1
 62
     2
  6
CONTINUOUS
 10
-0.120839
 20
-0.913169
  0
VERTEX
  8
PLAN_1
 62
     2
  6
CONTINUOUS
 10
-0.120839
 20
-0.987803
  0
VERTEX
  8
PLAN_1
 62
     2
  6
CONTINUOUS
 10
-0.132516
 20
-0.987803
  0
VERTEX
  8
PLAN_1
 62
     2
  6
CONTINUOUS
 10
-0.170594
 20
-0.927386
  0
VERTEX
  8
PLAN_1
 62
     2
  6
CONTINUOUS
 10
-0.170594
 20
-0.987803
  0
VERTEX
  8
PLAN_1
 62
     2
  6
CONTINUOUS
 10
-0.180240
 20
-0.987803
  0
VERTEX
  8
PLAN_1
 62
     2
  6
CONTINUOUS
 10
-0.180240
 20
-0.913169
  0
VERTEX
  8
PLAN_1
 62
     2
  6
CONTINUOUS
 10
-0.168563
 20
-0.913169
  0
VERTEX
  8
PLAN_1
 62
     2
  6
CONTINUOUS
 10
-0.130992
 20
-0.973591
  0
VERTEX
  8
PLAN_1
 62
     2
  6
CONTINUOUS
 10
-0.130992
 20
-0.913169
  0
SEQEND
  8
0
  0
POLYLINE
  8
PLAN_1
 62
     2
  6
CONTINUOUS
 66
     1
 40
0.003000
 41
0.003000
  0
VERTEX
  8
PLAN_1
 62
     2
  6
CONTINUOUS
 10
-0.093929
 20
-0.987803
  0
VERTEX
  8
PLAN_1
 62
     2
  6
CONTINUOUS
 10
-0.104083
 20
-0.987803
  0
VERTEX
  8
PLAN_1
 62
     2
  6
CONTINUOUS
 10
-0.104083
 20
-0.913169
  0
VERTEX
  8
PLAN_1
 62
     2
  6
CONTINUOUS
 10
-0.070575
 20
-0.913169
  0
VERTEX
  8
PLAN_1
 62
     2
  6
CONTINUOUS
 10
-0.065496
 20
-0.913677
  0
VERTEX
  8
PLAN_1
 62
     2
  6
CONTINUOUS
 10
-0.061433
 20
-0.914693
  0
VERTEX
  8
PLAN_1
 62
     2
  6
CONTINUOUS
 10
-0.057374
 20
-0.916724
  0
VERTEX
  8
PLAN_1
 62
     2
  6
CONTINUOUS
 10
-0.054327
 20
-0.919264
  0
VERTEX
  8
PLAN_1
 62
     2
  6
CONTINUOUS
 10
-0.051787
 20
-0.922307
  0
VERTEX
  8
PLAN_1
 62
     2
  6
CONTINUOUS
 10
-0.049756
 20
-0.925862
  0
VERTEX
  8
PLAN_1
 62
     2
  6
CONTINUOUS
 10
-0.048740
 20
-0.929925
  0
VERTEX
  8
PLAN_1
 62
     2
  6
CONTINUOUS
 10
-0.048232
 20
-0.933988
  0
VERTEX
  8
PLAN_1
 62
     2
  6
CONTINUOUS
 10
-0.048740
 20
-0.938047
  0
VERTEX
  8
PLAN_1
 62
     2
  6
CONTINUOUS
 10
-0.049756
 20
-0.942110
  0
VERTEX
  8
PLAN_1
 62
     2
  6
CONTINUOUS
 10
-0.051280
 20
-0.945665
  0
VERTEX
  8
PLAN_1
 62
     2
  6
CONTINUOUS
 10
-0.053311
 20
-0.949217
  0
VERTEX
  8
PLAN_1
 62
     2
  6
CONTINUOUS
 10
-0.056358
 20
-0.951756
  0
VERTEX
  8
PLAN_1
 62
     2
  6
CONTINUOUS
 10
-0.060417
 20
-0.954295
  0
VERTEX
  8
PLAN_1
 62
     2
  6
CONTINUOUS
 10
-0.062449
 20
-0.955311
  0
VERTEX
  8
PLAN_1
 62
     2
  6
CONTINUOUS
 10
-0.064988
 20
-0.955819
  0
VERTEX
  8
PLAN_1
 62
     2
  6
CONTINUOUS
 10
-0.067528
 20
-0.956327
  0
VERTEX
  8
PLAN_1
 62
     2
  6
CONTINUOUS
 10
-0.070575
 20
-0.956327
  0
VERTEX
  8
PLAN_1
 62
     2
  6
CONTINUOUS
 10
-0.093929
 20
-0.956327
  0
VERTEX
  8
PLAN_1
 62
     2
  6
CONTINUOUS
 10
-0.093929
 20
-0.987803
  0
SEQEND
  8
0
  0
POLYLINE
  8
PLAN_1
 62
     2
  6
CONTINUOUS
 66
     1
 40
0.003000
 41
0.003000
  0
VERTEX
  8
PLAN_1
 62
     2
  6
CONTINUOUS
 10
-0.093929
 20
-0.947697
  0
VERTEX
  8
PLAN_1
 62
     2
  6
CONTINUOUS
 10
-0.074126
 20
-0.947697
  0
VERTEX
  8
PLAN_1
 62
     2
  6
CONTINUOUS
 10
-0.070575
 20
-0.947189
  0
VERTEX
  8
PLAN_1
 62
     2
  6
CONTINUOUS
 10
-0.067528
 20
-0.946681
  0
VERTEX
  8
PLAN_1
 62
     2
  6
CONTINUOUS
 10
-0.064988
 20
-0.946173
  0
VERTEX
  8
PLAN_1
 62
     2
  6
CONTINUOUS
 10
-0.062957
 20
-0.944650
  0
VERTEX
  8
PLAN_1
 62
     2
  6
CONTINUOUS
 10
-0.061433
 20
-0.942618
  0
VERTEX
  8
PLAN_1
 62
     2
  6
CONTINUOUS
 10
-0.059909
 20
-0.940587
  0
VERTEX
  8
PLAN_1
 62
     2
  6
CONTINUOUS
 10
-0.058894
 20
-0.937539
  0
VERTEX
  8
PLAN_1
 62
     2
  6
CONTINUOUS
 10
-0.058894
 20
-0.933988
  0
VERTEX
  8
PLAN_1
 62
     2
  6
CONTINUOUS
 10
-0.058894
 20
-0.930941
  0
VERTEX
  8
PLAN_1
 62
     2
  6
CONTINUOUS
 10
-0.059909
 20
-0.928402
  0
VERTEX
  8
PLAN_1
 62
     2
  6
CONTINUOUS
 10
-0.061433
 20
-0.925862
  0
VERTEX
  8
PLAN_1
 62
     2
  6
CONTINUOUS
 10
-0.062957
 20
-0.924339
  0
VERTEX
  8
PLAN_1
 62
     2
  6
CONTINUOUS
 10
-0.064988
 20
-0.923323
  0
VERTEX
  8
PLAN_1
 62
     2
  6
CONTINUOUS
 10
-0.067528
 20
-0.922307
  0
VERTEX
  8
PLAN_1
 62
     2
  6
CONTINUOUS
 10
-0.070575
 20
-0.921803
  0
VERTEX
  8
PLAN_1
 62
     2
  6
CONTINUOUS
 10
-0.073618
 20
-0.921803
  0
VERTEX
  8
PLAN_1
 62
     2
  6
CONTINUOUS
 10
-0.093929
 20
-0.921803
  0
VERTEX
  8
PLAN_1
 62
     2
  6
CONTINUOUS
 10
-0.093929
 20
-0.947697
  0
SEQEND
  8
0
  0
POLYLINE
  8
PLAN_1
 62
     2
  6
CONTINUOUS
 66
     1
 40
0.003000
 41
0.003000
  0
VERTEX
  8
PLAN_1
 62
     2
  6
CONTINUOUS
 10
-0.042142
 20
-0.913169
  0
VERTEX
  8
PLAN_1
 62
     2
  6
CONTINUOUS
 10
0.018280
 20
-0.913169
  0
VERTEX
  8
PLAN_1
 62
     2
  6
CONTINUOUS
 10
0.018280
 20
-0.921803
  0
VERTEX
  8
PLAN_1
 62
     2
  6
CONTINUOUS
 10
-0.006598
 20
-0.921803
  0
VERTEX
  8
PLAN_1
 62
     2
  6
CONTINUOUS
 10
-0.006598
 20
-0.987803
  0
VERTEX
  8
PLAN_1
 62
     2
  6
CONTINUOUS
 10
-0.016756
 20
-0.987803
  0
VERTEX
  8
PLAN_1
 62
     2
  6
CONTINUOUS
 10
-0.016756
 20
-0.921803
  0
VERTEX
  8
PLAN_1
 62
     2
  6
CONTINUOUS
 10
-0.042142
 20
-0.921803
  0
VERTEX
  8
PLAN_1
 62
     2
  6
CONTINUOUS
 10
-0.042142
 20
-0.913169
  0
SEQEND
  8
0
  0
ENDSEC
  0
EOF
