999
DXF file: C:\Users\sesa63760\Dev\_Creo\CAD\MCADID0003999_3D-CAD\drw0001_1.dxf
999
Pro/ENGINEER 2019471 by Parametric Technology Corporation
  0
SECTION
  2
HEADER
  9
$ACADVER
  1
AC1024
  9
$DWGCODEPAGE
  3
ANSI_1252
  9
$EXTMAX
 10
66.0890596496
 20
93.468812933
 30
0.0
  9
$EXTMIN
 10
0.0
 20
0.0
 30
0.0
  9
$LIMMIN
 10
0.0
 20
0.0
  9
$LIMMAX
 10
66.0890596496
 20
93.468812933
  9
$VIEWCTR
 10
33.0445298248
 20
46.7344064665
  9
$VIEWSIZE
 40
93.468812933
  9
$CLAYER
  8
0
  9
$LTSCALE
 40
6.0927818801
  9
$CELTYPE
  6
BYLAYER
  9
$DIMSCALE
 40
1.0
  9
$DIMASZ
 40
0.7867745196
  9
$DIMEXO
 40
1.0
  9
$DIMDLI
 40
4.2095583899
  9
$DIMEXE
 40
1.0
  9
$DIMCEN
 40
0.9970006713
  9
$DIMLFAC
 40
1.0
  9
$DIMBLK
  1
_FILLED
  9
$DIMALT
 70
0
  9
$DIMALTF
 40
0.0393700787
  9
$DIMTXT
 40
1.1014843275
  9
$DIMTOL
 70
1
  9
$DIMLIM
 70
0
  9
$DIMTFAC
 40
1.0
  9
$DIMTP
 40
0.01
  9
$DIMTM
 40
0.01
  9
$DIMGAP
 40
0.625
  9
$DIMDSEP
 70
46
  9
$AUNITS
 70
0
  9
$PDMODE
 70
3
  9
$PDSIZE
 40
0.3125
  9
$HANDSEED
  5
37A
  9
$TILEMODE
 70
1
  9
$MEASUREMENT
 70
1
  9
$INSUNITS
 70
4
  0
ENDSEC
  0
SECTION
  2
CLASSES
  0
CLASS
  1
ACDBDICTIONARYWDFLT
  2
AcDbDictionaryWithDefault
  3
AutoCAD 2000
 90
0
 91
1
280
0
281
0
  0
CLASS
  1
ACDBPLACEHOLDER
  2
AcDbPlaceHolder
  3
AutoCAD 2000
 90
0
 91
1
280
0
281
0
  0
CLASS
  1
LAYOUT
  2
AcDbLayout
  3
AutoCAD 2000
 90
0
 91
0
280
0
281
0
  0
ENDSEC
  0
SECTION
  2
TABLES
  0
TABLE
  2
VPORT
  5
8
100
AcDbSymbolTable
 70
2
  0
VPORT
  5
1F4
100
AcDbSymbolTableRecord
100
AcDbViewportTableRecord
  2
*ACTIVE
 70
0
 10
0.0
 20
0.0
 11
1.0
 21
1.0
 12
33.0445298248
 22
46.7344064665
 13
0.0
 23
0.0
 14
1.0
 24
1.0
 15
0.0
 25
0.0
 16
0.0
 26
0.0
 36
1.0
 17
0.0
 27
0.0
 37
0.0
 40
93.468812933
 41
0.7070707071
 42
50.0
 43
0.0
 44
0.0
 50
0.0
 51
0.0
 71
0
 72
100
 73
1
 74
1
 75
0
 76
0
 77
0
 78
0
  0
ENDTAB
  0
TABLE
  2
LTYPE
  5
5
100
AcDbSymbolTable
 70
6
  0
LTYPE
  5
14
100
AcDbSymbolTableRecord
100
AcDbLinetypeTableRecord
  2
BYBLOCK
 70
0
  3

 72
65
 73
0
 40
0.0
  0
LTYPE
  5
15
100
AcDbSymbolTableRecord
100
AcDbLinetypeTableRecord
  2
BYLAYER
 70
0
  3

 72
65
 73
0
 40
0.0
  0
LTYPE
  5
16
100
AcDbSymbolTableRecord
100
AcDbLinetypeTableRecord
  2
CONTINUOUS
 70
64
  3
Solid line
 72
65
 73
0
 40
0.0
  0
LTYPE
  5
1F5
100
AcDbSymbolTableRecord
100
AcDbLinetypeTableRecord
  2
CENTER
 70
64
  3
____ _ ____ _ ____ _ ____ _ ____ _ ____ _ ____
 72
65
 73
4
 40
0.6
 49
0.375
 74
0
 49
-0.075
 74
0
 49
0.075
 74
0
 49
-0.075
 74
0
  0
LTYPE
  5
1F6
100
AcDbSymbolTableRecord
100
AcDbLinetypeTableRecord
  2
HIDDEN
 70
64
  3
- - - - - - - - - - - - - - - - - - - -
 72
65
 73
2
 40
0.2
 49
0.1
 74
0
 49
-0.1
 74
0
  0
LTYPE
  5
1F7
100
AcDbSymbolTableRecord
100
AcDbLinetypeTableRecord
  2
PHANTOM
 70
64
  3
_____ _ _ _____ _ _ _____ _ _ _____
 72
65
 73
6
 40
0.8
 49
0.45
 74
0
 49
-0.05
 74
0
 49
0.1
 74
0
 49
-0.05
 74
0
 49
0.1
 74
0
 49
-0.05
 74
0
  0
LTYPE
  5
1F8
100
AcDbSymbolTableRecord
100
AcDbLinetypeTableRecord
  2
DOT
 70
64
  3
. . . . . . . . . . . . . . . . . . . .
 72
65
 73
2
 40
0.2
 49
0.1
 74
0
 49
-0.1
 74
0
  0
LTYPE
  5
1F9
100
AcDbSymbolTableRecord
100
AcDbLinetypeTableRecord
  2
DASHED
 70
64
  3
- - - - - - - - - - - - - - - - - - - -
 72
65
 73
2
 40
0.2
 49
0.1
 74
0
 49
-0.1
 74
0
  0
ENDTAB
  0
TABLE
  2
LAYER
  5
2
100
AcDbSymbolTable
 70
36
  0
LAYER
  5
10
100
AcDbSymbolTableRecord
100
AcDbLayerTableRecord
  2
0
 70
0
 62
7
  6
CONTINUOUS
370
-3
390
F
  0
LAYER
  5
1FA
100
AcDbSymbolTableRecord
100
AcDbLayerTableRecord
  2
DEFAULT_1
 70
0
 62
7
  6
CENTER
370
-3
390
F
  0
LAYER
  5
1FB
100
AcDbSymbolTableRecord
100
AcDbLayerTableRecord
  2
DEFAULT_2
 70
0
 62
7
  6
HIDDEN
370
-3
390
F
  0
LAYER
  5
1FC
100
AcDbSymbolTableRecord
100
AcDbLayerTableRecord
  2
DEFAULT_3
 70
0
 62
7
  6
PHANTOM
370
-3
390
F
  0
LAYER
  5
1FD
100
AcDbSymbolTableRecord
100
AcDbLayerTableRecord
  2
00_COMPONENTS
 70
0
 62
7
  6
CONTINUOUS
370
-3
390
F
  0
LAYER
  5
1FE
100
AcDbSymbolTableRecord
100
AcDbLayerTableRecord
  2
01_1_DEFAULT_DATUMS
 70
0
 62
7
  6
CONTINUOUS
370
-3
390
F
  0
LAYER
  5
1FF
100
AcDbSymbolTableRecord
100
AcDbLayerTableRecord
  2
01_PLANES
 70
0
 62
7
  6
CONTINUOUS
370
-3
390
F
  0
LAYER
  5
200
100
AcDbSymbolTableRecord
100
AcDbLayerTableRecord
  2
02_COORD_SYS
 70
0
 62
7
  6
CONTINUOUS
370
-3
390
F
  0
LAYER
  5
201
100
AcDbSymbolTableRecord
100
AcDbLayerTableRecord
  2
03_AXES
 70
0
 62
7
  6
CONTINUOUS
370
-3
390
F
  0
LAYER
  5
202
100
AcDbSymbolTableRecord
100
AcDbLayerTableRecord
  2
04_POINTS
 70
0
 62
7
  6
CONTINUOUS
370
-3
390
F
  0
LAYER
  5
203
100
AcDbSymbolTableRecord
100
AcDbLayerTableRecord
  2
05_CURVES
 70
0
 62
7
  6
CONTINUOUS
370
-3
390
F
  0
LAYER
  5
204
100
AcDbSymbolTableRecord
100
AcDbLayerTableRecord
  2
06_SURFS
 70
0
 62
7
  6
CONTINUOUS
370
-3
390
F
  0
LAYER
  5
205
100
AcDbSymbolTableRecord
100
AcDbLayerTableRecord
  2
07_COSMETICS
 70
0
 62
7
  6
CONTINUOUS
370
-3
390
F
  0
LAYER
  5
206
100
AcDbSymbolTableRecord
100
AcDbLayerTableRecord
  2
10_NOTES
 70
0
 62
7
  6
CONTINUOUS
370
-3
390
F
  0
LAYER
  5
207
100
AcDbSymbolTableRecord
100
AcDbLayerTableRecord
  2
11_NOTES_PUB
 70
0
 62
7
  6
CONTINUOUS
370
-3
390
F
  0
LAYER
  5
208
100
AcDbSymbolTableRecord
100
AcDbLayerTableRecord
  2
13_REF_GTOL
 70
0
 62
7
  6
CONTINUOUS
370
-3
390
F
  0
LAYER
  5
209
100
AcDbSymbolTableRecord
100
AcDbLayerTableRecord
  2
16_MISC
 70
0
 62
7
  6
CONTINUOUS
370
-3
390
F
  0
LAYER
  5
20A
100
AcDbSymbolTableRecord
100
AcDbLayerTableRecord
  2
17_NO_PRINT
 70
0
 62
7
  6
CONTINUOUS
370
-3
390
F
  0
LAYER
  5
20B
100
AcDbSymbolTableRecord
100
AcDbLayerTableRecord
  2
18_DATUM_CAMS_JOINTS
 70
0
 62
7
  6
CONTINUOUS
370
-3
390
F
  0
LAYER
  5
20C
100
AcDbSymbolTableRecord
100
AcDbLayerTableRecord
  2
19_DATUM_FUNCTIONAL
 70
0
 62
7
  6
CONTINUOUS
370
-3
390
F
  0
LAYER
  5
20D
100
AcDbSymbolTableRecord
100
AcDbLayerTableRecord
  2
20_DATUM_KINEMATIC_SCHEME
 70
0
 62
7
  6
CONTINUOUS
370
-3
390
F
  0
ENDTAB
  0
TABLE
  2
STYLE
  5
3
100
AcDbSymbolTable
 70
1
  0
STYLE
  5
11
100
AcDbSymbolTableRecord
100
AcDbTextStyleTableRecord
  2
STANDARD
 70
0
 40
0.0
 41
1.0
 50
0.0
 71
0
 42
0.2
  3
ARIAL.TTF
  4

  0
STYLE
  5
20E
100
AcDbSymbolTableRecord
100
AcDbTextStyleTableRecord
  2
TEXTSTYLE_1
 70
0
 40
0.0
 41
0.8
 50
0.0
 71
0
 42
0.2
  3
gdt
  4

  0
ENDTAB
  0
TABLE
  2
VIEW
  5
6
100
AcDbSymbolTable
 70
0
  0
ENDTAB
  0
TABLE
  2
UCS
  5
7
100
AcDbSymbolTable
 70
0
  0
ENDTAB
  0
TABLE
  2
APPID
  5
9
100
AcDbSymbolTable
 70
1
  0
APPID
  5
20F
100
AcDbSymbolTableRecord
100
AcDbRegAppTableRecord
  2
ACAD
 70
0
  0
ENDTAB
  0
TABLE
  2
BLOCK_RECORD
  5
1
100
AcDbSymbolTable
 70
0
  0
BLOCK_RECORD
  5
210
100
AcDbSymbolTableRecord
100
AcDbBlockTableRecord
  2
*Model_Space
  0
BLOCK_RECORD
  5
211
100
AcDbSymbolTableRecord
100
AcDbBlockTableRecord
  2
*Paper_Space
  0
BLOCK_RECORD
  5
212
100
AcDbSymbolTableRecord
100
AcDbBlockTableRecord
  2
_FILLED
  0
ENDTAB
  0
TABLE
  2
DIMSTYLE
  5
A
100
AcDbSymbolTable
 70
1
100
AcDbDimStyleTable
 71
0
  0
DIMSTYLE
105
213
100
AcDbSymbolTableRecord
100
AcDbDimStyleTableRecord
  2
STANDARD
 70
0
  3

  4

 40
1.0
 41
0.7867745196
 42
1.0
 43
0.38
 44
1.0
 45
0.0
 46
0.0
 47
0.01
 48
0.01
140
1.1014843275
141
0.09
142
0.0
143
25.4
144
1.0
145
0.0
146
1.0
147
0.625
 71
1
 72
0
 73
0
 74
0
 75
0
 76
0
 77
1
 78
8
 79
2
170
0
171
1
172
0
173
0
174
0
175
0
176
0
177
0
178
0
270
2
179
2
271
2
272
2
273
2
274
2
275
0
280
0
281
0
282
0
283
1
284
8
285
0
286
0
287
3
288
0
340
11
278
46
341
212
342
212
343
212
344
212
  0
ENDTAB
  0
ENDSEC
  0
SECTION
  2
BLOCKS
  0
BLOCK
  5
20
100
AcDbEntity
  8
0
100
AcDbBlockBegin
  2
*Model_Space
 70
0
 10
0.0
 20
0.0
 30
0.0
  3
*Model_Space
  1

  0
ENDBLK
  5
21
100
AcDbEntity
  8
0
100
AcDbBlockEnd
  0
BLOCK
  5
1C
100
AcDbEntity
  8
0
100
AcDbBlockBegin
  2
*Paper_Space
 70
0
 10
0.0
 20
0.0
 30
0.0
  3
*Paper_Space
  1

  0
ENDBLK
  5
1D
100
AcDbEntity
  8
0
100
AcDbBlockEnd
  0
BLOCK
  5
214
100
AcDbEntity
  8
0
100
AcDbBlockBegin
  2
_FILLED
 70
64
 10
0.0
 20
0.0
  3
_FILLED
  1

  0
SOLID
  5
215
100
AcDbEntity
  8
0
  6
BYBLOCK
 62
0
100
AcDbTrace
 10
0.0
 20
0.0
 11
-1.0
 21
0.25
 12
-1.0
 22
-0.25
 13
-1.0
 23
-0.25
  0
ENDBLK
  5
216
100
AcDbEntity
  8
0
  6
BYBLOCK
 62
0
100
AcDbBlockEnd
  0
ENDSEC
  0
SECTION
  2
ENTITIES
  0
LINE
  5
217
100
AcDbEntity
  8
0
100
AcDbLine
 62
7
  6
BYLAYER
 10
10.4417575895
 20
36.3013780351
 11
10.4438317512
 21
36.2869102946
  0
LINE
  5
218
100
AcDbEntity
  8
0
100
AcDbLine
 62
7
  6
BYLAYER
 10
10.4417575895
 20
36.3013780351
 11
10.4417729785
 21
36.2880925375
  0
LWPOLYLINE
  5
219
100
AcDbEntity
  8
0
100
AcDbPolyline
 62
7
  6
BYLAYER
 90
3
 70
0
 10
24.3029713814
 20
30.3067703264
 10
25.8487379317
 20
30.1121170924
 10
27.037560384
 20
30.5050657237
  0
LWPOLYLINE
  5
21A
100
AcDbEntity
  8
0
100
AcDbPolyline
 62
7
  6
BYLAYER
 90
7
 70
0
 10
19.6664209942
 20
39.1774540561
 10
17.8517909052
 20
40.9322890093
 10
15.9413833975
 20
41.984223129
 10
14.1507561739
 20
42.2103373864
 10
12.7107949426
 20
41.576069302
 10
11.7953464748
 20
40.1658688073
 10
11.6805289592
 20
39.3599352035
  0
LINE
  5
21B
100
AcDbEntity
  8
0
100
AcDbLine
 62
7
  6
BYLAYER
 10
37.5286311946
 20
62.2596716353
 11
36.0186547265
 21
61.3878915188
  0
LINE
  5
21C
100
AcDbEntity
  8
0
100
AcDbLine
 62
7
  6
BYLAYER
 10
40.968381587
 20
64.2456005959
 11
42.4783580415
 21
65.1173807045
  0
LINE
  5
21D
100
AcDbEntity
  8
0
100
AcDbLine
 62
7
  6
BYLAYER
 10
11.3564285411
 20
39.0652429021
 11
12.899156236
 21
40.4679870806
  0
LINE
  5
21E
100
AcDbEntity
  8
0
100
AcDbLine
 62
7
  6
BYLAYER
 10
13.2936337906
 20
40.7565597109
 11
12.899156236
 21
40.4679870806
  0
LINE
  5
21F
100
AcDbEntity
  8
0
100
AcDbLine
 62
7
  6
BYLAYER
 10
45.4015729105
 20
62.9629729203
 11
43.8915964572
 21
62.0911928124
  0
LINE
  5
220
100
AcDbEntity
  8
0
100
AcDbLine
 62
7
  6
BYLAYER
 10
48.8413233041
 20
64.9489018816
 11
50.351299771
 21
65.8206819974
  0
LINE
  5
221
100
AcDbEntity
  8
0
100
AcDbLine
 62
7
  6
BYLAYER
 10
45.8733646913
 20
62.7513309546
 11
44.3996046542
 21
61.9004602795
  0
LINE
  5
222
100
AcDbEntity
  8
0
100
AcDbLine
 62
7
  6
BYLAYER
 10
49.3493314997
 20
64.7581693479
 11
50.823091556
 21
65.6090400341
  0
LINE
  5
223
100
AcDbEntity
  8
0
100
AcDbLine
 62
7
  6
BYLAYER
 10
39.1404251017
 20
58.2771948906
 11
18.037600676
 21
46.0935462543
  0
LINE
  5
224
100
AcDbEntity
  8
0
100
AcDbLine
 62
7
  6
BYLAYER
 10
17.8304946003
 20
44.8192754043
 11
15.7798934724
 21
43.6353673581
  0
LINE
  5
225
100
AcDbEntity
  8
0
100
AcDbLine
 62
7
  6
BYLAYER
 10
13.6471857092
 20
40.9606817878
 11
13.2936337906
 21
40.7565597109
  0
LINE
  5
226
100
AcDbEntity
  8
0
100
AcDbLine
 62
7
  6
BYLAYER
 10
13.1636092747
 20
42.1248639888
 11
15.71817152
 21
43.5996783276
  0
LINE
  5
227
100
AcDbEntity
  8
0
100
AcDbLine
 62
7
  6
BYLAYER
 10
15.7774130921
 20
43.6325863887
 11
15.7865795444
 21
43.6375041237
  0
LINE
  5
228
100
AcDbEntity
  8
0
100
AcDbLine
 62
7
  6
BYLAYER
 10
17.7102966061
 20
33.9427711503
 11
17.4423358955
 21
33.6382278539
  0
LINE
  5
229
100
AcDbEntity
  8
0
100
AcDbLine
 62
7
  6
BYLAYER
 10
15.7895409523
 20
43.6384231055
 11
15.7799610017
 21
43.6352504444
  0
LINE
  5
22A
100
AcDbEntity
  8
0
100
AcDbLine
 62
7
  6
BYLAYER
 10
15.7092660085
 20
43.5943993354
 11
15.7193537596
 21
43.59762452
  0
LINE
  5
22B
100
AcDbEntity
  8
0
100
AcDbLine
 62
7
  6
BYLAYER
 10
15.7852543753
 20
43.6186937994
 11
15.7953483469
 21
43.6219209727
  0
LINE
  5
22C
100
AcDbEntity
  8
0
100
AcDbLine
 62
7
  6
BYLAYER
 10
53.9871249325
 20
55.4559440456
 11
54.0812842818
 21
55.4850108788
  0
LINE
  5
22D
100
AcDbEntity
  8
0
100
AcDbLine
 62
7
  6
BYLAYER
 10
14.851149658
 20
35.4829843943
 11
15.953299087
 21
36.2173306557
  0
LINE
  5
22E
100
AcDbEntity
  8
0
100
AcDbLine
 62
7
  6
BYLAYER
 10
54.7318331112
 20
55.2662260174
 11
54.4605303408
 21
55.1824753073
  0
LINE
  5
22F
100
AcDbEntity
  8
0
100
AcDbLine
 62
7
  6
BYLAYER
 10
54.5117454085
 20
54.5887147337
 11
54.4175860593
 21
54.5596479005
  0
LINE
  5
230
100
AcDbEntity
  8
0
100
AcDbLine
 62
7
  6
BYLAYER
 10
7.8742032556
 20
30.9881924247
 11
14.9452416278
 21
35.0706339634
  0
LINE
  5
231
100
AcDbEntity
  8
0
100
AcDbLine
 62
7
  6
BYLAYER
 10
53.315796443
 20
56.6464647045
 11
53.3997195967
 21
56.6949191453
  0
LINE
  5
232
100
AcDbEntity
  8
0
100
AcDbLine
 62
7
  6
BYLAYER
 10
54.0761499688
 20
56.5081061181
 11
53.8343409047
 21
56.3684935982
  0
LINE
  5
233
100
AcDbEntity
  8
0
100
AcDbLine
 62
7
  6
BYLAYER
 10
53.8997216784
 20
55.8288949434
 11
53.8157985247
 21
55.7804405026
  0
LINE
  5
234
100
AcDbEntity
  8
0
100
AcDbLine
 62
7
  6
BYLAYER
 10
8.8741987787
 20
29.2561390324
 11
15.9452371509
 21
33.3385805711
  0
LINE
  5
235
100
AcDbEntity
  8
0
100
AcDbLine
 62
7
  6
BYLAYER
 10
55.0182864212
 20
53.3247769531
 11
54.915501969
 21
53.3155950691
  0
LINE
  5
236
100
AcDbEntity
  8
0
100
AcDbLine
 62
7
  6
BYLAYER
 10
52.5594482544
 20
57.7780191201
 11
52.6316992642
 21
57.8450320995
  0
LINE
  5
237
100
AcDbEntity
  8
0
100
AcDbLine
 62
7
  6
BYLAYER
 10
53.3284866391
 20
57.6968799145
 11
53.1203087015
 21
57.5037943938
  0
LINE
  5
238
100
AcDbEntity
  8
0
100
AcDbLine
 62
7
  6
BYLAYER
 10
53.1926871266
 20
57.0240977551
 11
53.1204361168
 21
56.9570847756
  0
LINE
  5
239
100
AcDbEntity
  8
0
100
AcDbLine
 62
7
  6
BYLAYER
 10
53.9912564018
 20
52.6526260601
 11
52.5174963458
 21
51.801755374
  0
LINE
  5
23A
100
AcDbEntity
  8
0
100
AcDbLine
 62
7
  6
BYLAYER
 10
57.4672232105
 20
54.6594644535
 11
58.9409832473
 21
55.5103351285
  0
LINE
  5
23B
100
AcDbEntity
  8
0
100
AcDbLine
 62
7
  6
BYLAYER
 10
54.1930770588
 20
52.0262901191
 11
52.6831006998
 21
51.1545100656
  0
LINE
  5
23C
100
AcDbEntity
  8
0
100
AcDbLine
 62
7
  6
BYLAYER
 10
57.6328275446
 20
54.0122191337
 11
59.1428039157
 21
54.8839991942
  0
LINE
  5
23D
100
AcDbEntity
  8
0
100
AcDbLine
 62
7
  6
BYLAYER
 10
16.2552956273
 20
33.0509177167
 11
17.4423358955
 21
33.6382278539
  0
LINE
  5
23E
100
AcDbEntity
  8
0
100
AcDbLine
 62
7
  6
BYLAYER
 10
55.2843171459
 20
53.9924885254
 11
54.9881627348
 21
53.9660326229
  0
LINE
  5
23F
100
AcDbEntity
  8
0
100
AcDbLine
 62
7
  6
BYLAYER
 10
54.5619471065
 20
54.2268272819
 11
54.6647315586
 21
54.2360091659
  0
LINE
  5
240
100
AcDbEntity
  8
0
100
AcDbLine
 62
7
  6
BYLAYER
 10
51.731021694
 20
58.8312460825
 11
51.7903643251
 21
58.91567099
  0
LINE
  5
241
100
AcDbEntity
  8
0
100
AcDbLine
 62
7
  6
BYLAYER
 10
52.501635849
 20
58.8122071574
 11
52.3306510201
 21
58.5689523827
  0
LINE
  5
242
100
AcDbEntity
  8
0
100
AcDbLine
 62
7
  6
BYLAYER
 10
20.3971554903
 20
29.2693213899
 11
20.0436035717
 21
29.0651993129
  0
LINE
  5
243
100
AcDbEntity
  8
0
100
AcDbLine
 62
7
  6
BYLAYER
 10
55.4106776593
 20
52.0587079276
 11
55.3010267747
 21
52.0695680974
  0
LINE
  5
244
100
AcDbEntity
  8
0
100
AcDbLine
 62
7
  6
BYLAYER
 10
55.7241489179
 20
52.7086876435
 11
55.4082101502
 21
52.7399792166
  0
LINE
  5
245
100
AcDbEntity
  8
0
100
AcDbLine
 62
7
  6
BYLAYER
 10
55.030427598
 20
52.980144942
 11
55.1400784826
 21
52.9692847722
  0
LINE
  5
246
100
AcDbEntity
  8
0
100
AcDbLine
 62
7
  6
BYLAYER
 10
50.8446913699
 20
59.7881245865
 11
50.8901102535
 21
59.8885168885
  0
LINE
  5
247
100
AcDbEntity
  8
0
100
AcDbLine
 62
7
  6
BYLAYER
 10
52.4027393104
 20
58.1538729172
 11
52.3433966793
 21
58.0694480097
  0
LINE
  5
248
100
AcDbEntity
  8
0
100
AcDbLine
 62
7
  6
BYLAYER
 10
23.7091472736
 20
29.7381158044
 11
21.1635734597
 21
28.2684368505
  0
LINE
  5
249
100
AcDbEntity
  8
0
100
AcDbLine
 62
7
  6
BYLAYER
 10
48.1404620089
 20
42.6887589307
 11
27.037560384
 21
30.5050657237
  0
LINE
  5
24A
100
AcDbEntity
  8
0
100
AcDbLine
 62
7
  6
BYLAYER
 10
23.7712748375
 20
29.7740352208
 11
25.8304587853
 21
30.962848266
  0
LINE
  5
24B
100
AcDbEntity
  8
0
100
AcDbLine
 62
7
  6
BYLAYER
 10
19.5964525456
 20
28.8678603561
 11
20.0436035717
 21
29.0651993129
  0
LINE
  5
24C
100
AcDbEntity
  8
0
100
AcDbLine
 62
7
  6
BYLAYER
 10
55.6822052
 20
50.8121704491
 11
55.56756404
 21
50.8428868521
  0
LINE
  5
24D
100
AcDbEntity
  8
0
100
AcDbLine
 62
7
  6
BYLAYER
 10
56.0438027837
 20
51.436789561
 11
55.7134854593
 21
51.5252932019
  0
LINE
  5
24E
100
AcDbEntity
  8
0
100
AcDbLine
 62
7
  6
BYLAYER
 10
55.3845505762
 20
51.7372281063
 11
55.4991917362
 21
51.7065117033
  0
LINE
  5
24F
100
AcDbEntity
  8
0
100
AcDbLine
 62
7
  6
BYLAYER
 10
49.9156226398
 20
60.6322821756
 11
49.946340646
 21
60.7469241318
  0
LINE
  5
250
100
AcDbEntity
  8
0
100
AcDbLine
 62
7
  6
BYLAYER
 10
50.6680753218
 20
60.7477709652
 11
50.5795670615
 21
60.4174513465
  0
LINE
  5
251
100
AcDbEntity
  8
0
100
AcDbLine
 62
7
  6
BYLAYER
 10
50.6293561916
 20
60.1412674678
 11
50.5986381853
 21
60.0266255115
  0
LINE
  5
252
100
AcDbEntity
  8
0
100
AcDbLine
 62
7
  6
BYLAYER
 10
51.6097452447
 20
59.8350042885
 11
51.4788791223
 21
59.5457424163
  0
LINE
  5
253
100
AcDbEntity
  8
0
100
AcDbLine
 62
7
  6
BYLAYER
 10
51.5433944558
 20
59.1988896635
 11
51.4979755723
 21
59.0984973616
  0
LINE
  5
254
100
AcDbEntity
  8
0
100
AcDbLine
 62
7
  6
BYLAYER
 10
17.6102733237
 20
28.2332013379
 11
19.5964525456
 21
28.8678603561
  0
LINE
  5
255
100
AcDbEntity
  8
0
100
AcDbLine
 62
7
  6
BYLAYER
 10
55.8282231317
 20
49.6064931196
 11
55.7105532384
 21
49.6565401897
  0
LINE
  5
256
100
AcDbEntity
  8
0
100
AcDbLine
 62
7
  6
BYLAYER
 10
56.237809377
 20
50.1985568065
 11
55.8987653169
 21
50.3427581936
  0
LINE
  5
257
100
AcDbEntity
  8
0
100
AcDbLine
 62
7
  6
BYLAYER
 10
55.6182568984
 20
50.5193434267
 11
55.7359267918
 21
50.4692963566
  0
LINE
  5
258
100
AcDbEntity
  8
0
100
AcDbLine
 62
7
  6
BYLAYER
 10
55.8462330472
 20
48.4623054124
 11
55.727547785
 21
48.5308268303
  0
LINE
  5
259
100
AcDbEntity
  8
0
100
AcDbLine
 62
7
  6
BYLAYER
 10
47.0329687461
 20
62.355080772
 11
47.0174772107
 21
62.4998985065
  0
LINE
  5
25A
100
AcDbEntity
  8
0
100
AcDbLine
 62
7
  6
BYLAYER
 10
47.9933157257
 20
62.0638816954
 11
47.9933157257
 21
61.9268353502
  0
LINE
  5
25B
100
AcDbEntity
  8
0
100
AcDbLine
 62
7
  6
BYLAYER
 10
48.7004254509
 20
61.5185945956
 11
48.7004225069
 21
62.1828920667
  0
LINE
  5
25C
100
AcDbEntity
  8
0
100
AcDbLine
 62
7
  6
BYLAYER
 10
48.9597121271
 20
61.3492750792
 11
48.9752036624
 21
61.4762051342
  0
LINE
  5
25D
100
AcDbEntity
  8
0
100
AcDbLine
 62
7
  6
BYLAYER
 10
49.6927383136
 20
61.5348894968
 11
49.6481023163
 21
61.1691639917
  0
LINE
  5
25E
100
AcDbEntity
  8
0
100
AcDbLine
 62
7
  6
BYLAYER
 10
49.6762639659
 20
60.9648819845
 11
49.6607724305
 21
60.8379519295
  0
LINE
  5
25F
100
AcDbEntity
  8
0
100
AcDbLine
 62
7
  6
BYLAYER
 10
54.7214469248
 20
44.5918873499
 11
54.7146859372
 21
44.586780199
  0
LINE
  5
260
100
AcDbEntity
  8
0
100
AcDbLine
 62
7
  6
BYLAYER
 10
54.1930771055
 20
41.5290031954
 11
52.6831009359
 21
40.6572232512
  0
LINE
  5
261
100
AcDbEntity
  8
0
100
AcDbLine
 62
7
  6
BYLAYER
 10
57.6328274979
 20
43.514932156
 11
59.142803648
 21
44.386712089
  0
LINE
  5
262
100
AcDbEntity
  8
0
100
AcDbLine
 62
7
  6
BYLAYER
 10
53.9912564019
 20
41.0938859672
 11
52.5174963499
 21
40.2430152834
  0
LINE
  5
263
100
AcDbEntity
  8
0
100
AcDbLine
 62
7
  6
BYLAYER
 10
57.4672232103
 20
43.1007243605
 11
58.9409832666
 21
43.9515950467
  0
LINE
  5
264
100
AcDbEntity
  8
0
100
AcDbLine
 62
7
  6
BYLAYER
 10
23.7702101774
 20
29.7758844723
 11
23.779790128
 21
29.7790571334
  0
LINE
  5
265
100
AcDbEntity
  8
0
100
AcDbLine
 62
7
  6
BYLAYER
 10
55.727547785
 20
49.3473292475
 11
56.3028491911
 21
49.0151758858
  0
LINE
  5
266
100
AcDbEntity
  8
0
100
AcDbLine
 62
7
  6
BYLAYER
 10
55.7359267918
 20
47.3991846964
 11
55.6182568984
 21
47.4850080417
  0
LINE
  5
267
100
AcDbEntity
  8
0
100
AcDbLine
 62
7
  6
BYLAYER
 10
55.7105532384
 20
48.2412390563
 11
55.8282231317
 21
48.155415711
  0
LINE
  5
268
100
AcDbEntity
  8
0
100
AcDbLine
 62
7
  6
BYLAYER
 10
55.4991917362
 20
46.4353212619
 11
55.3845505762
 21
46.5369780733
  0
LINE
  5
269
100
AcDbEntity
  8
0
100
AcDbLine
 62
7
  6
BYLAYER
 10
55.56756404
 20
47.219998363
 11
55.6822052
 21
47.1183415515
  0
LINE
  5
26A
100
AcDbEntity
  8
0
100
AcDbLine
 62
7
  6
BYLAYER
 10
55.1400784826
 20
45.5872070793
 11
55.030427598
 21
45.7029579807
  0
LINE
  5
26B
100
AcDbEntity
  8
0
100
AcDbLine
 62
7
  6
BYLAYER
 10
54.6647315586
 20
44.8693536176
 11
54.5619471065
 21
44.9972180788
  0
LINE
  5
26C
100
AcDbEntity
  8
0
100
AcDbLine
 62
7
  6
BYLAYER
 10
47.7185375142
 20
62.2017252597
 11
47.7340290495
 21
62.0569075252
  0
LINE
  5
26D
100
AcDbEntity
  8
0
100
AcDbLine
 62
7
  6
BYLAYER
 10
54.7787137546
 20
44.50526223
 11
54.772149522
 21
44.4997074337
  0
LINE
  5
26E
100
AcDbEntity
  8
0
100
AcDbLine
 62
7
  6
BYLAYER
 10
55.3010267747
 20
46.3010808789
 11
55.4106776593
 21
46.1853299776
  0
LINE
  5
26F
100
AcDbEntity
  8
0
100
AcDbLine
 62
7
  6
BYLAYER
 10
54.915501969
 20
45.5002095371
 11
55.0182864212
 21
45.3723450758
  0
LINE
  5
270
100
AcDbEntity
  8
0
100
AcDbLine
 62
7
  6
BYLAYER
 10
54.4343838471
 20
44.8065060433
 11
54.5117454085
 21
44.6932972433
  0
LINE
  5
271
100
AcDbEntity
  8
0
100
AcDbLine
 62
7
  6
BYLAYER
 10
45.8036309231
 20
62.825130664
 11
45.8181174922
 21
62.7763827909
  0
LINE
  5
272
100
AcDbEntity
  8
0
100
AcDbLine
 62
7
  6
BYLAYER
 10
46.0951029913
 20
62.6266839469
 11
46.064384985
 21
62.7767951991
  0
LINE
  5
273
100
AcDbEntity
  8
0
100
AcDbLine
 62
7
  6
BYLAYER
 10
46.7474005306
 20
62.5937912869
 11
46.7781185368
 21
62.4436800347
  0
LINE
  5
274
100
AcDbEntity
  8
0
100
AcDbLine
 62
7
  6
BYLAYER
 10
52.088309427
 20
43.360430785
 11
52.0903938339
 21
43.3775095505
  0
LINE
  5
275
100
AcDbEntity
  8
0
100
AcDbLine
 62
7
  6
BYLAYER
 10
52.088309427
 20
43.360430785
 11
52.0923941129
 21
43.3757404222
  0
LINE
  5
276
100
AcDbEntity
  8
0
100
AcDbLine
 62
7
  6
BYLAYER
 10
54.7032888258
 20
61.3526751829
 11
55.2658339229
 21
60.8086868819
  0
LINE
  5
277
100
AcDbEntity
  8
0
100
AcDbLine
 62
7
  6
BYLAYER
 10
54.499635761
 20
61.5982863407
 11
55.2901577989
 21
60.8338403877
  0
ARC
  5
278
100
AcDbEntity
  8
0
100
AcDbCircle
 62
7
  6
BYLAYER
 10
4.246101593
 20
37.5406325223
 40
57.5711758905
100
AcDbArc
 50
17.5327486091
 51
18.1876531958
  0
ARC
  5
279
100
AcDbEntity
  8
0
100
AcDbCircle
 62
7
  6
BYLAYER
 10
-0.6644578402
 20
34.6955433413
 40
57.5300262391
100
AcDbArc
 50
17.5325151481
 51
18.1878881734
  0
ARC
  5
27A
100
AcDbEntity
  8
0
100
AcDbCircle
 62
7
  6
BYLAYER
 10
12.7535108302
 20
32.8011956259
 40
12.6195730529
100
AcDbArc
 50
39.6148277177
 51
39.7470354286
  0
ARC
  5
27B
100
AcDbEntity
  8
0
100
AcDbCircle
 62
7
  6
BYLAYER
 10
20.6226161376
 20
37.1513804201
 40
10.3095177233
100
AcDbArc
 50
215.4503352458
 51
219.5807001843
  0
ARC
  5
27C
100
AcDbEntity
  8
0
100
AcDbCircle
 62
7
  6
BYLAYER
 10
20.4748270073
 20
37.0649342506
 40
10.1015527932
100
AcDbArc
 50
215.5481238898
 51
219.5820659569
  0
ARC
  5
27D
100
AcDbEntity
  8
0
100
AcDbCircle
 62
7
  6
BYLAYER
 10
20.1485531652
 20
36.802371864
 40
9.6827907424
100
AcDbArc
 50
219.6148234391
 51
219.7648636101
  0
ARC
  5
27E
100
AcDbEntity
  8
0
100
AcDbCircle
 62
7
  6
BYLAYER
 10
19.9775900601
 20
36.658243018
 40
9.4591852792
100
AcDbArc
 50
219.7561788495
 51
223.492667861
  0
ARC
  5
27F
100
AcDbEntity
  8
0
100
AcDbCircle
 62
7
  6
BYLAYER
 10
19.399883138
 20
36.1120691499
 40
8.6641701296
100
AcDbArc
 50
223.5018264031
 51
228.1421864984
  0
ARC
  5
280
100
AcDbEntity
  8
0
100
AcDbCircle
 62
7
  6
BYLAYER
 10
17.3726184286
 20
33.3188757967
 40
5.1998813039
100
AcDbArc
 50
242.1104494925
 51
244.9611450775
  0
ARC
  5
281
100
AcDbEntity
  8
0
100
AcDbCircle
 62
7
  6
BYLAYER
 10
22.3730921345
 20
32.051911189
 40
2.6718079042
100
AcDbArc
 50
301.2019945638
 51
301.7402680363
  0
ARC
  5
282
100
AcDbEntity
  8
0
100
AcDbCircle
 62
7
  6
BYLAYER
 10
22.3739453983
 20
32.0505002784
 40
2.6701590481
100
AcDbArc
 50
300.0027141977
 51
301.2020180765
  0
ARC
  5
283
100
AcDbEntity
  8
0
100
AcDbCircle
 62
7
  6
BYLAYER
 10
22.4451521358
 20
32.0904560401
 40
2.6691584502
100
AcDbArc
 50
299.4487032029
 51
299.7906116373
  0
ARC
  5
284
100
AcDbEntity
  8
0
100
AcDbCircle
 62
7
  6
BYLAYER
 10
16.6824274586
 20
35.7828121776
 40
1.0115774435
100
AcDbArc
 50
164.3787886658
 51
164.717749203
  0
ARC
  5
285
100
AcDbEntity
  8
0
100
AcDbCircle
 62
7
  6
BYLAYER
 10
17.1150880192
 20
41.3230119962
 40
2.6701300279
100
AcDbArc
 50
120.0028902248
 51
121.2176980757
  0
ARC
  5
286
100
AcDbEntity
  8
0
100
AcDbCircle
 62
7
  6
BYLAYER
 10
17.0442589526
 20
41.282208149
 40
2.6700516677
100
AcDbArc
 50
118.3247402535
 51
119.7787672372
  0
ARC
  5
287
100
AcDbEntity
  8
0
100
AcDbCircle
 62
7
  6
BYLAYER
 10
33.0501902376
 20
26.6214056975
 40
42.8475396311
100
AcDbArc
 50
65.4936571678
 51
66.1851118006
  0
ARC
  5
288
100
AcDbEntity
  8
0
100
AcDbCircle
 62
7
  6
BYLAYER
 10
28.1395106835
 20
23.8507441446
 40
42.7521371645
100
AcDbArc
 50
65.4928838246
 51
66.1858814585
  0
ARC
  5
289
100
AcDbEntity
  8
0
100
AcDbCircle
 62
7
  6
BYLAYER
 10
37.7916464888
 20
47.1081254271
 40
18.3171657179
100
AcDbArc
 50
31.5590862753
 51
32.7754923155
  0
ARC
  5
28A
100
AcDbEntity
  8
0
100
AcDbCircle
 62
7
  6
BYLAYER
 10
37.8062415466
 20
47.1120479819
 40
18.3025551141
100
AcDbArc
 50
27.2242987739
 51
28.4416768038
  0
ARC
  5
28B
100
AcDbEntity
  8
0
100
AcDbCircle
 62
7
  6
BYLAYER
 10
37.9601106699
 20
47.2015382427
 40
18.0277675083
100
AcDbArc
 50
27.249861696
 51
28.4161138817
  0
ARC
  5
28C
100
AcDbEntity
  8
0
100
AcDbCircle
 62
7
  6
BYLAYER
 10
37.9701897225
 20
47.2117959107
 40
18.0139007676
100
AcDbArc
 50
31.5837147482
 51
32.7508638426
  0
ARC
  5
28D
100
AcDbEntity
  8
0
100
AcDbCircle
 62
7
  6
BYLAYER
 10
38.2878137404
 20
47.4504452157
 40
17.7142453525
100
AcDbArc
 50
35.9297253795
 51
37.1732475156
  0
ARC
  5
28E
100
AcDbEntity
  8
0
100
AcDbCircle
 62
7
  6
BYLAYER
 10
38.3767175344
 20
47.3806096786
 40
17.6718958514
100
AcDbArc
 50
22.8255513391
 51
24.0720564284
  0
ARC
  5
28F
100
AcDbEntity
  8
0
100
AcDbCircle
 62
7
  6
BYLAYER
 10
38.4965150645
 20
47.4561597538
 40
17.4338763754
100
AcDbArc
 50
22.8526609221
 51
24.0449468454
  0
ARC
  5
290
100
AcDbEntity
  8
0
100
AcDbCircle
 62
7
  6
BYLAYER
 10
38.4794536629
 20
47.5655776799
 40
17.3936829874
100
AcDbArc
 50
35.9539672181
 51
37.149005677
  0
ARC
  5
291
100
AcDbEntity
  8
0
100
AcDbCircle
 62
7
  6
BYLAYER
 10
39.1906216035
 20
48.1778431844
 40
16.5545903795
100
AcDbArc
 50
40.4384976541
 51
41.7390910013
  0
ARC
  5
292
100
AcDbEntity
  8
0
100
AcDbCircle
 62
7
  6
BYLAYER
 10
39.4815110861
 20
47.8032493359
 40
16.4887432827
100
AcDbArc
 50
18.258627233
 51
19.5644195866
  0
ARC
  5
293
100
AcDbEntity
  8
0
100
AcDbCircle
 62
7
  6
BYLAYER
 10
39.5612101408
 20
47.8677837784
 40
16.2921123678
100
AcDbArc
 50
18.2880020057
 51
19.5350448139
  0
ARC
  5
294
100
AcDbEntity
  8
0
100
AcDbCircle
 62
7
  6
BYLAYER
 10
39.3830964229
 20
48.2989513971
 40
16.2296176739
100
AcDbArc
 50
40.4628742184
 51
41.714714437
  0
ARC
  5
295
100
AcDbEntity
  8
0
100
AcDbCircle
 62
7
  6
BYLAYER
 10
40.3532859849
 20
49.2789192092
 40
14.9528669018
100
AcDbArc
 50
45.1971772266
 51
46.5887020483
  0
ARC
  5
296
100
AcDbEntity
  8
0
100
AcDbCircle
 62
7
  6
BYLAYER
 10
41.0345426065
 20
48.2584718902
 40
14.8699378948
100
AcDbArc
 50
13.4077750226
 51
14.8070680571
  0
ARC
  5
297
100
AcDbEntity
  8
0
100
AcDbCircle
 62
7
  6
BYLAYER
 10
41.0721955054
 20
48.3169076932
 40
14.7153694958
100
AcDbArc
 50
13.4402867514
 51
14.7745563284
  0
ARC
  5
298
100
AcDbEntity
  8
0
100
AcDbCircle
 62
7
  6
BYLAYER
 10
42.8969160978
 20
48.6333228047
 40
12.9696181318
100
AcDbArc
 50
8.1381018359
 51
9.6713391318
  0
ARC
  5
299
100
AcDbEntity
  8
0
100
AcDbCircle
 62
7
  6
BYLAYER
 10
42.8947765984
 20
48.6915685987
 40
12.8540931912
100
AcDbArc
 50
8.1748230772
 51
9.6346178905
  0
ARC
  5
29A
100
AcDbEntity
  8
0
100
AcDbCircle
 62
7
  6
BYLAYER
 10
44.8963958902
 20
48.8413312537
 40
10.9585728779
100
AcDbArc
 50
2.2879095886
 51
4.0038284949
  0
ARC
  5
29B
100
AcDbEntity
  8
0
100
AcDbCircle
 62
7
  6
BYLAYER
 10
44.8604394288
 20
48.9051344536
 40
10.8761013355
100
AcDbArc
 50
2.3301438626
 51
3.9615942209
  0
ARC
  5
29C
100
AcDbEntity
  8
0
100
AcDbCircle
 62
7
  6
BYLAYER
 10
40.5352268851
 20
49.3983781391
 40
14.6366625023
100
AcDbArc
 50
45.2222207687
 51
46.5636585062
  0
ARC
  5
29D
100
AcDbEntity
  8
0
100
AcDbCircle
 62
7
  6
BYLAYER
 10
44.5720753394
 20
51.158860982
 40
14.4593627692
100
AcDbArc
 50
38.715945288
 51
39.3845402302
  0
ARC
  5
29E
100
AcDbEntity
  8
0
100
AcDbCircle
 62
7
  6
BYLAYER
 10
44.6718095296
 20
51.2405333186
 40
14.3304548413
100
AcDbArc
 50
39.3851743211
 51
39.6147542761
  0
ARC
  5
29F
100
AcDbEntity
  8
0
100
AcDbCircle
 62
7
  6
BYLAYER
 10
44.9408573985
 20
51.3799949602
 40
14.0766257968
100
AcDbArc
 50
38.9295050102
 51
39.6140611759
  0
ARC
  5
2A0
100
AcDbEntity
  8
0
100
AcDbCircle
 62
7
  6
BYLAYER
 10
44.9294374705
 20
51.4577581712
 40
13.993484304
100
AcDbArc
 50
39.6021858272
 51
42.2203387098
  0
ARC
  5
2A1
100
AcDbEntity
  8
0
100
AcDbCircle
 62
7
  6
BYLAYER
 10
41.6088667448
 20
50.6920730383
 40
13.0619103337
100
AcDbArc
 50
50.3345065746
 51
51.8568995571
  0
ARC
  5
2A2
100
AcDbEntity
  8
0
100
AcDbCircle
 62
7
  6
BYLAYER
 10
41.7712218384
 20
50.8010946944
 40
12.7664995869
100
AcDbArc
 50
50.3608023322
 51
51.8306037995
  0
ARC
  5
2A3
100
AcDbEntity
  8
0
100
AcDbCircle
 62
7
  6
BYLAYER
 10
46.7630926251
 20
48.5766257786
 40
10.564072543
100
AcDbArc
 50
356.0350657123
 51
0.0568055328
  0
ARC
  5
2A4
100
AcDbEntity
  8
0
100
AcDbCircle
 62
7
  6
BYLAYER
 10
46.8517237031
 20
48.8361776202
 40
9.0022763105
100
AcDbArc
 50
355.6630907535
 51
357.6197728682
  0
ARC
  5
2A5
100
AcDbEntity
  8
0
100
AcDbCircle
 62
7
  6
BYLAYER
 10
46.7906410227
 20
48.9099993704
 40
8.944946858
100
AcDbArc
 50
355.7123355964
 51
357.5705280253
  0
ARC
  5
2A6
100
AcDbEntity
  8
0
100
AcDbCircle
 62
7
  6
BYLAYER
 10
48.5981065335
 20
48.6189959397
 40
7.2412994352
100
AcDbArc
 50
348.0396048732
 51
350.3021737841
  0
ARC
  5
2A7
100
AcDbEntity
  8
0
100
AcDbCircle
 62
7
  6
BYLAYER
 10
48.5219255552
 20
48.7050894139
 40
7.2004525613
100
AcDbArc
 50
348.0973359725
 51
350.2444426848
  0
ARC
  5
2A8
100
AcDbEntity
  8
0
100
AcDbCircle
 62
7
  6
BYLAYER
 10
50.0100311481
 20
48.2381952754
 40
5.7776499263
100
AcDbArc
 50
339.187465041
 51
341.8176181786
  0
ARC
  5
2A9
100
AcDbEntity
  8
0
100
AcDbCircle
 62
7
  6
BYLAYER
 10
49.9285778468
 20
48.3360318014
 40
5.7449310475
100
AcDbArc
 50
339.2545503035
 51
341.7505329161
  0
ARC
  5
2AA
100
AcDbEntity
  8
0
100
AcDbCircle
 62
7
  6
BYLAYER
 10
51.0179707802
 20
47.781827317
 40
4.6699175473
100
AcDbArc
 50
328.9384762149
 51
331.9690534604
  0
ARC
  5
2AB
100
AcDbEntity
  8
0
100
AcDbCircle
 62
7
  6
BYLAYER
 10
50.9394035848
 20
47.887961645
 40
4.6379649082
100
AcDbArc
 50
329.0140711542
 51
331.8934585211
  0
ARC
  5
2AC
100
AcDbEntity
  8
0
100
AcDbCircle
 62
7
  6
BYLAYER
 10
51.6164816666
 20
47.3636666632
 40
3.9387085413
100
AcDbArc
 50
317.3139306739
 51
320.7073235547
  0
ARC
  5
2AD
100
AcDbEntity
  8
0
100
AcDbCircle
 62
7
  6
BYLAYER
 10
51.5403406123
 20
47.4769143053
 40
3.9088360391
100
AcDbArc
 50
317.7955447047
 51
320.6258173765
  0
ARC
  5
2AE
100
AcDbEntity
  8
0
100
AcDbCircle
 62
7
  6
BYLAYER
 10
51.9158406224
 20
47.9367404246
 40
3.8675929274
100
AcDbArc
 50
320.5474505692
 51
320.9120991214
  0
ARC
  5
2AF
100
AcDbEntity
  8
0
100
AcDbCircle
 62
7
  6
BYLAYER
 10
52.406464721
 20
47.3010917074
 40
3.666635846
100
AcDbArc
 50
304.3708339273
 51
310.1800865335
  0
ARC
  5
2B0
100
AcDbEntity
  8
0
100
AcDbCircle
 62
7
  6
BYLAYER
 10
45.2794691912
 20
51.665237448
 40
13.6339001067
100
AcDbArc
 50
39.5979440102
 51
42.5828462147
  0
ARC
  5
2B1
100
AcDbEntity
  8
0
100
AcDbCircle
 62
7
  6
BYLAYER
 10
6.8094365648
 20
63.2426237114
 40
52.1218831855
100
AcDbArc
 50
334.853055759
 51
335.3803139088
  0
ARC
  5
2B2
100
AcDbEntity
  8
0
100
AcDbCircle
 62
7
  6
BYLAYER
 10
12.1685684079
 20
65.9104141849
 40
51.6705770208
100
AcDbArc
 50
334.8507773023
 51
335.3826403973
  0
ARC
  5
2B3
100
AcDbEntity
  8
0
100
AcDbCircle
 62
7
  6
BYLAYER
 10
42.7955106075
 20
52.3130681946
 40
11.0522253337
100
AcDbArc
 50
56.0039576452
 51
57.7053217362
  0
ARC
  5
2B4
100
AcDbEntity
  8
0
100
AcDbCircle
 62
7
  6
BYLAYER
 10
42.9326039447
 20
52.4028787032
 40
10.7872165622
100
AcDbArc
 50
56.0321992333
 51
57.6770801481
  0
ARC
  5
2B5
100
AcDbEntity
  8
0
100
AcDbCircle
 62
7
  6
BYLAYER
 10
43.780590569
 20
54.0090034504
 40
9.0900009234
100
AcDbArc
 50
62.3902996935
 51
64.328078943
  0
ARC
  5
2B6
100
AcDbEntity
  8
0
100
AcDbCircle
 62
7
  6
BYLAYER
 10
43.8906604515
 20
54.0720449324
 40
8.8616879208
100
AcDbArc
 50
62.4213717097
 51
64.2970069267
  0
ARC
  5
2B7
100
AcDbEntity
  8
0
100
AcDbCircle
 62
7
  6
BYLAYER
 10
44.4800753666
 20
55.6365973008
 40
7.3173295375
100
AcDbArc
 50
69.7103574347
 51
71.9493921994
  0
ARC
  5
2B8
100
AcDbEntity
  8
0
100
AcDbCircle
 62
7
  6
BYLAYER
 10
44.565215582
 20
55.667573864
 40
7.1282925252
100
AcDbArc
 50
69.7454632448
 51
71.9142863894
  0
ARC
  5
2B9
100
AcDbEntity
  8
0
100
AcDbCircle
 62
7
  6
BYLAYER
 10
44.8601120189
 20
57.011882225
 40
5.8893543769
100
AcDbArc
 50
78.2007628145
 51
79.9269051862
  0
ARC
  5
2BA
100
AcDbEntity
  8
0
100
AcDbCircle
 62
7
  6
BYLAYER
 10
44.9167125446
 20
56.9604127404
 40
5.7875066679
100
AcDbArc
 50
78.2518964195
 51
79.5044768711
  0
ARC
  5
2BB
100
AcDbEntity
  8
0
100
AcDbCircle
 62
7
  6
BYLAYER
 10
44.8944585104
 20
57.2004926904
 40
5.6976439701
100
AcDbArc
 50
79.9352341535
 51
80.8180681006
  0
ARC
  5
2BC
100
AcDbEntity
  8
0
100
AcDbCircle
 62
7
  6
BYLAYER
 10
45.263910029
 20
59.9849362926
 40
4.604288232
100
AcDbArc
 50
140.9562231973
 51
142.1828065998
  0
ARC
  5
2BD
100
AcDbEntity
  8
0
100
AcDbCircle
 62
7
  6
BYLAYER
 10
45.2609663986
 20
59.6823662228
 40
3.6484307237
100
AcDbArc
 50
109.4717819584
 51
116.2655240282
  0
ARC
  5
2BE
100
AcDbEntity
  8
0
100
AcDbCircle
 62
7
  6
BYLAYER
 10
103.3072509033
 20
-4.6275681413
 40
92.895898723
100
AcDbArc
 50
132.1490516347
 51
132.3891616733
  0
ARC
  5
2BF
100
AcDbEntity
  8
0
100
AcDbCircle
 62
7
  6
BYLAYER
 10
97.8848309661
 20
-6.9652328068
 40
92.1931308014
100
AcDbArc
 50
132.1481358319
 51
132.3900761916
  0
ARC
  5
2C0
100
AcDbEntity
  8
0
100
AcDbCircle
 62
7
  6
BYLAYER
 10
91.50821855
 20
24.8943342601
 40
41.902964419
100
AcDbArc
 50
157.9029853366
 51
158.5129419843
  0
ARC
  5
2C1
100
AcDbEntity
  8
0
100
AcDbCircle
 62
7
  6
BYLAYER
 10
96.2712431596
 20
27.826710428
 40
41.7018880368
100
AcDbArc
 50
157.901542743
 51
158.5144401043
  0
ARC
  5
2C2
100
AcDbEntity
  8
0
100
AcDbCircle
 62
7
  6
BYLAYER
 10
101.4944866003
 20
96.8026576625
 40
80.9889379224
100
AcDbArc
 50
224.4341790555
 51
224.6637851718
  0
ARC
  5
2C3
100
AcDbEntity
  8
0
100
AcDbCircle
 62
7
  6
BYLAYER
 10
111.4384703947
 20
56.5172797584
 40
71.1510124012
100
AcDbArc
 50
173.9763830684
 51
175.05104838
  0
ARC
  5
2C4
100
AcDbEntity
  8
0
100
AcDbCircle
 62
7
  6
BYLAYER
 10
110.9792168578
 20
66.4149767873
 40
60.2604265276
100
AcDbArc
 50
194.0342061182
 51
194.669436199
  0
ARC
  5
2C5
100
AcDbEntity
  8
0
100
AcDbCircle
 62
7
  6
BYLAYER
 10
115.7153706008
 20
69.2180401938
 40
60.0399766987
100
AcDbArc
 50
194.0330391713
 51
194.6706016638
  0
ARC
  5
2C6
100
AcDbEntity
  8
0
100
AcDbCircle
 62
7
  6
BYLAYER
 10
75.640078162
 20
84.8868251993
 40
55.0845959111
100
AcDbArc
 50
234.8051671636
 51
235.4492287957
  0
ARC
  5
2C7
100
AcDbEntity
  8
0
100
AcDbCircle
 62
7
  6
BYLAYER
 10
66.5596591805
 20
111.3690592206
 40
49.6867229107
100
AcDbArc
 50
249.1084010955
 51
249.7341370651
  0
ARC
  5
2C8
100
AcDbEntity
  8
0
100
AcDbCircle
 62
7
  6
BYLAYER
 10
61.4970453627
 20
108.210676302
 40
49.3655607536
100
AcDbArc
 50
249.1063639548
 51
249.7361708592
  0
SPLINE
  5
2C9
100
AcDbEntity
  8
0
100
AcDbSpline
 62
7
  6
BYLAYER
 70
0
 71
3
 72
11
 73
7
 74
0
 42
0.0000001
 43
0.0000001
 44
0.0000000001
 40
0.0
 40
0.0
 40
0.0
 40
0.0
 40
0.2438909401
 40
0.4915600864
 40
0.7434920037
 40
1.0
 40
1.0
 40
1.0
 40
1.0
 10
59.1428039036
 20
54.8839991872
 30
0.0
 10
59.1908243994
 20
54.4734734613
 30
0.0
 10
59.277673901
 20
53.6448552864
 30
0.0
 10
59.3747961247
 20
52.3884281085
 30
0.0
 10
59.4351016855
 20
51.1082631722
 30
0.0
 10
59.4484714892
 20
50.2465388335
 30
0.0
 10
59.4484714892
 20
49.8118318267
 30
0.0
  0
SPLINE
  5
2CA
100
AcDbEntity
  8
0
100
AcDbSpline
 62
7
  6
BYLAYER
 70
0
 71
3
 72
10
 73
6
 74
0
 42
0.0000001
 43
0.0000001
 44
0.0000000001
 40
0.0
 40
0.0
 40
0.0
 40
0.0
 40
0.2518572263
 40
0.5024569043
 40
1.0
 40
1.0
 40
1.0
 40
1.0
 10
55.2058124685
 20
60.7466179462
 30
0.0
 10
55.5442696785
 20
60.3255763322
 30
0.0
 10
56.2066289989
 20
59.4751498612
 30
0.0
 10
57.4731943285
 20
57.743821455
 30
0.0
 10
58.3662068602
 20
56.4095132996
 30
0.0
 10
58.9409832473
 20
55.5103351285
 30
0.0
  0
SPLINE
  5
2CB
100
AcDbEntity
  8
0
100
AcDbSpline
 62
7
  6
BYLAYER
 70
0
 71
3
 72
11
 73
7
 74
0
 42
0.0000001
 43
0.0000001
 44
0.0000000001
 40
0.0
 40
0.0
 40
0.0
 40
0.0
 40
0.2442393371
 40
0.4926107432
 40
0.7447042177
 40
1.0
 40
1.0
 40
1.0
 40
1.0
 10
59.4484714892
 20
49.8118318267
 30
0.0
 10
59.4484714872
 20
49.369270659
 30
0.0
 10
59.4343794361
 20
48.476607848
 30
0.0
 10
59.3735073341
 20
47.1284138738
 30
0.0
 10
59.2760586833
 20
45.7623159963
 30
0.0
 10
59.1902247478
 20
44.8468705017
 30
0.0
 10
59.142803648
 20
44.386712089
 30
0.0
  0
SPLINE
  5
2CC
100
AcDbEntity
  8
0
100
AcDbSpline
 62
7
  6
BYLAYER
 70
0
 71
3
 72
9
 73
5
 74
0
 42
0.0000001
 43
0.0000001
 44
0.0000000001
 40
0.0
 40
0.0
 40
0.0
 40
0.0
 40
0.4887649028
 40
1.0
 40
1.0
 40
1.0
 40
1.0
 10
54.2766950802
 20
42.6715340863
 30
0.0
 10
54.7979584938
 20
42.7298423439
 30
0.0
 10
55.8628884246
 20
42.8632647382
 30
0.0
 10
56.9248925524
 20
43.017836966
 30
0.0
 10
57.4672232103
 20
43.1007243605
 30
0.0
  0
SPLINE
  5
2CD
100
AcDbEntity
  8
0
100
AcDbSpline
 62
7
  6
BYLAYER
 70
0
 71
3
 72
10
 73
6
 74
0
 42
0.0000001
 43
0.0000001
 44
0.0000000001
 40
0.0
 40
0.0
 40
0.0
 40
0.0
 40
0.5016857922
 40
0.7513585179
 40
1.0
 40
1.0
 40
1.0
 40
1.0
 10
50.8230915362
 20
65.6090400227
 30
0.0
 10
51.5947656082
 20
64.8319655376
 30
0.0
 10
52.7281447519
 20
63.6452963158
 30
0.0
 10
54.171104153
 20
62.0070032449
 30
0.0
 10
54.8657585378
 20
61.1696488473
 30
0.0
 10
55.2058124685
 20
60.7466179462
 30
0.0
  0
SPLINE
  5
2CE
100
AcDbEntity
  8
0
100
AcDbSpline
 62
7
  6
BYLAYER
 70
0
 71
3
 72
9
 73
5
 74
0
 42
0.0000001
 43
0.0000001
 44
0.0000000001
 40
0.0
 40
0.0
 40
0.0
 40
0.0
 40
0.5215743723
 40
1.0
 40
1.0
 40
1.0
 40
1.0
 10
46.7204956997
 20
65.6455070976
 30
0.0
 10
47.3501089148
 20
65.7017513892
 30
0.0
 10
48.5595506428
 20
65.7860181688
 30
0.0
 10
49.7714832087
 20
65.8172989924
 30
0.0
 10
50.351299771
 20
65.8206819974
 30
0.0
  0
SPLINE
  5
2CF
100
AcDbEntity
  8
0
100
AcDbSpline
 62
7
  6
BYLAYER
 70
0
 71
3
 72
9
 73
5
 74
0
 42
0.0000001
 43
0.0000001
 44
0.0000000001
 40
0.0
 40
0.0
 40
0.0
 40
0.0
 40
0.5170221285
 40
1.0
 40
1.0
 40
1.0
 40
1.0
 10
42.4783580551
 20
65.1173807124
 30
0.0
 10
43.2068635686
 20
65.2277790779
 30
0.0
 10
44.6180639421
 20
65.4275585906
 30
0.0
 10
46.0349202191
 20
65.5842636814
 30
0.0
 10
46.7204956997
 20
65.6455070976
 30
0.0
  0
SPLINE
  5
2D0
100
AcDbEntity
  8
0
100
AcDbSpline
 62
7
  6
BYLAYER
 70
0
 71
3
 72
9
 73
5
 74
0
 42
0.0000001
 43
0.0000001
 44
0.0000000001
 40
0.0
 40
0.0
 40
0.0
 40
0.0
 40
0.4948395905
 40
1.0
 40
1.0
 40
1.0
 40
1.0
 10
44.0447891248
 20
63.122127782
 30
0.0
 10
44.174767721
 20
63.1681527326
 30
0.0
 10
44.4427952422
 20
63.2466048906
 30
0.0
 10
44.7175967315
 20
63.2960291484
 30
0.0
 10
44.8572126878
 20
63.3139590176
 30
0.0
  0
SPLINE
  5
2D1
100
AcDbEntity
  8
0
100
AcDbSpline
 62
7
  6
BYLAYER
 70
0
 71
3
 72
25
 73
21
 74
0
 42
0.0000001
 43
0.0000001
 44
0.0000000001
 40
0.0
 40
0.0
 40
0.0
 40
0.0
 40
0.0220114265
 40
0.044737398
 40
0.0682806086
 40
0.0927185121
 40
0.1444450052
 40
0.2001497054
 40
0.259734973
 40
0.3228744129
 40
0.3890644984
 40
0.4576683486
 40
0.5279533727
 40
0.5991244088
 40
0.6703547039
 40
0.7408149421
 40
0.8097042818
 40
0.8762778423
 40
0.9398867515
 40
1.0
 40
1.0
 40
1.0
 40
1.0
 10
44.8572126878
 20
63.3139590176
 30
0.0
 10
45.0031778682
 20
63.3327042717
 30
0.0
 10
45.3020337042
 20
63.3552501512
 30
0.0
 10
45.759065335
 20
63.3451331267
 30
0.0
 10
46.2293975465
 20
63.2916535733
 30
0.0
 10
46.8836876146
 20
63.1605787961
 30
0.0
 10
47.7246642919
 20
62.8844907829
 30
0.0
 10
48.7320292025
 20
62.3964535885
 30
0.0
 10
49.7402034525
 20
61.7542699105
 30
0.0
 10
50.7320972476
 20
60.9691653258
 30
0.0
 10
51.6909675907
 20
60.0546406648
 30
0.0
 10
52.6003763098
 20
59.0264538507
 30
0.0
 10
53.4446628694
 20
57.9023502604
 30
0.0
 10
54.2092342679
 20
56.7017700492
 30
0.0
 10
54.8808501019
 20
55.4454987038
 30
0.0
 10
55.4478921226
 20
54.1552825308
 30
0.0
 10
55.9005271103
 20
52.8534532371
 30
0.0
 10
56.2309656452
 20
51.5623881558
 30
0.0
 10
56.4334160623
 20
50.3045101649
 30
0.0
 10
56.4821638546
 20
49.4768521026
 30
0.0
 10
56.4821638546
 20
49.0749471605
 30
0.0
  0
SPLINE
  5
2D2
100
AcDbEntity
  8
0
100
AcDbSpline
 62
7
  6
BYLAYER
 70
0
 71
3
 72
15
 73
11
 74
0
 42
0.0000001
 43
0.0000001
 44
0.0000000001
 40
0.0
 40
0.0
 40
0.0
 40
0.0
 40
0.1108410465
 40
0.2280578197
 40
0.3507094003
 40
0.477625969
 40
0.6074737799
 40
0.7388131746
 40
0.8701524765
 40
1.0
 40
1.0
 40
1.0
 40
1.0
 10
57.3271599761
 20
48.5870994588
 30
0.0
 10
57.3271599761
 20
49.0280339582
 30
0.0
 10
57.2743455247
 20
49.9357810973
 30
0.0
 10
57.0547495311
 20
51.3154865408
 30
0.0
 10
56.6962263453
 20
52.7317694486
 30
0.0
 10
56.2048566462
 20
54.1606174351
 30
0.0
 10
55.5889470462
 20
55.5780223281
 30
0.0
 10
54.8588856085
 20
56.9600482571
 30
0.0
 10
54.0271003706
 20
58.2832248935
 30
0.0
 10
53.408129519
 20
59.1192913297
 30
0.0
 10
53.0845016365
 20
59.5218859977
 30
0.0
  0
SPLINE
  5
2D3
100
AcDbEntity
  8
0
100
AcDbSpline
 62
7
  6
BYLAYER
 70
0
 71
3
 72
15
 73
11
 74
0
 42
0.0000001
 43
0.0000001
 44
0.0000000001
 40
0.0
 40
0.0
 40
0.0
 40
0.0
 40
0.1115178099
 40
0.2234590819
 40
0.3379113542
 40
0.456741863
 40
0.5814673276
 40
0.7131872753
 40
0.8525819616
 40
1.0
 40
1.0
 40
1.0
 40
1.0
 10
54.3474678878
 20
42.8518348019
 30
0.0
 10
54.5581141894
 20
42.9376301861
 30
0.0
 10
54.9665973801
 20
43.1455998091
 30
0.0
 10
55.5207991754
 20
43.5606203742
 30
0.0
 10
56.0085435148
 20
44.0727764812
 30
0.0
 10
56.4248767772
 20
44.6759665406
 30
0.0
 10
56.7662834901
 20
45.3636408443
 30
0.0
 10
57.0300297067
 20
46.1288081344
 30
0.0
 10
57.2141479433
 20
46.9639954621
 30
0.0
 10
57.2809855519
 20
47.546220738
 30
0.0
 10
57.3018806441
 20
47.8461630586
 30
0.0
  0
SPLINE
  5
2D4
100
AcDbEntity
  8
0
100
AcDbSpline
 62
7
  6
BYLAYER
 70
0
 71
3
 72
15
 73
11
 74
0
 42
0.0000001
 43
0.0000001
 44
0.0000000001
 40
0.0
 40
0.0
 40
0.0
 40
0.0
 40
0.1289736283
 40
0.2552347869
 40
0.379464624
 40
0.5024842544
 40
0.6251806648
 40
0.7484373997
 40
0.8731075239
 40
1.0
 40
1.0
 40
1.0
 40
1.0
 10
44.5991849235
 20
64.420775066
 30
0.0
 10
44.4543036669
 20
64.4078326876
 30
0.0
 10
44.1685503668
 20
64.3691925196
 30
0.0
 10
43.7512583203
 20
64.2712834149
 30
0.0
 10
43.3521254924
 20
64.1343083261
 30
0.0
 10
42.972775526
 20
63.9588202125
 30
0.0
 10
42.614642439
 20
63.7454381737
 30
0.0
 10
42.279043466
 20
63.4950022027
 30
0.0
 10
41.967280366
 20
63.2085031658
 30
0.0
 10
41.7780701465
 20
62.9963899034
 30
0.0
 10
41.6879209567
 20
62.8852418417
 30
0.0
  0
SPLINE
  5
2D5
100
AcDbEntity
  8
0
100
AcDbSpline
 62
7
  6
BYLAYER
 70
0
 71
3
 72
11
 73
7
 74
0
 42
0.0000001
 43
0.0000001
 44
0.0000000001
 40
0.0
 40
0.0
 40
0.0
 40
0.0
 40
0.2692175932
 40
0.5275764065
 40
0.7719547257
 40
1.0
 40
1.0
 40
1.0
 40
1.0
 10
53.0845016365
 20
59.5218859977
 30
0.0
 10
52.7224080345
 20
59.9723327867
 30
0.0
 10
51.9730423016
 20
60.8240845301
 30
0.0
 10
50.7616885125
 20
61.9590119169
 30
0.0
 10
49.5073636262
 20
62.9063255746
 30
0.0
 10
48.6276324782
 20
63.4177966504
 30
0.0
 10
48.1876819462
 20
63.6325197663
 30
0.0
  0
SPLINE
  5
2D6
100
AcDbEntity
  8
0
100
AcDbSpline
 62
7
  6
BYLAYER
 70
0
 71
3
 72
11
 73
7
 74
0
 42
0.0000001
 43
0.0000001
 44
0.0000000001
 40
0.0
 40
0.0
 40
0.0
 40
0.0
 40
0.2741027699
 40
0.5313434039
 40
0.7726646312
 40
1.0
 40
1.0
 40
1.0
 40
1.0
 10
48.1876819462
 20
63.6325197663
 30
0.0
 10
47.8825449604
 20
63.7814455195
 30
0.0
 10
47.2757870547
 20
64.0405088398
 30
0.0
 10
46.3550251895
 20
64.3108129019
 30
0.0
 10
45.4632482615
 20
64.4467410086
 30
0.0
 10
44.8796757225
 20
64.4458318574
 30
0.0
 10
44.5991849235
 20
64.420775066
 30
0.0
  0
SPLINE
  5
2D7
100
AcDbEntity
  8
0
100
AcDbSpline
 62
7
  6
BYLAYER
 70
0
 71
3
 72
10
 73
6
 74
0
 42
0.0000001
 43
0.0000001
 44
0.0000000001
 40
0.0
 40
0.0
 40
0.0
 40
0.0
 40
0.2723292994
 40
0.5297736699
 40
1.0
 40
1.0
 40
1.0
 40
1.0
 10
56.4821638546
 20
49.0749471605
 30
0.0
 10
56.4821638546
 20
48.7781124643
 30
0.0
 10
56.4568944802
 20
48.1999708496
 30
0.0
 10
56.3014631035
 20
47.1205530677
 30
0.0
 10
56.0592415233
 20
46.3536245557
 30
0.0
 10
55.8340591886
 20
45.8932013476
 30
0.0
  0
SPLINE
  5
2D8
100
AcDbEntity
  8
0
100
AcDbSpline
 62
7
  6
BYLAYER
 70
0
 71
3
 72
11
 73
7
 74
0
 42
0.0000001
 43
0.0000001
 44
0.0000000001
 40
0.0
 40
0.0
 40
0.0
 40
0.0
 40
0.2608744462
 40
0.5134937485
 40
0.7593031797
 40
1.0
 40
1.0
 40
1.0
 40
1.0
 10
55.8340591886
 20
45.8932013476
 30
0.0
 10
55.7669978047
 20
45.7560830537
 30
0.0
 10
55.6227674502
 20
45.4919239208
 30
0.0
 10
55.372438067
 20
45.1240019769
 30
0.0
 10
55.0928888716
 20
44.7930064898
 30
0.0
 10
54.8861148573
 20
44.5963606386
 30
0.0
 10
54.7787137546
 20
44.50526223
 30
0.0
  0
SPLINE
  5
2D9
100
AcDbEntity
  8
0
100
AcDbSpline
 62
7
  6
BYLAYER
 70
0
 71
3
 72
10
 73
6
 74
0
 42
0.0000001
 43
0.0000001
 44
0.0000000001
 40
0.0
 40
0.0
 40
0.0
 40
0.0
 40
0.244247004
 40
0.4926262622
 40
1.0
 40
1.0
 40
1.0
 40
1.0
 10
57.3271599752
 20
48.5870993986
 30
0.0
 10
57.3271599752
 20
49.0296605017
 30
0.0
 10
57.3412496184
 20
49.9223287412
 30
0.0
 10
57.4229985505
 20
51.7326131876
 30
0.0
 10
57.5385860128
 20
53.0977311282
 30
0.0
 10
57.6328275446
 20
54.0122191337
 30
0.0
  0
SPLINE
  5
2DA
100
AcDbEntity
  8
0
100
AcDbSpline
 62
7
  6
BYLAYER
 70
0
 71
3
 72
10
 73
6
 74
0
 42
0.0000001
 43
0.0000001
 44
0.0000000001
 40
0.0
 40
0.0
 40
0.0
 40
0.0
 40
0.501685792
 40
0.7513585178
 40
1.0
 40
1.0
 40
1.0
 40
1.0
 10
57.4672232105
 20
54.6594644535
 30
0.0
 10
56.6955491544
 20
55.4365389195
 30
0.0
 10
55.5621702811
 20
56.623208314
 30
0.0
 10
54.1192103004
 20
58.2615008558
 30
0.0
 10
53.4245571345
 20
59.0988562026
 30
0.0
 10
53.0845023832
 20
59.5218864288
 30
0.0
  0
SPLINE
  5
2DB
100
AcDbEntity
  8
0
100
AcDbSpline
 62
7
  6
BYLAYER
 70
0
 71
3
 72
10
 73
6
 74
0
 42
0.0000001
 43
0.0000001
 44
0.0000000001
 40
0.0
 40
0.0
 40
0.0
 40
0.0
 40
0.2518572354
 40
0.5024569308
 40
1.0
 40
1.0
 40
1.0
 40
1.0
 10
53.0845023832
 20
59.5218864288
 30
0.0
 10
52.7460456708
 20
59.942928487
 30
0.0
 10
52.0836852654
 20
60.7933541975
 30
0.0
 10
50.8171198561
 20
62.5246826622
 30
0.0
 10
49.9241078699
 20
63.8589911987
 30
0.0
 10
49.3493314997
 20
64.7581693479
 30
0.0
  0
SPLINE
  5
2DC
100
AcDbEntity
  8
0
100
AcDbSpline
 62
7
  6
BYLAYER
 70
0
 71
3
 72
9
 73
5
 74
0
 42
0.0000001
 43
0.0000001
 44
0.0000000001
 40
0.0
 40
0.0
 40
0.0
 40
0.0
 40
0.5170221283
 40
1.0
 40
1.0
 40
1.0
 40
1.0
 10
48.8413233041
 20
64.9489018816
 30
0.0
 10
48.1128177952
 20
64.8385035124
 30
0.0
 10
46.701617428
 20
64.6387240071
 30
0.0
 10
45.2847611586
 20
64.4820189143
 30
0.0
 10
44.5991856814
 20
64.4207754981
 30
0.0
  0
SPLINE
  5
2DD
100
AcDbEntity
  8
0
100
AcDbSpline
 62
7
  6
BYLAYER
 70
0
 71
3
 72
9
 73
5
 74
0
 42
0.0000001
 43
0.0000001
 44
0.0000000001
 40
0.0
 40
0.0
 40
0.0
 40
0.0
 40
0.5215743725
 40
1.0
 40
1.0
 40
1.0
 40
1.0
 10
44.5991856814
 20
64.4207754981
 30
0.0
 10
43.9695724621
 20
64.3645312059
 30
0.0
 10
42.7601307264
 20
64.2802644284
 30
0.0
 10
41.5481981528
 20
64.2489835946
 30
0.0
 10
40.968381587
 20
64.2456005959
 30
0.0
  0
SPLINE
  5
2DE
100
AcDbEntity
  8
0
100
AcDbSpline
 62
7
  6
BYLAYER
 70
0
 71
3
 72
9
 73
5
 74
0
 42
0.0000001
 43
0.0000001
 44
0.0000000001
 40
0.0
 40
0.0
 40
0.0
 40
0.0
 40
0.2474418118
 40
1.0
 40
1.0
 40
1.0
 40
1.0
 10
54.4957835739
 20
45.0574702596
 30
0.0
 10
54.5320227865
 20
45.0894507682
 30
0.0
 10
54.6758225848
 20
45.2216820341
 30
0.0
 10
54.8087992533
 20
45.365618025
 30
0.0
 10
54.9022067509
 20
45.4791211704
 30
0.0
  0
SPLINE
  5
2DF
100
AcDbEntity
  8
0
100
AcDbSpline
 62
7
  6
BYLAYER
 70
0
 71
3
 72
11
 73
7
 74
0
 42
0.0000001
 43
0.0000001
 44
0.0000000001
 40
0.0
 40
0.0
 40
0.0
 40
0.0
 40
0.2438911126
 40
0.4915603123
 40
0.7434917807
 40
1.0
 40
1.0
 40
1.0
 40
1.0
 10
57.6328274979
 20
43.514932156
 30
0.0
 10
57.5848069686
 20
43.9254581591
 30
0.0
 10
57.4979590896
 20
44.754076896
 30
0.0
 10
57.4008389926
 20
46.0105037177
 30
0.0
 10
57.3405252949
 20
47.2906679813
 30
0.0
 10
57.3271599764
 20
48.1523920278
 30
0.0
 10
57.3271599752
 20
48.5870993986
 30
0.0
  0
SPLINE
  5
2E0
100
AcDbEntity
  8
0
100
AcDbSpline
 62
7
  6
BYLAYER
 70
0
 71
3
 72
10
 73
6
 74
0
 42
0.0000001
 43
0.0000001
 44
0.0000000001
 40
0.0
 40
0.0
 40
0.0
 40
0.0
 40
0.5065063668
 40
0.7550831458
 40
1.0
 40
1.0
 40
1.0
 40
1.0
 10
35.7305754419
 20
61.1260433379
 30
0.0
 10
35.6418733228
 20
60.2842226759
 30
0.0
 10
35.5301130212
 20
59.0268234511
 30
0.0
 10
35.439855703
 20
57.3579141004
 30
0.0
 10
35.4166865688
 20
56.5333809905
 30
0.0
 10
35.4109815446
 20
56.1241120464
 30
0.0
  0
SPLINE
  5
2E1
100
AcDbEntity
  8
0
100
AcDbSpline
 62
7
  6
BYLAYER
 70
0
 71
3
 72
9
 73
5
 74
0
 42
0.0000001
 43
0.0000001
 44
0.0000000001
 40
0.0
 40
0.0
 40
0.0
 40
0.0
 40
0.4778397043
 40
1.0
 40
1.0
 40
1.0
 40
1.0
 10
44.3996046393
 20
39.5178322604
 30
0.0
 10
44.9953373478
 20
39.519908749
 30
0.0
 10
46.242132114
 20
39.5496313358
 30
0.0
 10
47.4863654885
 20
39.6355698457
 30
0.0
 10
48.1347755002
 20
39.6934933131
 30
0.0
  0
SPLINE
  5
2E2
100
AcDbEntity
  8
0
100
AcDbSpline
 62
7
  6
BYLAYER
 70
0
 71
3
 72
9
 73
5
 74
0
 42
0.0000001
 43
0.0000001
 44
0.0000000001
 40
0.0
 40
0.0
 40
0.0
 40
0.0
 40
0.5170221285
 40
1.0
 40
1.0
 40
1.0
 40
1.0
 10
37.5286311946
 20
62.2596716353
 30
0.0
 10
38.2571367075
 20
62.3700700051
 30
0.0
 10
39.6683370819
 20
62.5698495115
 30
0.0
 10
41.0851933586
 20
62.7265546043
 30
0.0
 10
41.7707688391
 20
62.7877980205
 30
0.0
  0
SPLINE
  5
2E3
100
AcDbEntity
  8
0
100
AcDbSpline
 62
7
  6
BYLAYER
 70
0
 71
3
 72
9
 73
5
 74
0
 42
0.0000001
 43
0.0000001
 44
0.0000000001
 40
0.0
 40
0.0
 40
0.0
 40
0.0
 40
0.5215743723
 40
1.0
 40
1.0
 40
1.0
 40
1.0
 10
41.7707688391
 20
62.7877980205
 30
0.0
 10
42.4003820543
 20
62.8440423121
 30
0.0
 10
43.6098237823
 20
62.9283090882
 30
0.0
 10
44.8217563481
 20
62.9595899217
 30
0.0
 10
45.4015729105
 20
62.9629729203
 30
0.0
  0
SPLINE
  5
2E4
100
AcDbEntity
  8
0
100
AcDbSpline
 62
7
  6
BYLAYER
 70
0
 71
3
 72
10
 73
6
 74
0
 42
0.0000001
 43
0.0000001
 44
0.0000000001
 40
0.0
 40
0.0
 40
0.0
 40
0.0
 40
0.501685792
 40
0.7513585178
 40
1.0
 40
1.0
 40
1.0
 40
1.0
 10
45.8733646913
 20
62.7513309546
 30
0.0
 10
46.6450387516
 20
61.9742564844
 30
0.0
 10
47.7784176309
 20
60.787587083
 30
0.0
 10
49.2213776189
 20
59.1492945318
 30
0.0
 10
49.916030788
 20
58.31193918
 30
0.0
 10
50.2560855409
 20
57.8889089512
 30
0.0
  0
SPLINE
  5
2E5
100
AcDbEntity
  8
0
100
AcDbSpline
 62
7
  6
BYLAYER
 70
0
 71
3
 72
10
 73
6
 74
0
 42
0.0000001
 43
0.0000001
 44
0.0000000001
 40
0.0
 40
0.0
 40
0.0
 40
0.0
 40
0.2518572354
 40
0.5024569308
 40
1.0
 40
1.0
 40
1.0
 40
1.0
 10
50.2560855409
 20
57.8889089512
 30
0.0
 10
50.5945422511
 20
57.4678668951
 30
0.0
 10
51.2569026532
 20
56.6174411897
 30
0.0
 10
52.5234680531
 20
54.886112733
 30
0.0
 10
53.4164800347
 20
53.5518042043
 30
0.0
 10
53.9912564018
 20
52.65262606
 30
0.0
  0
SPLINE
  5
2E6
100
AcDbEntity
  8
0
100
AcDbSpline
 62
7
  6
BYLAYER
 70
0
 71
3
 72
11
 73
7
 74
0
 42
0.0000001
 43
0.0000001
 44
0.0000000001
 40
0.0
 40
0.0
 40
0.0
 40
0.0
 40
0.2438907357
 40
0.4915600264
 40
0.7434918948
 40
1.0
 40
1.0
 40
1.0
 40
1.0
 10
54.1930770588
 20
52.0262901191
 30
0.0
 10
54.241097516
 20
51.6157647318
 30
0.0
 10
54.3279503194
 20
50.7871469725
 30
0.0
 10
54.4250687192
 20
49.5307196531
 30
0.0
 10
54.4853766247
 20
48.2505544829
 30
0.0
 10
54.4987446282
 20
47.3888299814
 30
0.0
 10
54.4987446282
 20
46.9541227842
 30
0.0
  0
SPLINE
  5
2E7
100
AcDbEntity
  8
0
100
AcDbSpline
 62
7
  6
BYLAYER
 70
0
 71
3
 72
10
 73
6
 74
0
 42
0.0000001
 43
0.0000001
 44
0.0000000001
 40
0.0
 40
0.0
 40
0.0
 40
0.0
 40
0.4826173318
 40
0.7375703663
 40
1.0
 40
1.0
 40
1.0
 40
1.0
 10
48.1347755002
 20
39.6934933131
 30
0.0
 10
48.8426302938
 20
39.7567269638
 30
0.0
 10
49.9223923095
 20
39.8768512362
 30
0.0
 10
51.3817737052
 20
40.0733361727
 30
0.0
 10
52.1354938781
 20
40.184631733
 30
0.0
 10
52.5174963499
 20
40.2430152834
 30
0.0
  0
SPLINE
  5
2E8
100
AcDbEntity
  8
0
100
AcDbSpline
 62
7
  6
BYLAYER
 70
0
 71
3
 72
11
 73
7
 74
0
 42
0.0000001
 43
0.0000001
 44
0.0000000001
 40
0.0
 40
0.0
 40
0.0
 40
0.0
 40
0.2442391928
 40
0.4926109677
 40
0.7447043278
 40
1.0
 40
1.0
 40
1.0
 40
1.0
 10
54.4987446282
 20
46.9541227842
 30
0.0
 10
54.4987446269
 20
46.5115618948
 30
0.0
 10
54.4846560049
 20
45.6188986167
 30
0.0
 10
54.4237766905
 20
44.2707047971
 30
0.0
 10
54.3263313779
 20
42.904606545
 30
0.0
 10
54.2404981903
 20
41.9891613914
 30
0.0
 10
54.1930771055
 20
41.5290031955
 30
0.0
  0
SPLINE
  5
2E9
100
AcDbEntity
  8
0
100
AcDbSpline
 62
7
  6
BYLAYER
 70
0
 71
3
 72
16
 73
12
 74
0
 42
0.0000001
 43
0.0000001
 44
0.0000000001
 40
0.0
 40
0.0
 40
0.0
 40
0.0
 40
0.1491232977
 40
0.2932350963
 40
0.4309609537
 40
0.56119541
 40
0.6831905484
 40
0.7966605165
 40
0.8503030756
 40
0.9019889226
 40
1.0
 40
1.0
 40
1.0
 40
1.0
 10
48.134774776
 20
56.6641769207
 30
0.0
 10
47.8184547508
 20
57.0576838068
 30
0.0
 10
47.1659930641
 20
57.8076627772
 30
0.0
 10
46.1187984171
 20
58.8262010919
 30
0.0
 10
45.033602
 20
59.7063037044
 30
0.0
 10
43.9284202375
 20
60.4330980744
 30
0.0
 10
42.8215417626
 20
60.994228614
 30
0.0
 10
41.8953595219
 20
61.321681098
 30
0.0
 10
41.172433294
 20
61.4869425815
 30
0.0
 10
40.4906399019
 20
61.585426877
 30
0.0
 10
39.979974998
 20
61.5925917128
 30
0.0
 10
39.649458063
 20
61.5630659889
 30
0.0
  0
SPLINE
  5
2EA
100
AcDbEntity
  8
0
100
AcDbSpline
 62
7
  6
BYLAYER
 70
0
 71
3
 72
20
 73
16
 74
0
 42
0.0000001
 43
0.0000001
 44
0.0000000001
 40
0.0
 40
0.0
 40
0.0
 40
0.0
 40
0.0593673998
 40
0.117468176
 40
0.1746295937
 40
0.2312464457
 40
0.2877430759
 40
0.3445405735
 40
0.4020449079
 40
0.4606389181
 40
0.5206695808
 40
0.5824400092
 40
0.7120557381
 40
0.8510135929
 40
1.0
 40
1.0
 40
1.0
 40
1.0
 10
39.649458063
 20
61.5630659889
 30
0.0
 10
39.501896713
 20
61.5498841953
 30
0.0
 10
39.2109158427
 20
61.5102888312
 30
0.0
 10
38.7862495167
 20
61.4094285834
 30
0.0
 10
38.380489658
 20
61.2680249705
 30
0.0
 10
37.9953461449
 20
61.0866785582
 30
0.0
 10
37.632336314
 20
60.8660433173
 30
0.0
 10
37.2928476867
 20
60.6070496594
 30
0.0
 10
36.9782339883
 20
60.3107007725
 30
0.0
 10
36.6896866999
 20
59.9782224656
 30
0.0
 10
36.4282506378
 20
59.6109206044
 30
0.0
 10
36.1120936849
 20
59.0681493957
 30
0.0
 10
35.7919464357
 20
58.304167185
 30
0.0
 10
35.5360443482
 20
57.2908964648
 30
0.0
 10
35.4513189552
 20
56.5752650245
 30
0.0
 10
35.4278321816
 20
56.2042180539
 30
0.0
  0
SPLINE
  5
2EB
100
AcDbEntity
  8
0
100
AcDbSpline
 62
7
  6
BYLAYER
 70
0
 71
3
 72
11
 73
7
 74
0
 42
0.0000001
 43
0.0000001
 44
0.0000000001
 40
0.0
 40
0.0
 40
0.0
 40
0.0
 40
0.2744645877
 40
0.5318276113
 40
0.7730164771
 40
1.0
 40
1.0
 40
1.0
 40
1.0
 10
44.4888210273
 20
40.5100170004
 30
0.0
 10
44.7986476213
 20
40.3563615876
 30
0.0
 10
45.4148396104
 20
40.0889018584
 30
0.0
 10
46.3505583785
 20
39.8092299457
 30
0.0
 10
47.2568141864
 20
39.6679303668
 30
0.0
 10
47.8499012005
 20
39.6680444371
 30
0.0
 10
48.1347747535
 20
39.693492882
 30
0.0
  0
SPLINE
  5
2EC
100
AcDbEntity
  8
0
100
AcDbSpline
 62
7
  6
BYLAYER
 70
0
 71
3
 72
9
 73
5
 74
0
 42
0.0000001
 43
0.0000001
 44
0.0000000001
 40
0.0
 40
0.0
 40
0.0
 40
0.0
 40
0.5170221283
 40
1.0
 40
1.0
 40
1.0
 40
1.0
 10
43.8915964436
 20
62.0911928045
 30
0.0
 10
43.163090934
 20
61.9807944397
 30
0.0
 10
41.7518905678
 20
61.7810149279
 30
0.0
 10
40.3350342981
 20
61.6243098372
 30
0.0
 10
39.6494588209
 20
61.5630664211
 30
0.0
  0
SPLINE
  5
2ED
100
AcDbEntity
  8
0
100
AcDbSpline
 62
7
  6
BYLAYER
 70
0
 71
3
 72
10
 73
6
 74
0
 42
0.0000001
 43
0.0000001
 44
0.0000000001
 40
0.0
 40
0.0
 40
0.0
 40
0.0
 40
0.2518572262
 40
0.5024569044
 40
1.0
 40
1.0
 40
1.0
 40
1.0
 10
48.134775564
 20
56.6641772991
 30
0.0
 10
47.7963183415
 20
57.0852189252
 30
0.0
 10
47.1339590039
 20
57.9356454274
 30
0.0
 10
45.8673936163
 20
59.6669738774
 30
0.0
 10
44.9743810598
 20
61.0012820794
 30
0.0
 10
44.3996046542
 20
61.9004602795
 30
0.0
  0
SPLINE
  5
2EE
100
AcDbEntity
  8
0
100
AcDbSpline
 62
7
  6
BYLAYER
 70
0
 71
3
 72
15
 73
11
 74
0
 42
0.0000001
 43
0.0000001
 44
0.0000000001
 40
0.0
 40
0.0
 40
0.0
 40
0.0
 40
0.1229786501
 40
0.2423714906
 40
0.3602463093
 40
0.4788812392
 40
0.600449336
 40
0.7268721972
 40
0.8596900089
 40
1.0
 40
1.0
 40
1.0
 40
1.0
 10
48.1347747535
 20
39.693492882
 30
0.0
 10
48.3703385272
 20
39.7145359889
 30
0.0
 10
48.8324873598
 20
39.7904050377
 30
0.0
 10
49.4919305855
 20
40.0126540616
 30
0.0
 10
50.0971844142
 20
40.3394068093
 30
0.0
 10
50.6412144433
 20
40.7669042022
 30
0.0
 10
51.1182648574
 20
41.2901820999
 30
0.0
 10
51.5238226444
 20
41.903201986
 30
0.0
 10
51.8544296568
 20
42.5992700892
 30
0.0
 10
52.0184691188
 20
43.0997938722
 30
0.0
 10
52.088309427
 20
43.360430785
 30
0.0
  0
SPLINE
  5
2EF
100
AcDbEntity
  8
0
100
AcDbSpline
 62
7
  6
BYLAYER
 70
0
 71
3
 72
9
 73
5
 74
0
 42
0.0000001
 43
0.0000001
 44
0.0000000001
 40
0.0
 40
0.0
 40
0.0
 40
0.0
 40
0.4820362504
 40
1.0
 40
1.0
 40
1.0
 40
1.0
 10
52.0923941129
 20
43.3757404222
 30
0.0
 10
52.1904049109
 20
43.7446853843
 30
0.0
 10
52.3346088101
 20
44.5264039271
 30
0.0
 10
52.3774331088
 20
45.3191967288
 30
0.0
 10
52.3774331156
 20
45.7293903817
 30
0.0
  0
SPLINE
  5
2F0
100
AcDbEntity
  8
0
100
AcDbSpline
 62
7
  6
BYLAYER
 70
0
 71
3
 72
15
 73
11
 74
0
 42
0.0000001
 43
0.0000001
 44
0.0000000001
 40
0.0
 40
0.0
 40
0.0
 40
0.0
 40
0.1108410465
 40
0.2280578197
 40
0.3507094003
 40
0.477625969
 40
0.6074737799
 40
0.7388131746
 40
0.8701524765
 40
1.0
 40
1.0
 40
1.0
 40
1.0
 10
52.3774331156
 20
45.7293903817
 30
0.0
 10
52.3774331156
 20
46.1703248811
 30
0.0
 10
52.3246186639
 20
47.07807202
 30
0.0
 10
52.1050226719
 20
48.4577774647
 30
0.0
 10
51.74649948
 20
49.8740603676
 30
0.0
 10
51.2551298045
 20
51.3029083731
 30
0.0
 10
50.6392201137
 20
52.7203131932
 30
0.0
 10
49.9091590199
 20
54.1023393986
 30
0.0
 10
49.0773725008
 20
55.425515005
 30
0.0
 10
48.4584048072
 20
56.2615839799
 30
0.0
 10
48.134774776
 20
56.6641769207
 30
0.0
  0
SPLINE
  5
2F1
100
AcDbEntity
  8
0
100
AcDbSpline
 62
7
  6
BYLAYER
 70
0
 71
3
 72
11
 73
7
 74
0
 42
0.0000001
 43
0.0000001
 44
0.0000000001
 40
0.0
 40
0.0
 40
0.0
 40
0.0
 40
0.243890989
 40
0.4915600525
 40
0.7434919295
 40
1.0
 40
1.0
 40
1.0
 40
1.0
 10
52.6831009554
 20
40.6572232625
 30
0.0
 10
52.6350804601
 20
41.0677490471
 30
0.0
 10
52.5482317199
 20
41.8963671893
 30
0.0
 10
52.4511082026
 20
43.1527940495
 30
0.0
 10
52.390802049
 20
44.432958823
 30
0.0
 10
52.3774331161
 20
45.2946831798
 30
0.0
 10
52.3774331142
 20
45.7293902863
 30
0.0
  0
SPLINE
  5
2F2
100
AcDbEntity
  8
0
100
AcDbSpline
 62
7
  6
BYLAYER
 70
0
 71
3
 72
9
 73
5
 74
0
 42
0.0000001
 43
0.0000001
 44
0.0000000001
 40
0.0
 40
0.0
 40
0.0
 40
0.0
 40
0.5215743725
 40
1.0
 40
1.0
 40
1.0
 40
1.0
 10
39.6494588209
 20
61.5630664211
 30
0.0
 10
39.0198456016
 20
61.5068221288
 30
0.0
 10
37.8104038659
 20
61.4225553478
 30
0.0
 10
36.5984712923
 20
61.3912745239
 30
0.0
 10
36.0186547265
 20
61.3878915188
 30
0.0
  0
SPLINE
  5
2F3
100
AcDbEntity
  8
0
100
AcDbSpline
 62
7
  6
BYLAYER
 70
0
 71
3
 72
10
 73
6
 74
0
 42
0.0000001
 43
0.0000001
 44
0.0000000001
 40
0.0
 40
0.0
 40
0.0
 40
0.0
 40
0.5016857921
 40
0.7513585178
 40
1.0
 40
1.0
 40
1.0
 40
1.0
 10
52.5174963655
 20
51.8017553854
 30
0.0
 10
51.7458223182
 20
52.5788298456
 30
0.0
 10
50.61244321
 20
53.7654990286
 30
0.0
 10
49.1694838513
 20
55.4037920439
 30
0.0
 10
48.4748294857
 20
56.2411464126
 30
0.0
 10
48.134775564
 20
56.6641772991
 30
0.0
  0
SPLINE
  5
2F4
100
AcDbEntity
  8
0
100
AcDbSpline
 62
7
  6
BYLAYER
 70
0
 71
3
 72
11
 73
7
 74
0
 42
0.0000001
 43
0.0000001
 44
0.0000000001
 40
0.0
 40
0.0
 40
0.0
 40
0.0
 40
0.2442393976
 40
0.4926107705
 40
0.7447041798
 40
1.0
 40
1.0
 40
1.0
 40
1.0
 10
52.3774331142
 20
45.7293902863
 30
0.0
 10
52.3774331142
 20
46.1719515645
 30
0.0
 10
52.3915260307
 20
47.0646144141
 30
0.0
 10
52.4523974958
 20
48.4128083298
 30
0.0
 10
52.5498449784
 20
49.778906197
 30
0.0
 10
52.6356795865
 20
50.6943515841
 30
0.0
 10
52.6831006998
 20
51.1545100656
 30
0.0
  0
SPLINE
  5
2F5
100
AcDbEntity
  8
0
100
AcDbSpline
 62
7
  6
BYLAYER
 70
0
 71
3
 72
11
 73
7
 74
0
 42
0.0000001
 43
0.0000001
 44
0.0000000001
 40
0.0
 40
0.0
 40
0.0
 40
0.0
 40
0.2177660095
 40
0.4508968553
 40
0.7103699668
 40
1.0
 40
1.0
 40
1.0
 40
1.0
 10
7.8742137935
 20
30.9881743075
 30
0.0
 10
7.8412375038
 20
30.9691180814
 30
0.0
 10
7.7794876659
 20
30.917283967
 30
0.0
 10
7.713791934
 20
30.8098197575
 30
0.0
 10
7.6747912201
 20
30.6774222515
 30
0.0
 10
7.667091292
 20
30.5810616394
 30
0.0
 10
7.667091292
 20
30.5304064831
 30
0.0
  0
SPLINE
  5
2F6
100
AcDbEntity
  8
0
100
AcDbSpline
 62
7
  6
BYLAYER
 70
0
 71
3
 72
11
 73
7
 74
0
 42
0.0000001
 43
0.0000001
 44
0.0000000001
 40
0.0
 40
0.0
 40
0.0
 40
0.0
 40
0.2390934366
 40
0.4816799562
 40
0.7341959618
 40
1.0
 40
1.0
 40
1.0
 40
1.0
 10
16.2552956273
 20
33.0509177167
 30
0.0
 10
16.2041619192
 20
33.0256183684
 30
0.0
 10
16.0932433413
 20
32.9893118678
 30
0.0
 10
15.9165224328
 20
32.9808323773
 30
0.0
 10
15.7366701145
 20
33.0140408331
 30
0.0
 10
15.6209456018
 20
33.0597279573
 30
0.0
 10
15.5639689422
 20
33.0875883588
 30
0.0
  0
SPLINE
  5
2F7
100
AcDbEntity
  8
0
100
AcDbSpline
 62
7
  6
BYLAYER
 70
0
 71
3
 72
21
 73
17
 74
0
 42
0.0000001
 43
0.0000001
 44
0.0000000001
 40
0.0
 40
0.0
 40
0.0
 40
0.0
 40
0.14816541
 40
0.2975849002
 40
0.3711814799
 40
0.4431648133
 40
0.5129605372
 40
0.5800571498
 40
0.6440289382
 40
0.7045620268
 40
0.7614870086
 40
0.814806695
 40
0.8647339562
 40
0.911727186
 40
0.9565001377
 40
1.0
 40
1.0
 40
1.0
 40
1.0
 10
22.4212168678
 20
40.8329472887
 30
0.0
 10
22.8074055139
 20
40.3663715953
 30
0.0
 10
23.5176438278
 20
39.373538044
 30
0.0
 10
24.2337252363
 20
38.0306312128
 30
0.0
 10
24.6912394047
 20
36.9140058998
 30
0.0
 10
24.9675462556
 20
36.077260023
 30
0.0
 10
25.1750724946
 20
35.2481810305
 30
0.0
 10
25.3111607357
 20
34.4375073047
 30
0.0
 10
25.3739762039
 20
33.6557320025
 30
0.0
 10
25.362561621
 20
32.9129124906
 30
0.0
 10
25.2769521696
 20
32.2185525047
 30
0.0
 10
25.1178551623
 20
31.5815128967
 30
0.0
 10
24.8867196908
 20
31.0100783339
 30
0.0
 10
24.5857621815
 20
30.5119244455
 30
0.0
 10
24.2183512133
 20
30.0946130132
 30
0.0
 10
23.9298727442
 20
29.8732392803
 30
0.0
 10
23.7786487284
 20
29.7796946195
 30
0.0
  0
SPLINE
  5
2F8
100
AcDbEntity
  8
0
100
AcDbSpline
 62
7
  6
BYLAYER
 70
0
 71
3
 72
11
 73
7
 74
0
 42
0.0000001
 43
0.0000001
 44
0.0000000001
 40
0.0
 40
0.0
 40
0.0
 40
0.0
 40
0.2667076236
 40
0.5195053432
 40
0.7617565518
 40
1.0
 40
1.0
 40
1.0
 40
1.0
 10
14.5357880559
 20
34.8403707377
 30
0.0
 10
14.5389516697
 20
34.9061992563
 30
0.0
 10
14.5552539941
 20
35.0343225823
 30
0.0
 10
14.6155756902
 20
35.2141471955
 30
0.0
 10
14.7126766517
 20
35.3693629364
 30
0.0
 10
14.8021575051
 20
35.4503416297
 30
0.0
 10
14.8511496579
 20
35.4829843943
 30
0.0
  0
SPLINE
  5
2F9
100
AcDbEntity
  8
0
100
AcDbSpline
 62
7
  6
BYLAYER
 70
0
 71
3
 72
9
 73
5
 74
0
 42
0.0000001
 43
0.0000001
 44
0.0000000001
 40
0.0
 40
0.0
 40
0.0
 40
0.0
 40
0.4974963336
 40
1.0
 40
1.0
 40
1.0
 40
1.0
 10
55.8913414898
 20
60.2252361661
 30
0.0
 10
56.2219784629
 20
59.8159161394
 30
0.0
 10
56.841547294
 20
58.9559357875
 30
0.0
 10
57.3680599867
 20
58.0361715722
 30
0.0
 10
57.6075157418
 20
57.5616971436
 30
0.0
  0
SPLINE
  5
2FA
100
AcDbEntity
  8
0
100
AcDbSpline
 62
7
  6
BYLAYER
 70
0
 71
3
 72
11
 73
7
 74
0
 42
0.0000001
 43
0.0000001
 44
0.0000000001
 40
0.0
 40
0.0
 40
0.0
 40
0.0
 40
0.2352685781
 40
0.4768878716
 40
0.7303966085
 40
1.0
 40
1.0
 40
1.0
 40
1.0
 10
18.0376100707
 20
46.0935299827
 30
0.0
 10
17.860052942
 20
45.9910064544
 30
0.0
 10
17.5206923684
 20
45.7452382029
 30
0.0
 10
17.0876387863
 20
45.2735268259
 30
0.0
 10
16.7331857505
 20
44.7052126171
 30
0.0
 10
16.55791635
 20
44.282100569
 30
0.0
 10
16.4833375683
 20
44.0592984785
 30
0.0
  0
SPLINE
  5
2FB
100
AcDbEntity
  8
0
100
AcDbSpline
 62
7
  6
BYLAYER
 70
0
 71
3
 72
17
 73
13
 74
0
 42
0.0000001
 43
0.0000001
 44
0.0000000001
 40
0.0
 40
0.0
 40
0.0
 40
0.0
 40
0.128688864
 40
0.2702797703
 40
0.4174318348
 40
0.5617733576
 40
0.6954455149
 40
0.8127096012
 40
0.8646749146
 40
0.9125085807
 40
0.9571389861
 40
1.0
 40
1.0
 40
1.0
 40
1.0
 10
7.667091292
 20
30.5304064831
 30
0.0
 10
7.667091292
 20
30.4449315727
 30
0.0
 10
7.6910042929
 20
30.2652075884
 30
0.0
 10
7.7802512476
 20
30.0013227782
 30
0.0
 10
7.9177806939
 20
29.7471202408
 30
0.0
 10
8.0925310137
 20
29.5234417
 30
0.0
 10
8.2902257487
 20
29.3483542169
 30
0.0
 10
8.4691669504
 20
29.2505090946
 30
0.0
 10
8.6091435773
 20
29.2132763837
 30
0.0
 10
8.7054820101
 20
29.2061825539
 30
0.0
 10
8.7951890253
 20
29.219329856
 30
0.0
 10
8.8495396692
 20
29.2419133169
 30
0.0
 10
8.8741882409
 20
29.2561571496
 30
0.0
  0
SPLINE
  5
2FC
100
AcDbEntity
  8
0
100
AcDbSpline
 62
7
  6
BYLAYER
 70
0
 71
3
 72
15
 73
11
 74
0
 42
0.0000001
 43
0.0000001
 44
0.0000000001
 40
0.0
 40
0.0
 40
0.0
 40
0.0
 40
0.1510449707
 40
0.2962681929
 40
0.434049833
 40
0.5634358609
 40
0.6839721056
 40
0.7959868385
 40
0.9006556433
 40
1.0
 40
1.0
 40
1.0
 40
1.0
 10
12.6767830654
 20
30.5825226446
 30
0.0
 10
12.8618025757
 20
30.3589904223
 30
0.0
 10
13.2441141412
 20
29.9361036684
 30
0.0
 10
13.8601221234
 20
29.3721761698
 30
0.0
 10
14.4982482927
 20
28.8999518219
 30
0.0
 10
15.1464556371
 20
28.5291340673
 30
0.0
 10
15.7935089359
 20
28.2679185834
 30
0.0
 10
16.428414992
 20
28.1233964153
 30
0.0
 10
17.0391283353
 20
28.1020636362
 30
0.0
 10
17.4284796674
 20
28.1751114222
 30
0.0
 10
17.6102733236
 20
28.2332013379
 30
0.0
  0
SPLINE
  5
2FD
100
AcDbEntity
  8
0
100
AcDbSpline
 62
7
  6
BYLAYER
 70
0
 71
3
 72
16
 73
12
 74
0
 42
0.0000001
 43
0.0000001
 44
0.0000000001
 40
0.0
 40
0.0
 40
0.0
 40
0.0
 40
0.0481918768
 40
0.0975241603
 40
0.2008635907
 40
0.3124785413
 40
0.4334948299
 40
0.5639522566
 40
0.7029815356
 40
0.8490169106
 40
1.0
 40
1.0
 40
1.0
 40
1.0
 10
11.3564285411
 20
39.0652429021
 30
0.0
 10
11.2790280281
 20
38.9948655314
 30
0.0
 10
11.1318985426
 20
38.841631964
 30
0.0
 10
10.8716582702
 20
38.4905900001
 30
0.0
 10
10.6168552406
 20
37.970703231
 30
0.0
 10
10.4329283399
 20
37.2609715677
 30
0.0
 10
10.3646004766
 20
36.4726381312
 30
0.0
 10
10.4107194659
 20
35.623839324
 30
0.0
 10
10.5685631403
 20
34.7337654035
 30
0.0
 10
10.8335690696
 20
33.8234001114
 30
0.0
 10
11.0745679924
 20
33.2241144978
 30
0.0
 10
11.2108628929
 20
32.9260510149
 30
0.0
  0
SPLINE
  5
2FE
100
AcDbEntity
  8
0
100
AcDbSpline
 62
7
  6
BYLAYER
 70
0
 71
3
 72
14
 73
10
 74
0
 42
0.0000001
 43
0.0000001
 44
0.0000000001
 40
0.0
 40
0.0
 40
0.0
 40
0.0
 40
0.1138530963
 40
0.2288902514
 40
0.3463150949
 40
0.4671863757
 40
0.5923854495
 40
0.7226476095
 40
1.0
 40
1.0
 40
1.0
 40
1.0
 10
21.1635734597
 20
28.2684368505
 30
0.0
 10
21.0494894864
 20
28.202570831
 30
0.0
 10
20.8103919972
 20
28.0862960493
 30
0.0
 10
20.4280243863
 20
27.9625218881
 30
0.0
 10
20.0245162935
 20
27.8898093609
 30
0.0
 10
19.6034746374
 20
27.8679512394
 30
0.0
 10
19.1680280925
 20
27.8966235617
 30
0.0
 10
18.5599018484
 20
28.0030622346
 30
0.0
 10
18.1094380149
 20
28.1538918898
 30
0.0
 10
17.8139397165
 20
28.2790423752
 30
0.0
  0
SPLINE
  5
2FF
100
AcDbEntity
  8
0
100
AcDbSpline
 62
7
  6
BYLAYER
 70
0
 71
3
 72
13
 73
9
 74
0
 42
0.0000001
 43
0.0000001
 44
0.0000000001
 40
0.0
 40
0.0
 40
0.0
 40
0.0
 40
0.2763063828
 40
0.5311959788
 40
0.6522687614
 40
0.7700582193
 40
0.8855884414
 40
1.0
 40
1.0
 40
1.0
 40
1.0
 10
11.513465155
 20
39.3348993872
 30
0.0
 10
11.5572791267
 20
39.6405838282
 30
0.0
 10
11.6869888963
 20
40.2233573407
 30
0.0
 10
11.9817198715
 20
40.8966644425
 30
0.0
 10
12.2885821693
 20
41.3567712892
 30
0.0
 10
12.5479557922
 20
41.6575744338
 30
0.0
 10
12.8389011894
 20
41.9168847604
 30
0.0
 10
13.0528705799
 20
42.0609293551
 30
0.0
 10
13.1636092747
 20
42.1248639888
 30
0.0
  0
SPLINE
  5
300
100
AcDbEntity
  8
0
100
AcDbSpline
 62
7
  6
BYLAYER
 70
0
 71
3
 72
17
 73
13
 74
0
 42
0.0000001
 43
0.0000001
 44
0.0000000001
 40
0.0
 40
0.0
 40
0.0
 40
0.0
 40
0.0474258447
 40
0.0955740814
 40
0.1449793774
 40
0.1961105929
 40
0.3048299803
 40
0.4238582685
 40
0.5537869295
 40
0.6941029483
 40
0.8434937646
 40
1.0
 40
1.0
 40
1.0
 40
1.0
 10
15.7865795444
 20
43.6375041237
 30
0.0
 10
15.8944004928
 20
43.6950792566
 30
0.0
 10
16.1199866794
 20
43.7962430596
 30
0.0
 10
16.4794322083
 20
43.9020318794
 30
0.0
 10
16.8589530045
 20
43.9621029012
 30
0.0
 10
17.3990730531
 20
43.9810890488
 30
0.0
 10
18.1168074727
 20
43.8820990904
 30
0.0
 10
18.9942852642
 20
43.5860382834
 30
0.0
 10
19.8865659144
 20
43.1197972698
 30
0.0
 10
20.7728637298
 20
42.4952474683
 30
0.0
 10
21.6322496413
 20
41.7277731247
 30
0.0
 10
22.1640234023
 20
41.1436768266
 30
0.0
 10
22.4212168678
 20
40.8329472887
 30
0.0
  0
SPLINE
  5
301
100
AcDbEntity
  8
0
100
AcDbSpline
 62
7
  6
BYLAYER
 70
0
 71
3
 72
9
 73
5
 74
0
 42
0.0000001
 43
0.0000001
 44
0.0000000001
 40
0.0
 40
0.0
 40
0.0
 40
0.0
 40
0.2698562496
 40
1.0
 40
1.0
 40
1.0
 40
1.0
 10
18.0543160663
 20
34.3312532411
 30
0.0
 10
18.0543160663
 20
34.2904570867
 30
0.0
 10
18.0485470257
 20
34.139506561
 30
0.0
 10
18.0178939014
 20
33.9882366215
 30
0.0
 10
17.9763260446
 20
33.8859814358
 30
0.0
  0
SPLINE
  5
302
100
AcDbEntity
  8
0
100
AcDbSpline
 62
7
  6
BYLAYER
 70
0
 71
3
 72
12
 73
8
 74
0
 42
0.0000001
 43
0.0000001
 44
0.0000000001
 40
0.0
 40
0.0
 40
0.0
 40
0.0
 40
0.1086336193
 40
0.21871074
 40
0.4506372515
 40
0.7094342096
 40
1.0
 40
1.0
 40
1.0
 40
1.0
 10
16.2552942958
 20
33.0509201409
 30
0.0
 10
16.2802048261
 20
33.0632533722
 30
0.0
 10
16.3282346384
 20
33.0926607159
 30
0.0
 10
16.4148508489
 20
33.169558903
 30
0.0
 10
16.5011972302
 20
33.3001639399
 30
0.0
 10
16.5610502756
 20
33.4928912309
 30
0.0
 10
16.572830969
 20
33.6340086561
 30
0.0
 10
16.572830969
 20
33.7083567265
 30
0.0
  0
SPLINE
  5
303
100
AcDbEntity
  8
0
100
AcDbSpline
 62
7
  6
BYLAYER
 70
0
 71
3
 72
9
 73
5
 74
0
 42
0.0000001
 43
0.0000001
 44
0.0000000001
 40
0.0
 40
0.0
 40
0.0
 40
0.0
 40
0.2618447095
 40
1.0
 40
1.0
 40
1.0
 40
1.0
 10
15.7082147071
 20
36.0552060819
 30
0.0
 10
15.7141555357
 20
36.0764530595
 30
0.0
 10
15.7394797365
 20
36.1568022325
 30
0.0
 10
15.7759451972
 20
36.2339008239
 30
0.0
 10
15.8096887045
 20
36.2861448725
 30
0.0
  0
SPLINE
  5
304
100
AcDbEntity
  8
0
100
AcDbSpline
 62
7
  6
BYLAYER
 70
0
 71
3
 72
22
 73
18
 74
0
 42
0.0000001
 43
0.0000001
 44
0.0000000001
 40
0.0
 40
0.0
 40
0.0
 40
0.0
 40
0.0458375764
 40
0.0899332629
 40
0.1346562558
 40
0.1821764152
 40
0.2340533681
 40
0.2910922257
 40
0.3534013257
 40
0.4205678908
 40
0.4917863854
 40
0.5659672171
 40
0.7179075874
 40
0.7930917449
 40
0.8659132892
 40
0.9352455072
 40
1.0
 40
1.0
 40
1.0
 40
1.0
 10
15.8096887045
 20
36.2861448725
 30
0.0
 10
15.8399994487
 20
36.3330740779
 30
0.0
 10
15.9110424795
 20
36.4185373489
 30
0.0
 10
16.0489240778
 20
36.5116273561
 30
0.0
 10
16.2096857496
 20
36.5617837384
 30
0.0
 10
16.3870079621
 20
36.5680286877
 30
0.0
 10
16.5755291148
 20
36.531681746
 30
0.0
 10
16.7705075849
 20
36.4545658524
 30
0.0
 10
16.967242876
 20
36.3391814846
 30
0.0
 10
17.1608036799
 20
36.1886535808
 30
0.0
 10
17.3461844299
 20
36.006910095
 30
0.0
 10
17.5776452429
 20
35.727458759
 30
0.0
 10
17.7697962281
 20
35.4113385418
 30
0.0
 10
17.9137329234
 20
35.074840019
 30
0.0
 10
17.9931805499
 20
34.8215971752
 30
0.0
 10
18.0421975059
 20
34.5737230571
 30
0.0
 10
18.0543160663
 20
34.4101758643
 30
0.0
 10
18.0543160663
 20
34.3312532411
 30
0.0
  0
SPLINE
  5
305
100
AcDbEntity
  8
0
100
AcDbSpline
 62
7
  6
BYLAYER
 70
0
 71
3
 72
19
 73
15
 74
0
 42
0.0000001
 43
0.0000001
 44
0.0000000001
 40
0.0
 40
0.0
 40
0.0
 40
0.0
 40
0.1600549911
 40
0.3117057492
 40
0.4525966376
 40
0.581318706
 40
0.6410876702
 40
0.6979059358
 40
0.752030946
 40
0.8038532516
 40
0.8538915257
 40
0.9027798317
 40
0.9512331276
 40
1.0
 40
1.0
 40
1.0
 40
1.0
 10
17.0130792778
 20
37.1588956589
 30
0.0
 10
16.7879217065
 20
37.4309208751
 30
0.0
 10
16.3212302657
 20
37.9382543495
 30
0.0
 10
15.5627556789
 20
38.5915171538
 30
0.0
 10
14.7825689593
 20
39.101994436
 30
0.0
 10
14.116564071
 20
39.4027542249
 30
0.0
 10
13.5954343762
 20
39.5518950537
 30
0.0
 10
13.2236764494
 20
39.6169916521
 30
0.0
 10
12.864263732
 20
39.6374139847
 30
0.0
 10
12.5199755836
 20
39.6127881989
 30
0.0
 10
12.1936014986
 20
39.5431019188
 30
0.0
 10
11.8879203485
 20
39.428658675
 30
0.0
 10
11.6056678881
 20
39.2704552721
 30
0.0
 10
11.4360462669
 20
39.1376061391
 30
0.0
 10
11.3564378572
 20
39.0652291674
 30
0.0
  0
SPLINE
  5
306
100
AcDbEntity
  8
0
100
AcDbSpline
 62
7
  6
BYLAYER
 70
0
 71
3
 72
9
 73
5
 74
0
 42
0.0000001
 43
0.0000001
 44
0.0000000001
 40
0.0
 40
0.0
 40
0.0
 40
0.0
 40
0.4974505697
 40
1.0
 40
1.0
 40
1.0
 40
1.0
 10
55.8540852965
 20
60.2026114772
 30
0.0
 10
56.1603845833
 20
59.8205152715
 30
0.0
 10
56.7379481103
 20
59.0211431498
 30
0.0
 10
57.2367999935
 20
58.1705309462
 30
0.0
 10
57.4664693339
 20
57.7323412732
 30
0.0
  0
SPLINE
  5
307
100
AcDbEntity
  8
0
100
AcDbSpline
 62
7
  6
BYLAYER
 70
0
 71
3
 72
17
 73
13
 74
0
 42
0.0000001
 43
0.0000001
 44
0.0000000001
 40
0.0
 40
0.0
 40
0.0
 40
0.0
 40
0.0475142442
 40
0.095631986
 40
0.1449219258
 40
0.1958806288
 40
0.3042051757
 40
0.4229317671
 40
0.5527627217
 40
0.6932115144
 40
0.8429738958
 40
1.0
 40
1.0
 40
1.0
 40
1.0
 10
13.6471943091
 20
40.9606668608
 30
0.0
 10
13.7377007369
 20
41.0129087196
 30
0.0
 10
13.9274811114
 20
41.1054284904
 30
0.0
 10
14.2313503816
 20
41.2046824771
 30
0.0
 10
14.5531651586
 20
41.2640832664
 30
0.0
 10
15.0121582216
 20
41.2905669516
 30
0.0
 10
15.6243896046
 20
41.2166735831
 30
0.0
 10
16.3745664562
 20
40.9731077896
 30
0.0
 10
17.1385395451
 20
40.581084713
 30
0.0
 10
17.8981073305
 20
40.050996782
 30
0.0
 10
18.634751931
 20
39.3962396054
 30
0.0
 10
19.09025465
 20
38.8966327075
 30
0.0
 10
19.3104642103
 20
38.6305854548
 30
0.0
  0
SPLINE
  5
308
100
AcDbEntity
  8
0
100
AcDbSpline
 62
7
  6
BYLAYER
 70
0
 71
3
 72
15
 73
11
 74
0
 42
0.0000001
 43
0.0000001
 44
0.0000000001
 40
0.0
 40
0.0
 40
0.0
 40
0.0
 40
0.0981217028
 40
0.2032722692
 40
0.3165373538
 40
0.4383064781
 40
0.5683827959
 40
0.7060776277
 40
0.8504154293
 40
1.0
 40
1.0
 40
1.0
 40
1.0
 10
16.8939193704
 20
43.9438219437
 30
0.0
 10
17.1081486179
 20
43.9681266576
 30
0.0
 10
17.5579690629
 20
43.9724736995
 30
0.0
 10
18.2466463957
 20
43.8562471231
 30
0.0
 10
18.9588226264
 20
43.6210359135
 30
0.0
 10
19.6830349203
 20
43.2713391447
 30
0.0
 10
20.4079578065
 20
42.8131941497
 30
0.0
 10
21.1221284425
 20
42.2542295358
 30
0.0
 10
21.8137609433
 20
41.6036392698
 30
0.0
 10
22.2462240929
 20
41.1228570668
 30
0.0
 10
22.4563840088
 20
40.8701407936
 30
0.0
  0
SPLINE
  5
309
100
AcDbEntity
  8
0
100
AcDbSpline
 62
7
  6
BYLAYER
 70
0
 71
3
 72
17
 73
13
 74
0
 42
0.0000001
 43
0.0000001
 44
0.0000000001
 40
0.0
 40
0.0
 40
0.0
 40
0.0
 40
0.1570274606
 40
0.3067858387
 40
0.4472364023
 40
0.577067081
 40
0.6957938793
 40
0.8041185875
 40
0.8550779632
 40
0.9043677096
 40
0.952485714
 40
1.0
 40
1.0
 40
1.0
 40
1.0
 10
18.9569122917
 20
38.4264633778
 30
0.0
 10
18.7367005094
 20
38.6925133151
 30
0.0
 10
18.2812046825
 20
39.1921202825
 30
0.0
 10
17.54455695
 20
39.8468726108
 30
0.0
 10
16.7849984345
 20
40.3769670305
 30
0.0
 10
16.0210193377
 20
40.7689884352
 30
0.0
 10
15.2708411556
 20
41.0125595408
 30
0.0
 10
14.6586073819
 20
41.0864401979
 30
0.0
 10
14.1996105747
 20
41.0599799643
 30
0.0
 10
13.877795255
 20
41.0005656087
 30
0.0
 10
13.5739268352
 20
40.9013127476
 30
0.0
 10
13.3841375142
 20
40.8088067419
 30
0.0
 10
13.2936340919
 20
40.756559189
 30
0.0
  0
SPLINE
  5
30A
100
AcDbEntity
  8
0
100
AcDbSpline
 62
7
  6
BYLAYER
 70
0
 71
3
 72
17
 73
13
 74
0
 42
0.0000001
 43
0.0000001
 44
0.0000000001
 40
0.0
 40
0.0
 40
0.0
 40
0.0
 40
0.0475139319
 40
0.0956326083
 40
0.1449214477
 40
0.1958816447
 40
0.3042056883
 40
0.4229325209
 40
0.552761847
 40
0.6932169504
 40
0.8429670381
 40
1.0
 40
1.0
 40
1.0
 40
1.0
 10
17.8305029511
 20
44.8192609407
 30
0.0
 10
17.9377603147
 20
44.8811925761
 30
0.0
 10
18.1626745573
 20
44.9908847119
 30
0.0
 10
18.5228446196
 20
45.1084198327
 30
0.0
 10
18.904237674
 20
45.1789292502
 30
0.0
 10
19.4482420041
 20
45.2102036817
 30
0.0
 10
20.1738496654
 20
45.1227009024
 30
0.0
 10
21.0629470903
 20
44.8340077554
 30
0.0
 10
21.9684186745
 20
44.3694042144
 30
0.0
 10
22.8686116383
 20
43.7411288514
 30
0.0
 10
23.7416932042
 20
42.9651398853
 30
0.0
 10
24.2815273386
 20
42.3730094288
 30
0.0
 10
24.5425283794
 20
42.0576797504
 30
0.0
  0
SPLINE
  5
30B
100
AcDbEntity
  8
0
100
AcDbSpline
 62
7
  6
BYLAYER
 70
0
 71
3
 72
27
 73
23
 74
0
 42
0.0000001
 43
0.0000001
 44
0.0000000001
 40
0.0
 40
0.0
 40
0.0
 40
0.0
 40
0.0569267575
 40
0.1090702035
 40
0.1336848942
 40
0.157544314
 40
0.1808774487
 40
0.2039401074
 40
0.2270047034
 40
0.2503429364
 40
0.274211268
 40
0.2988367312
 40
0.3510091051
 40
0.4079702586
 40
0.4701096274
 40
0.5372930384
 40
0.6089842842
 40
0.684347962
 40
0.7623430833
 40
0.841783717
 40
0.921430259
 40
1.0
 40
1.0
 40
1.0
 40
1.0
 10
17.9408885925
 20
28.3048545882
 30
0.0
 10
18.2088147613
 20
28.2024237297
 30
0.0
 10
18.7384479458
 20
28.0446989074
 30
0.0
 10
19.4141244179
 20
27.9779937898
 30
0.0
 10
19.9207969852
 20
28.0157310132
 30
0.0
 10
20.2766272585
 20
28.0863726686
 30
0.0
 10
20.6131513201
 20
28.1994274725
 30
0.0
 10
20.9281220278
 20
28.354430995
 30
0.0
 10
21.2194980923
 20
28.5502588629
 30
0.0
 10
21.4853359574
 20
28.7856680296
 30
0.0
 10
21.7240057311
 20
29.0590428369
 30
0.0
 10
22.0095439001
 20
29.4795643055
 30
0.0
 10
22.2888858768
 20
30.0989600531
 30
0.0
 10
22.4891427626
 20
30.9426081626
 30
0.0
 10
22.5593784036
 20
31.8819754028
 30
0.0
 10
22.4989204162
 20
32.8956210184
 30
0.0
 10
22.3097313354
 20
33.9605905515
 30
0.0
 10
21.996371816
 20
35.0523334608
 30
0.0
 10
21.5661768684
 20
36.1454121018
 30
0.0
 10
21.0292597429
 20
37.2143533009
 30
0.0
 10
20.3982381977
 20
38.2338463707
 30
0.0
 10
19.9188511287
 20
38.8724793599
 30
0.0
 10
19.6664209942
 20
39.1774540561
 30
0.0
  0
SPLINE
  5
30C
100
AcDbEntity
  8
0
100
AcDbSpline
 62
7
  6
BYLAYER
 70
0
 71
3
 72
17
 73
13
 74
0
 42
0.0000001
 43
0.0000001
 44
0.0000000001
 40
0.0
 40
0.0
 40
0.0
 40
0.0
 40
0.042857965
 40
0.0874854797
 40
0.1353180708
 40
0.1872814984
 40
0.3045423159
 40
0.4382097446
 40
0.5825520305
 40
0.7297107839
 40
0.8713099826
 40
1.0
 40
1.0
 40
1.0
 40
1.0
 10
14.9452505978
 20
35.0706184908
 30
0.0
 10
14.9698973677
 20
35.0848614303
 30
0.0
 10
15.0242459152
 20
35.1074384955
 30
0.0
 10
15.1139466893
 20
35.1205948147
 30
0.0
 10
15.21028133
 20
35.1134959995
 30
0.0
 10
15.3502563498
 20
35.0762759149
 30
0.0
 10
15.5291930633
 20
34.9784329194
 30
0.0
 10
15.726888657
 20
34.8033548449
 30
0.0
 10
15.9016436009
 20
34.5796768671
 30
0.0
 10
16.039182858
 20
34.3254675072
 30
0.0
 10
16.1284344992
 20
34.0615724997
 30
0.0
 10
16.1523491145
 20
33.8818422438
 30
0.0
 10
16.1523491145
 20
33.7963665127
 30
0.0
  0
SPLINE
  5
30D
100
AcDbEntity
  8
0
100
AcDbSpline
 62
7
  6
BYLAYER
 70
0
 71
3
 72
20
 73
16
 74
0
 42
0.0000001
 43
0.0000001
 44
0.0000000001
 40
0.0
 40
0.0
 40
0.0
 40
0.0
 40
0.1486270196
 40
0.2984715258
 40
0.4442414763
 40
0.5140933838
 40
0.5811820724
 40
0.645076627
 40
0.7054698679
 40
0.7622018329
 40
0.8152938363
 40
0.8649929298
 40
0.9117957531
 40
0.9564657467
 40
1.0
 40
1.0
 40
1.0
 40
1.0
 10
19.3104642103
 20
38.6305854548
 30
0.0
 10
19.6394461342
 20
38.2331243413
 30
0.0
 10
20.2439556361
 20
37.3868891222
 30
0.0
 10
20.9688880502
 20
36.0211471271
 30
0.0
 10
21.4096471495
 20
34.8263990746
 30
0.0
 10
21.6437249994
 20
33.8724346033
 30
0.0
 10
21.7552645097
 20
33.1833808141
 30
0.0
 10
21.8036596491
 20
32.5198574188
 30
0.0
 10
21.7882615795
 20
31.8905351984
 30
0.0
 10
21.7090839786
 20
31.3036093304
 30
0.0
 10
21.5667575885
 20
30.7667333291
 30
0.0
 10
21.3627473494
 20
30.2869950321
 30
0.0
 10
21.0988817658
 20
29.8710768282
 30
0.0
 10
20.7782791703
 20
29.5255234296
 30
0.0
 10
20.5280327038
 20
29.3448886569
 30
0.0
 10
20.3971503827
 20
29.2693302393
 30
0.0
  0
SPLINE
  5
30E
100
AcDbEntity
  8
0
100
AcDbSpline
 62
7
  6
BYLAYER
 70
0
 71
3
 72
11
 73
7
 74
0
 42
0.0000001
 43
0.0000001
 44
0.0000000001
 40
0.0
 40
0.0
 40
0.0
 40
0.0
 40
0.2177660095
 40
0.4508968553
 40
0.7103699668
 40
1.0
 40
1.0
 40
1.0
 40
1.0
 10
8.8741882409
 20
29.2561571496
 30
0.0
 10
8.9071645306
 20
29.2752133757
 30
0.0
 10
8.9689143684
 20
29.3270474901
 30
0.0
 10
9.0346101004
 20
29.4345116996
 30
0.0
 10
9.0736108143
 20
29.5669092056
 30
0.0
 10
9.0813107423
 20
29.6632698177
 30
0.0
 10
9.0813107423
 20
29.713924974
 30
0.0
  0
SPLINE
  5
30F
100
AcDbEntity
  8
0
100
AcDbSpline
 62
7
  6
BYLAYER
 70
0
 71
3
 72
17
 73
13
 74
0
 42
0.0000001
 43
0.0000001
 44
0.0000000001
 40
0.0
 40
0.0
 40
0.0
 40
0.0
 40
0.1570329619
 40
0.3067830496
 40
0.447238153
 40
0.5770674791
 40
0.6957943117
 40
0.8041183553
 40
0.8550785523
 40
0.9043673917
 40
0.9524860681
 40
1.0
 40
1.0
 40
1.0
 40
1.0
 10
25.5886386775
 20
42.9867511436
 30
0.0
 10
25.2950125066
 20
43.3414970319
 30
0.0
 10
24.6876991053
 20
44.0076437955
 30
0.0
 10
23.7054823437
 20
44.8806313823
 30
0.0
 10
22.6927652594
 20
45.5874411657
 30
0.0
 10
21.6741097273
 20
46.1101201493
 30
0.0
 10
20.6738751242
 20
46.4348999397
 30
0.0
 10
19.8575665052
 20
46.5333405664
 30
0.0
 10
19.2455616339
 20
46.4981568309
 30
0.0
 10
18.8164944476
 20
46.4188337363
 30
0.0
 10
18.4113031276
 20
46.2866067253
 30
0.0
 10
18.1582746047
 20
46.1632030726
 30
0.0
 10
18.0376100707
 20
46.0935299827
 30
0.0
  0
SPLINE
  5
310
100
AcDbEntity
  8
0
100
AcDbSpline
 62
7
  6
BYLAYER
 70
0
 71
3
 72
9
 73
5
 74
0
 42
0.0000001
 43
0.0000001
 44
0.0000000001
 40
0.0
 40
0.0
 40
0.0
 40
0.0
 40
0.2698564128
 40
1.0
 40
1.0
 40
1.0
 40
1.0
 10
17.7790685587
 20
34.3354138349
 30
0.0
 10
17.7790685587
 20
34.2994395786
 30
0.0
 10
17.7739816529
 20
34.1663307041
 30
0.0
 10
17.7469513232
 20
34.0329402181
 30
0.0
 10
17.7102966061
 20
33.9427711503
 30
0.0
  0
SPLINE
  5
311
100
AcDbEntity
  8
0
100
AcDbSpline
 62
7
  6
BYLAYER
 70
0
 71
3
 72
9
 73
5
 74
0
 42
0.0000001
 43
0.0000001
 44
0.0000000001
 40
0.0
 40
0.0
 40
0.0
 40
0.0
 40
0.2372406965
 40
1.0
 40
1.0
 40
1.0
 40
1.0
 10
16.572830969
 20
33.7083567265
 30
0.0
 10
16.572830969
 20
33.7407237057
 30
0.0
 10
16.5678253102
 20
33.8771444271
 30
0.0
 10
16.5442950371
 20
34.0125825838
 30
0.0
 10
16.5186226098
 20
34.1134301984
 30
0.0
  0
SPLINE
  5
312
100
AcDbEntity
  8
0
100
AcDbSpline
 62
7
  6
BYLAYER
 70
0
 71
3
 72
18
 73
14
 74
0
 42
0.0000001
 43
0.0000001
 44
0.0000000001
 40
0.0
 40
0.0
 40
0.0
 40
0.0
 40
0.1439031642
 40
0.2927597343
 40
0.4400148377
 40
0.5794292902
 40
0.7058534894
 40
0.7632923464
 40
0.8166845506
 40
0.8662934885
 40
0.9126943067
 40
0.9568469788
 40
1.0
 40
1.0
 40
1.0
 40
1.0
 10
16.5186226098
 20
34.1134301984
 30
0.0
 10
16.4899587611
 20
34.2260288528
 30
0.0
 10
16.4116218055
 20
34.4503144219
 30
0.0
 10
16.2452297841
 20
34.7655470918
 30
0.0
 10
16.0366174463
 20
35.0503419322
 30
0.0
 10
15.7991655272
 20
35.2865689915
 30
0.0
 10
15.5822640739
 20
35.4355154039
 30
0.0
 10
15.4072214992
 20
35.5144976422
 30
0.0
 10
15.2826014055
 20
35.5514962247
 30
0.0
 10
15.1624832053
 20
35.5676132457
 30
0.0
 10
15.0487331683
 20
35.5620888955
 30
0.0
 10
14.9434361592
 20
35.534909514
 30
0.0
 10
14.8801526033
 20
35.5022911429
 30
0.0
 10
14.8511629918
 20
35.4829624058
 30
0.0
  0
SPLINE
  5
313
100
AcDbEntity
  8
0
100
AcDbSpline
 62
7
  6
BYLAYER
 70
0
 71
3
 72
21
 73
17
 74
0
 42
0.0000001
 43
0.0000001
 44
0.0000000001
 40
0.0
 40
0.0
 40
0.0
 40
0.0
 40
0.15198891
 40
0.30835081
 40
0.4587067328
 40
0.528773121
 40
0.5941648103
 40
0.6543877708
 40
0.6825463523
 40
0.7094435647
 40
0.7597586101
 40
0.8066350383
 40
0.8519718735
 40
0.898013981
 40
0.9468393435
 40
1.0
 40
1.0
 40
1.0
 40
1.0
 10
16.2510803754
 20
34.060012924
 30
0.0
 10
16.2204755538
 20
34.1802361977
 30
0.0
 10
16.1319863555
 20
34.4179027096
 30
0.0
 10
15.9393080076
 20
34.7409663133
 30
0.0
 10
15.7349238084
 20
34.9738153904
 30
0.0
 10
15.554166809
 20
35.122039601
 30
0.0
 10
15.4188366067
 20
35.2076941421
 30
0.0
 10
15.303860463
 20
35.2594344218
 30
0.0
 10
15.2136256747
 20
35.2865535455
 30
0.0
 10
15.1292231063
 20
35.3035641128
 30
0.0
 10
15.0271668021
 20
35.3085213686
 30
0.0
 10
14.9117470029
 20
35.2857129896
 30
0.0
 10
14.8098348735
 20
35.2338705809
 30
0.0
 10
14.7251158366
 20
35.1548445853
 30
0.0
 10
14.6601049935
 20
35.0516774283
 30
0.0
 10
14.6318797011
 20
34.9726801357
 30
0.0
 10
14.6208992324
 20
34.9307012464
 30
0.0
  0
SPLINE
  5
314
100
AcDbEntity
  8
0
100
AcDbSpline
 62
7
  6
BYLAYER
 70
0
 71
3
 72
9
 73
5
 74
0
 42
0.0000001
 43
0.0000001
 44
0.0000000001
 40
0.0
 40
0.0
 40
0.0
 40
0.0
 40
0.2372407711
 40
1.0
 40
1.0
 40
1.0
 40
1.0
 10
16.2975834494
 20
33.7125175792
 30
0.0
 10
16.2975834494
 20
33.7402838457
 30
0.0
 10
16.2932891473
 20
33.8573133869
 30
0.0
 10
16.2731036592
 20
33.9735000436
 30
0.0
 10
16.2510803754
 20
34.060012924
 30
0.0
  0
SPLINE
  5
315
100
AcDbEntity
  8
0
100
AcDbSpline
 62
7
  6
BYLAYER
 70
0
 71
3
 72
10
 73
6
 74
0
 42
0.0000001
 43
0.0000001
 44
0.0000000001
 40
0.0
 40
0.0
 40
0.0
 40
0.0
 40
0.527133373
 40
0.7678446626
 40
1.0
 40
1.0
 40
1.0
 40
1.0
 10
15.6560802779
 20
33.1292817444
 30
0.0
 10
15.7213356459
 20
33.1108578112
 30
0.0
 10
15.8216835212
 20
33.0965460877
 30
0.0
 10
15.9494868163
 20
33.1166341247
 30
0.0
 10
16.0067724807
 20
33.1387870832
 30
0.0
 10
16.0332297068
 20
33.1526360703
 30
0.0
  0
SPLINE
  5
316
100
AcDbEntity
  8
0
100
AcDbSpline
 62
7
  6
BYLAYER
 70
0
 71
3
 72
11
 73
7
 74
0
 42
0.0000001
 43
0.0000001
 44
0.0000000001
 40
0.0
 40
0.0
 40
0.0
 40
0.0
 40
0.2179124239
 40
0.4503803908
 40
0.7095727193
 40
1.0
 40
1.0
 40
1.0
 40
1.0
 10
16.0332297068
 20
33.1526360703
 30
0.0
 10
16.0749973839
 20
33.1744992852
 30
0.0
 10
16.153717078
 20
33.2358222961
 30
0.0
 10
16.2378939565
 20
33.3669673163
 30
0.0
 10
16.2877896235
 20
33.5303465131
 30
0.0
 10
16.2975834494
 20
33.6496856906
 30
0.0
 10
16.2975834494
 20
33.7125175792
 30
0.0
  0
SPLINE
  5
317
100
AcDbEntity
  8
0
100
AcDbSpline
 62
7
  6
BYLAYER
 70
0
 71
3
 72
11
 73
7
 74
0
 42
0.0000001
 43
0.0000001
 44
0.0000000001
 40
0.0
 40
0.0
 40
0.0
 40
0.0
 40
0.2896413964
 40
0.5491107671
 40
0.7822355978
 40
1.0
 40
1.0
 40
1.0
 40
1.0
 10
16.1523491145
 20
33.7963665127
 30
0.0
 10
16.1523491145
 20
33.7457092968
 30
0.0
 10
16.1446491989
 20
33.6493472817
 30
0.0
 10
16.1056478243
 20
33.51694897
 30
0.0
 10
16.0399501539
 20
33.4094889119
 30
0.0
 10
15.9782041884
 20
33.3576523047
 30
0.0
 10
15.9452281809
 20
33.3385960437
 30
0.0
  0
SPLINE
  5
318
100
AcDbEntity
  8
0
100
AcDbSpline
 62
7
  6
BYLAYER
 70
0
 71
3
 72
17
 73
13
 74
0
 42
0.0000001
 43
0.0000001
 44
0.0000000001
 40
0.0
 40
0.0
 40
0.0
 40
0.0
 40
0.1570329619
 40
0.3067830496
 40
0.447238153
 40
0.5770674791
 40
0.6957943117
 40
0.8041183553
 40
0.8550785523
 40
0.9043673917
 40
0.9524860681
 40
1.0
 40
1.0
 40
1.0
 40
1.0
 10
19.8756430538
 20
39.3632683348
 30
0.0
 10
19.614642013
 20
39.6785980133
 30
0.0
 10
19.0748078786
 20
40.2707284698
 30
0.0
 10
18.2017263127
 20
41.0467174359
 30
0.0
 10
17.3015333489
 20
41.6749927989
 30
0.0
 10
16.3960617647
 20
42.1395963398
 30
0.0
 10
15.5069643398
 20
42.4282894868
 30
0.0
 10
14.7813566785
 20
42.5157922662
 30
0.0
 10
14.2373523484
 20
42.4845178346
 30
0.0
 10
13.8559592939
 20
42.4140084172
 30
0.0
 10
13.4957892317
 20
42.2964732963
 30
0.0
 10
13.2708749891
 20
42.1867811605
 30
0.0
 10
13.1636176255
 20
42.1248495251
 30
0.0
  0
SPLINE
  5
319
100
AcDbEntity
  8
0
100
AcDbSpline
 62
7
  6
BYLAYER
 70
0
 71
3
 72
17
 73
13
 74
0
 42
0.0000001
 43
0.0000001
 44
0.0000000001
 40
0.0
 40
0.0
 40
0.0
 40
0.0
 40
0.128688864
 40
0.2702797703
 40
0.4174318348
 40
0.5617733576
 40
0.6954455149
 40
0.8127096012
 40
0.8646749146
 40
0.9125085807
 40
0.9571389861
 40
1.0
 40
1.0
 40
1.0
 40
1.0
 10
9.0813107423
 20
29.713924974
 30
0.0
 10
9.0813107423
 20
29.7993998844
 30
0.0
 10
9.0573977415
 20
29.9791238687
 30
0.0
 10
8.9681507867
 20
30.2430086789
 30
0.0
 10
8.8306213405
 20
30.4972112163
 30
0.0
 10
8.6558710206
 20
30.7208897571
 30
0.0
 10
8.4581762857
 20
30.8959772402
 30
0.0
 10
8.279235084
 20
30.9938223625
 30
0.0
 10
8.1392584571
 20
31.0310550734
 30
0.0
 10
8.0429200242
 20
31.0381489032
 30
0.0
 10
7.9532130091
 20
31.025001601
 30
0.0
 10
7.8988623651
 20
31.0024181402
 30
0.0
 10
7.8742137935
 20
30.9881743075
 30
0.0
  0
SPLINE
  5
31A
100
AcDbEntity
  8
0
100
AcDbSpline
 62
7
  6
BYLAYER
 70
0
 71
3
 72
9
 73
5
 74
0
 42
0.0000001
 43
0.0000001
 44
0.0000000001
 40
0.0
 40
0.0
 40
0.0
 40
0.0
 40
0.5033607359
 40
1.0
 40
1.0
 40
1.0
 40
1.0
 10
18.1154399062
 20
35.5410745196
 30
0.0
 10
17.9556874548
 20
35.8284794488
 30
0.0
 10
17.6124201199
 20
36.385434772
 30
0.0
 10
17.2199428496
 20
36.9089724271
 30
0.0
 10
17.0130792778
 20
37.1588956589
 30
0.0
  0
SPLINE
  5
31B
100
AcDbEntity
  8
0
100
AcDbSpline
 62
7
  6
BYLAYER
 70
0
 71
3
 72
20
 73
16
 74
0
 42
0.0000001
 43
0.0000001
 44
0.0000000001
 40
0.0
 40
0.0
 40
0.0
 40
0.0
 40
0.0463502603
 40
0.0925015543
 40
0.13944238
 40
0.1880797382
 40
0.2391612418
 40
0.2932385098
 40
0.3506537376
 40
0.4115673717
 40
0.4759668116
 40
0.5437098702
 40
0.68799181
 40
0.8414261952
 40
1.0
 40
1.0
 40
1.0
 40
1.0
 10
17.610270811
 20
28.2332065236
 30
0.0
 10
17.7312812073
 20
28.2718853564
 30
0.0
 10
17.9666412639
 20
28.3703816606
 30
0.0
 10
18.2883404642
 20
28.5804543998
 30
0.0
 10
18.5719355084
 20
28.8488789473
 30
0.0
 10
18.8140181017
 20
29.1720030035
 30
0.0
 10
19.0123443996
 20
29.5456975382
 30
0.0
 10
19.1650313572
 20
29.9656736888
 30
0.0
 10
19.2709834746
 20
30.4272759841
 30
0.0
 10
19.3291532792
 20
30.9256135424
 30
0.0
 10
19.3392703561
 20
31.4554262539
 30
0.0
 10
19.2873341067
 20
32.2120922673
 30
0.0
 10
19.0979547209
 20
33.1998562833
 30
0.0
 10
18.6981106463
 20
34.3881232794
 30
0.0
 10
18.3266014548
 20
35.1611813197
 30
0.0
 10
18.1154399062
 20
35.5410745196
 30
0.0
  0
SPLINE
  5
31C
100
AcDbEntity
  8
0
100
AcDbSpline
 62
7
  6
BYLAYER
 70
0
 71
3
 72
9
 73
5
 74
0
 42
0.0000001
 43
0.0000001
 44
0.0000000001
 40
0.0
 40
0.0
 40
0.0
 40
0.0
 40
0.5169019747
 40
1.0
 40
1.0
 40
1.0
 40
1.0
 10
13.6184180664
 20
29.6589686811
 30
0.0
 10
13.8268813822
 20
29.4726617473
 30
0.0
 10
14.249102269
 20
29.1326643168
 30
0.0
 10
14.7093046308
 20
28.8451417346
 30
0.0
 10
14.9402770904
 20
28.7229557376
 30
0.0
  0
SPLINE
  5
31D
100
AcDbEntity
  8
0
100
AcDbSpline
 62
7
  6
BYLAYER
 70
0
 71
3
 72
25
 73
21
 74
0
 42
0.0000001
 43
0.0000001
 44
0.0000000001
 40
0.0
 40
0.0
 40
0.0
 40
0.0
 40
0.0619540526
 40
0.0911446648
 40
0.1191912011
 40
0.1721419588
 40
0.2218900381
 40
0.2699418358
 40
0.3180977473
 40
0.3681389164
 40
0.4215248087
 40
0.4498244078
 40
0.4792820759
 40
0.5417890619
 40
0.6091393566
 40
0.6810348096
 40
0.7569089246
 40
0.8359782713
 40
0.9173679734
 40
1.0
 40
1.0
 40
1.0
 40
1.0
 10
15.1718582409
 20
28.6076742333
 30
0.0
 10
15.3640054056
 20
28.5180402974
 30
0.0
 10
15.6558398935
 20
28.403871651
 30
0.0
 10
16.05107179
 20
28.3013648195
 30
0.0
 10
16.4231255289
 20
28.2377608143
 30
0.0
 10
16.8733806566
 20
28.2221441953
 30
0.0
 10
17.3854305883
 20
28.3141500402
 30
0.0
 10
17.8471662165
 20
28.5173230843
 30
0.0
 10
18.2463671709
 20
28.8273083695
 30
0.0
 10
18.5736147344
 20
29.2352859301
 30
0.0
 10
18.7778671019
 20
29.6405324039
 30
0.0
 10
18.9028509923
 20
30.0001308803
 30
0.0
 10
19.0054526773
 20
30.3991684513
 30
0.0
 10
19.0789597836
 20
30.9414633076
 30
0.0
 10
19.0821250194
 20
31.6335095781
 30
0.0
 10
19.002218637
 20
32.3667839569
 30
0.0
 10
18.8408667356
 20
33.1273368207
 30
0.0
 10
18.6012576179
 20
33.9009402593
 30
0.0
 10
18.2879102661
 20
34.6725918254
 30
0.0
 10
18.0347485149
 20
35.1744014475
 30
0.0
 10
17.8973581698
 20
35.4215755101
 30
0.0
  0
SPLINE
  5
31E
100
AcDbEntity
  8
0
100
AcDbSpline
 62
7
  6
BYLAYER
 70
0
 71
3
 72
11
 73
7
 74
0
 42
0.0000001
 43
0.0000001
 44
0.0000000001
 40
0.0
 40
0.0
 40
0.0
 40
0.0
 40
0.2304259801
 40
0.4759658876
 40
0.7336645806
 40
1.0
 40
1.0
 40
1.0
 40
1.0
 10
10.4417729785
 20
36.2880925375
 30
0.0
 10
10.4423879832
 20
36.022425552
 30
0.0
 10
10.4812788264
 20
35.4733697652
 30
0.0
 10
10.6373500327
 20
34.6404689917
 30
0.0
 10
10.8895008651
 20
33.7883187772
 30
0.0
 10
11.1152188423
 20
33.2268097922
 30
0.0
 10
11.2423380548
 20
32.9472884345
 30
0.0
  0
SPLINE
  5
31F
100
AcDbEntity
  8
0
100
AcDbSpline
 62
7
  6
BYLAYER
 70
0
 71
3
 72
23
 73
19
 74
0
 42
0.0000001
 43
0.0000001
 44
0.0000000001
 40
0.0
 40
0.0
 40
0.0
 40
0.0
 40
0.043522869
 40
0.0881819439
 40
0.1349725221
 40
0.1846577541
 40
0.2377369698
 40
0.2944529631
 40
0.3548293335
 40
0.4187073167
 40
0.4857766035
 40
0.5556107188
 40
0.6276921029
 40
0.7014350642
 40
0.7762012598
 40
0.8513257104
 40
0.9261684616
 40
1.0
 40
1.0
 40
1.0
 40
1.0
 10
27.0375509893
 20
30.5050819953
 30
0.0
 10
27.2120529078
 20
30.6058414101
 30
0.0
 10
27.5457748913
 20
30.8466106945
 30
0.0
 10
27.9731978147
 20
31.3074144229
 30
0.0
 10
28.3250085959
 20
31.8619684078
 30
0.0
 10
28.5970860805
 20
32.5016003144
 30
0.0
 10
28.7867812732
 20
33.2174545371
 30
0.0
 10
28.8923769535
 20
34.0000118985
 30
0.0
 10
28.9129363933
 20
34.8391019092
 30
0.0
 10
28.848354795
 20
35.7237930818
 30
0.0
 10
28.6996730726
 20
36.6425012764
 30
0.0
 10
28.4689129311
 20
37.5831302407
 30
0.0
 10
28.1590974784
 20
38.5332254371
 30
0.0
 10
27.7743909189
 20
39.4801733923
 30
0.0
 10
27.3199562223
 20
40.4113671411
 30
0.0
 10
26.8017394027
 20
41.3145139667
 30
0.0
 10
26.2267062008
 20
42.1773396743
 30
0.0
 10
25.8065952036
 20
42.7234259052
 30
0.0
 10
25.5886386775
 20
42.9867511436
 30
0.0
  0
SPLINE
  5
320
100
AcDbEntity
  8
0
100
AcDbSpline
 62
7
  6
BYLAYER
 70
0
 71
3
 72
23
 73
19
 74
0
 42
0.0000001
 43
0.0000001
 44
0.0000000001
 40
0.0
 40
0.0
 40
0.0
 40
0.0
 40
0.0832713096
 40
0.1640180052
 40
0.241522484
 40
0.3153125244
 40
0.385025563
 40
0.4504565982
 40
0.5116351272
 40
0.5688560773
 40
0.6227133511
 40
0.6741244265
 40
0.7242806022
 40
0.7745320717
 40
0.8262181977
 40
0.8804982427
 40
0.938234459
 40
1.0
 40
1.0
 40
1.0
 40
1.0
 10
16.8294447307
 20
36.9888420581
 30
0.0
 10
16.6828629716
 20
37.1659355242
 30
0.0
 10
16.3816697196
 20
37.5046774625
 30
0.0
 10
15.9020096743
 20
37.9687595885
 30
0.0
 10
15.4064944466
 20
38.3759658614
 30
0.0
 10
14.901987566
 20
38.7206533323
 30
0.0
 10
14.3952022273
 20
38.9982818554
 30
0.0
 10
13.8927588665
 20
39.2048642967
 30
0.0
 10
13.4012657904
 20
39.3374046289
 30
0.0
 10
12.9271330752
 20
39.3937023371
 30
0.0
 10
12.4767448332
 20
39.3720850034
 30
0.0
 10
12.0567172789
 20
39.2720263222
 30
0.0
 10
11.6739240167
 20
39.094237074
 30
0.0
 10
11.3350409418
 20
38.8414122127
 30
0.0
 10
11.0454764497
 20
38.5182375448
 30
0.0
 10
10.8092160496
 20
38.1303073051
 30
0.0
 10
10.628747753
 20
37.6838491545
 30
0.0
 10
10.5495814725
 20
37.3624071814
 30
0.0
 10
10.5188302993
 20
37.1946864597
 30
0.0
  0
SPLINE
  5
321
100
AcDbEntity
  8
0
100
AcDbSpline
 62
7
  6
BYLAYER
 70
0
 71
3
 72
9
 73
5
 74
0
 42
0.0000001
 43
0.0000001
 44
0.0000000001
 40
0.0
 40
0.0
 40
0.0
 40
0.0
 40
0.2406410392
 40
1.0
 40
1.0
 40
1.0
 40
1.0
 10
10.5188302993
 20
37.1946864597
 30
0.0
 10
10.505849638
 20
37.1238883191
 30
0.0
 10
10.4594364551
 20
36.8283182206
 30
0.0
 10
10.4417575895
 20
36.5285103643
 30
0.0
 10
10.4417575895
 20
36.3013780351
 30
0.0
  0
LINE
  5
322
100
AcDbEntity
  8
0
100
AcDbLine
 62
7
  6
BYLAYER
 10
22.4919272515
 20
40.8737717041
 11
22.4771867167
 21
40.8915476337
  0
SPLINE
  5
323
100
AcDbEntity
  8
0
100
AcDbSpline
 62
7
  6
BYLAYER
 70
0
 71
3
 72
17
 73
13
 74
0
 42
0.0000001
 43
0.0000001
 44
0.0000000001
 40
0.0
 40
0.0
 40
0.0
 40
0.0
 40
0.1569729739
 40
0.3066527296
 40
0.4470557728
 40
0.5768642601
 40
0.6956129456
 40
0.8039967769
 40
0.8549935113
 40
0.904318265
 40
0.9524671255
 40
1.0
 40
1.0
 40
1.0
 40
1.0
 10
22.4771867167
 20
40.8915476337
 30
0.0
 10
22.2168129696
 20
41.204957519
 30
0.0
 10
21.6785049727
 20
41.793444765
 30
0.0
 10
20.8083720283
 20
42.5646199187
 30
0.0
 10
19.9115939092
 20
43.1890370655
 30
0.0
 10
19.0097404603
 20
43.6509695217
 30
0.0
 10
18.1242153582
 20
43.9383320814
 30
0.0
 10
17.4014670156
 20
44.0259662966
 30
0.0
 10
16.8593741543
 20
43.9956284306
 30
0.0
 10
16.4791839571
 20
43.9261847735
 30
0.0
 10
16.1200037854
 20
43.8100814409
 30
0.0
 10
15.8955524606
 20
43.7015721586
 30
0.0
 10
15.7884762922
 20
43.6402723571
 30
0.0
  0
SPLINE
  5
324
100
AcDbEntity
  8
0
100
AcDbSpline
 62
7
  6
BYLAYER
 70
0
 71
3
 72
9
 73
5
 74
0
 42
0.0000001
 43
0.0000001
 44
0.0000000001
 40
0.0
 40
0.0
 40
0.0
 40
0.0
 40
0.5033607104
 40
1.0
 40
1.0
 40
1.0
 40
1.0
 10
17.8973581698
 20
35.4215755101
 30
0.0
 10
17.7425977638
 20
35.6999994288
 30
0.0
 10
17.4100564943
 20
36.2395503294
 30
0.0
 10
17.0298441195
 20
36.7467285605
 30
0.0
 10
16.8294447307
 20
36.9888420581
 30
0.0
  0
SPLINE
  5
325
100
AcDbEntity
  8
0
100
AcDbSpline
 62
7
  6
BYLAYER
 70
0
 71
3
 72
17
 73
13
 74
0
 42
0.0000001
 43
0.0000001
 44
0.0000000001
 40
0.0
 40
0.0
 40
0.0
 40
0.0
 40
0.136801202
 40
0.2753676469
 40
0.4128469112
 40
0.5464506018
 40
0.6736518899
 40
0.7342109919
 40
0.7924436629
 40
0.8481993862
 40
0.901394428
 40
1.0
 40
1.0
 40
1.0
 40
1.0
 10
22.4749769285
 20
40.8477303422
 30
0.0
 10
22.7685676331
 20
40.4930273025
 30
0.0
 10
23.3212501188
 20
39.7465255319
 30
0.0
 10
24.031556162
 20
38.5496489419
 30
0.0
 10
24.6129410671
 20
37.2966755604
 30
0.0
 10
25.0475690353
 20
36.0259037804
 30
0.0
 10
25.2804315338
 20
34.9666260155
 30
0.0
 10
25.3787131997
 20
34.1439575548
 30
0.0
 10
25.4080162962
 20
33.5567097522
 30
0.0
 10
25.3937241895
 20
32.9934954884
 30
0.0
 10
25.3188212475
 20
32.2985948163
 30
0.0
 10
25.1965334881
 20
31.7978777446
 30
0.0
 10
25.081076079
 20
31.4867215616
 30
0.0
  0
SPLINE
  5
326
100
AcDbEntity
  8
0
100
AcDbSpline
 62
7
  6
BYLAYER
 70
0
 71
3
 72
20
 73
16
 74
0
 42
0.0000001
 43
0.0000001
 44
0.0000000001
 40
0.0
 40
0.0
 40
0.0
 40
0.0
 40
0.0435345262
 40
0.0882047632
 40
0.1350077917
 40
0.1847069576
 40
0.2377988579
 40
0.2945304704
 40
0.3549231553
 40
0.4188169367
 40
0.4859047283
 40
0.5557568282
 40
0.7015284593
 40
0.8513725962
 40
1.0
 40
1.0
 40
1.0
 40
1.0
 10
20.0436032704
 20
29.0651998348
 30
0.0
 10
20.174486617
 20
29.1407586856
 30
0.0
 10
20.4247345771
 20
29.3213950219
 30
0.0
 10
20.7453394768
 20
29.6669504392
 30
0.0
 10
21.0092047603
 20
30.0828716613
 30
0.0
 10
21.2132147333
 20
30.562611257
 30
0.0
 10
21.3555398028
 20
31.0994868594
 30
0.0
 10
21.4347159683
 20
31.6864099565
 30
0.0
 10
21.4501134735
 20
32.3157270031
 30
0.0
 10
21.4017184089
 20
32.9792432646
 30
0.0
 10
21.2901821379
 20
33.6682931428
 30
0.0
 10
21.0561008072
 20
34.6222613217
 30
0.0
 10
20.6153433647
 20
35.8170168913
 30
0.0
 10
19.8904052612
 20
37.1827645885
 30
0.0
 10
19.2858954084
 20
38.0290008233
 30
0.0
 10
18.9569122917
 20
38.4264633778
 30
0.0
  0
SPLINE
  5
327
100
AcDbEntity
  8
0
100
AcDbSpline
 62
7
  6
BYLAYER
 70
0
 71
3
 72
21
 73
17
 74
0
 42
0.0000001
 43
0.0000001
 44
0.0000000001
 40
0.0
 40
0.0
 40
0.0
 40
0.0
 40
0.0435303245
 40
0.0881970494
 40
0.1349956428
 40
0.1846893858
 40
0.237777694
 40
0.2945034027
 40
0.3548901155
 40
0.418779041
 40
0.4858598167
 40
0.5557058945
 40
0.6277996261
 40
0.7015552195
 40
0.8513868856
 40
1.0
 40
1.0
 40
1.0
 40
1.0
 10
21.1635651088
 20
28.2684513141
 30
0.0
 10
21.3186779252
 20
28.3580152384
 30
0.0
 10
21.6153196884
 20
28.5720323801
 30
0.0
 10
21.9952511758
 20
28.9816356941
 30
0.0
 10
22.3079718702
 20
29.47457257
 30
0.0
 10
22.5498185232
 20
30.0431342632
 30
0.0
 10
22.7184364724
 20
30.6794491339
 30
0.0
 10
22.8122992987
 20
31.3750556523
 30
0.0
 10
22.8305743587
 20
32.1209135421
 30
0.0
 10
22.7731684837
 20
32.9073052798
 30
0.0
 10
22.6410069921
 20
33.7239364534
 30
0.0
 10
22.4358867105
 20
34.5600444858
 30
0.0
 10
22.1604958058
 20
35.4045993547
 30
0.0
 10
21.702203905
 20
36.5325351234
 30
0.0
 10
20.9819021478
 20
37.8894075424
 30
0.0
 10
20.2655474974
 20
38.8922033825
 30
0.0
 10
19.8756430538
 20
39.3632683348
 30
0.0
  0
SPLINE
  5
328
100
AcDbEntity
  8
0
100
AcDbSpline
 62
7
  6
BYLAYER
 70
0
 71
3
 72
19
 73
15
 74
0
 42
0.0000001
 43
0.0000001
 44
0.0000000001
 40
0.0
 40
0.0
 40
0.0
 40
0.0
 40
0.0428797446
 40
0.087163441
 40
0.1344367214
 40
0.1857704943
 40
0.2417003543
 40
0.3022667142
 40
0.4355184108
 40
0.5801084531
 40
0.7279715129
 40
0.8704070574
 40
0.9372628815
 40
1.0
 40
1.0
 40
1.0
 40
1.0
 10
15.9532981693
 20
36.2173321694
 30
0.0
 10
15.9890071357
 20
36.2411262912
 30
0.0
 10
16.0683496014
 20
36.2800814762
 30
0.0
 10
16.2014489473
 20
36.3070994273
 30
0.0
 10
16.3454748261
 20
36.302738951
 30
0.0
 10
16.4969943028
 20
36.2679551921
 30
0.0
 10
16.6529260884
 20
36.2038551332
 30
0.0
 10
16.8692687809
 20
36.0774461395
 30
0.0
 10
17.1280328857
 20
35.8545571895
 30
0.0
 10
17.3946670683
 20
35.5196700257
 30
0.0
 10
17.6052443925
 20
35.1365216238
 30
0.0
 10
17.722018712
 20
34.7962913997
 30
0.0
 10
17.7703770527
 20
34.5279723082
 30
0.0
 10
17.7790685587
 20
34.398195602
 30
0.0
 10
17.7790685587
 20
34.3354138349
 30
0.0
  0
SPLINE
  5
329
100
AcDbEntity
  8
0
100
AcDbSpline
 62
7
  6
BYLAYER
 70
0
 71
3
 72
21
 73
17
 74
0
 42
0.0000001
 43
0.0000001
 44
0.0000000001
 40
0.0
 40
0.0
 40
0.0
 40
0.0
 40
0.0435304431
 40
0.0881971248
 40
0.134995529
 40
0.1846890017
 40
0.2377769435
 40
0.2945022714
 40
0.3548886442
 40
0.418777344
 40
0.485858177
 40
0.5557039789
 40
0.6277964797
 40
0.7015516254
 40
0.8513847846
 40
1.0
 40
1.0
 40
1.0
 40
1.0
 10
23.7798447694
 20
29.778962495
 30
0.0
 10
23.9349576072
 20
29.8685270551
 30
0.0
 10
24.2315994956
 20
30.0825440201
 30
0.0
 10
24.6115293124
 20
30.4921475668
 30
0.0
 10
24.9242497599
 20
30.985081472
 30
0.0
 10
25.166094621
 20
31.5536397014
 30
0.0
 10
25.3347128418
 20
32.1899494912
 30
0.0
 10
25.4285765267
 20
32.8855508051
 30
0.0
 10
25.4468531794
 20
33.6314040756
 30
0.0
 10
25.3894505242
 20
34.4177933011
 30
0.0
 10
25.2572902255
 20
35.2344221398
 30
0.0
 10
25.0521741553
 20
36.0705242128
 30
0.0
 10
24.7767902963
 20
36.9150721916
 30
0.0
 10
24.3184990484
 20
38.0430062733
 30
0.0
 10
23.5981994706
 20
39.3998929448
 30
0.0
 10
22.8818368769
 20
40.4027004914
 30
0.0
 10
22.4919272515
 20
40.8737717041
 30
0.0
  0
SPLINE
  5
32A
100
AcDbEntity
  8
0
100
AcDbSpline
 62
7
  6
BYLAYER
 70
0
 71
3
 72
21
 73
17
 74
0
 42
0.0000001
 43
0.0000001
 44
0.0000000001
 40
0.0
 40
0.0
 40
0.0
 40
0.0
 40
0.1486131144
 40
0.2984447805
 40
0.3722003739
 40
0.4442941055
 40
0.5141401833
 40
0.581220959
 40
0.6451098845
 40
0.7054965973
 40
0.762222306
 40
0.8153106142
 40
0.8650043572
 40
0.9118029506
 40
0.9564696755
 40
1.0
 40
1.0
 40
1.0
 40
1.0
 10
24.5425283794
 20
42.0576797504
 30
0.0
 10
24.932432823
 20
41.586614798
 30
0.0
 10
25.6487874734
 20
40.583818958
 30
0.0
 10
26.3690892306
 20
39.226946539
 30
0.0
 10
26.8273811315
 20
38.0990107703
 30
0.0
 10
27.1027720361
 20
37.2544559013
 30
0.0
 10
27.3078923177
 20
36.4183478689
 30
0.0
 10
27.4400538093
 20
35.6017166953
 30
0.0
 10
27.4974596844
 20
34.8153249577
 30
0.0
 10
27.4791846243
 20
34.0694670679
 30
0.0
 10
27.385321798
 20
33.3738605495
 30
0.0
 10
27.2167038488
 20
32.7375456787
 30
0.0
 10
26.9748571959
 20
32.1689839855
 30
0.0
 10
26.6621365014
 20
31.6760471096
 30
0.0
 10
26.282205014
 20
31.2664437956
 30
0.0
 10
25.9855632509
 20
31.0524266539
 30
0.0
 10
25.8304504344
 20
30.9628627297
 30
0.0
  0
SPLINE
  5
32B
100
AcDbEntity
  8
0
100
AcDbSpline
 62
7
  6
BYLAYER
 70
0
 71
3
 72
11
 73
7
 74
0
 42
0.0000001
 43
0.0000001
 44
0.0000000001
 40
0.0
 40
0.0
 40
0.0
 40
0.0
 40
0.2660509123
 40
0.5145281404
 40
0.755111439
 40
1.0
 40
1.0
 40
1.0
 40
1.0
 10
17.9763260446
 20
33.8859814358
 30
0.0
 10
17.9547220889
 20
33.8328366103
 30
0.0
 10
17.9024774182
 20
33.7337315901
 30
0.0
 10
17.7926926535
 20
33.6110108873
 30
0.0
 10
17.6572693768
 20
33.5252259495
 30
0.0
 10
17.5553520157
 20
33.4955156611
 30
0.0
 10
17.503220165
 20
33.4871114203
 30
0.0
  0
SPLINE
  5
32C
100
AcDbEntity
  8
0
100
AcDbSpline
 62
7
  6
BYLAYER
 70
0
 71
3
 72
9
 73
5
 74
0
 42
0.0000001
 43
0.0000001
 44
0.0000000001
 40
0.0
 40
0.0
 40
0.0
 40
0.0
 40
0.245129066
 40
1.0
 40
1.0
 40
1.0
 40
1.0
 10
17.503220165
 20
33.4871114203
 30
0.0
 10
17.4930544139
 20
33.4854725868
 30
0.0
 10
17.4514268979
 20
33.4797792581
 30
0.0
 10
17.409281861
 20
33.4780257453
 30
0.0
 10
17.3775798132
 20
33.4787109429
 30
0.0
  0
SPLINE
  5
32D
100
AcDbEntity
  8
0
100
AcDbSpline
 62
7
  6
BYLAYER
 70
0
 71
3
 72
9
 73
5
 74
0
 42
0.0000001
 43
0.0000001
 44
0.0000000001
 40
0.0
 40
0.0
 40
0.0
 40
0.0
 40
0.2435840423
 40
1.0
 40
1.0
 40
1.0
 40
1.0
 10
17.3775798132
 20
33.4787109429
 30
0.0
 10
17.365953682
 20
33.4789622263
 30
0.0
 10
17.3182509471
 20
33.4810984718
 30
0.0
 10
17.270769944
 20
33.4875316739
 30
0.0
 10
17.2353235862
 20
33.4944319579
 30
0.0
  0
ELLIPSE
  5
32E
100
AcDbEntity
  8
0
100
AcDbEllipse
 62
7
  6
BYLAYER
 10
49.5590287428
 20
53.4322430532
 30
0.0
 11
-6.697911533
 21
9.0224519243
 31
0.0
 40
0.237653632
 41
-3.621220487
 42
-3.5761173952
  0
ELLIPSE
  5
32F
100
AcDbEntity
  8
0
100
AcDbEllipse
 62
7
  6
BYLAYER
 10
49.7977200059
 20
53.1102758112
 30
0.0
 11
-7.771919411
 21
8.4178689616
 31
0.0
 40
0.2080881539
 41
-3.776150951
 42
-3.7310478592
  0
ELLIPSE
  5
330
100
AcDbEntity
  8
0
100
AcDbEllipse
 62
7
  6
BYLAYER
 10
50.0551866461
 20
52.8150197117
 30
0.0
 11
8.7768884855
 21
-7.8725830182
 31
0.0
 40
0.1645667058
 41
-0.7761845743
 42
-0.7310814825
  0
ELLIPSE
  5
331
100
AcDbEntity
  8
0
100
AcDbEllipse
 62
7
  6
BYLAYER
 10
50.3270233379
 20
52.5515266684
 30
0.0
 11
9.7084977198
 21
-7.3902123918
 31
0.0
 40
0.1126524607
 41
-0.9033914073
 42
-0.8582883155
  0
ELLIPSE
  5
332
100
AcDbEntity
  8
0
100
AcDbEllipse
 62
7
  6
BYLAYER
 10
50.60857888
 20
52.3243051204
 30
0.0
 11
10.5718375853
 21
-6.960304009
 31
0.0
 40
0.0568047358
 41
-1.0174361609
 42
-0.9723330691
  0
ELLIPSE
  5
333
100
AcDbEntity
  8
0
100
AcDbEllipse
 62
7
  6
BYLAYER
 10
42.7119951964
 20
52.4340382597
 30
0.0
 11
16.5193159623
 21
2.2787596211
 31
0.0
 40
0.6026731265
 41
1.241942007
 42
1.282314114
  0
ELLIPSE
  5
334
100
AcDbEntity
  8
0
100
AcDbEllipse
 62
7
  6
BYLAYER
 10
42.6342610663
 20
52.9301706044
 30
0.0
 11
16.6864275756
 21
1.0715200677
 31
0.0
 40
0.5717395885
 41
1.2247899469
 42
1.2675199254
  0
ELLIPSE
  5
335
100
AcDbEntity
  8
0
100
AcDbEllipse
 62
7
  6
BYLAYER
 10
42.6082010583
 20
53.4043250384
 30
0.0
 11
16.7382408644
 21
0.0000566019
 31
0.0
 40
0.5377539929
 41
1.1982675425
 42
1.2432434606
  0
ELLIPSE
  5
336
100
AcDbEntity
  8
0
100
AcDbEllipse
 62
7
  6
BYLAYER
 10
42.6342610663
 20
53.8483886478
 30
0.0
 11
16.6908877101
 21
-0.9487317066
 31
0.0
 40
0.5015815387
 41
1.1657997255
 42
1.2107756436
  0
ELLIPSE
  5
337
100
AcDbEntity
  8
0
100
AcDbEllipse
 62
7
  6
BYLAYER
 10
42.7119951964
 20
54.2547633812
 30
0.0
 11
16.5555197785
 21
-1.7893382479
 31
0.0
 40
0.4637735253
 41
1.1263386505
 42
1.1713145686
  0
ELLIPSE
  5
338
100
AcDbEntity
  8
0
100
AcDbEllipse
 62
7
  6
BYLAYER
 10
42.840073396
 20
54.6164960543
 30
0.0
 11
16.3397602127
 21
-2.5350802267
 31
0.0
 40
0.4246314928
 41
1.080862291
 42
1.1258382091
  0
ELLIPSE
  5
339
100
AcDbEntity
  8
0
100
AcDbEllipse
 62
7
  6
BYLAYER
 10
43.0163042117
 20
54.9273973206
 30
0.0
 11
16.0490376495
 21
-3.1974474626
 31
0.0
 40
0.3842666715
 41
1.0301020743
 42
1.0750779924
  0
ELLIPSE
  5
33A
100
AcDbEntity
  8
0
100
AcDbEllipse
 62
7
  6
BYLAYER
 10
43.2376722853
 20
55.1821475734
 30
0.0
 11
15.6875399451
 21
-3.7863161236
 31
0.0
 40
0.3426475445
 41
0.9745550181
 42
1.0195309362
  0
ELLIPSE
  5
33B
100
AcDbEntity
  8
0
100
AcDbEllipse
 62
7
  6
BYLAYER
 10
43.5003899477
 20
55.3763879652
 30
0.0
 11
15.2588119763
 21
-4.3104779181
 31
0.0
 40
0.2996367937
 41
0.9145032477
 42
0.9594791658
  0
ELLIPSE
  5
33C
100
AcDbEntity
  8
0
100
AcDbEllipse
 62
7
  6
BYLAYER
 10
43.7999620269
 20
55.5067949889
 30
0.0
 11
14.7660832651
 21
-4.7782447927
 31
0.0
 40
0.2550219721
 41
0.8500268312
 42
0.8950027493
  0
ELLIPSE
  5
33D
100
AcDbEntity
  8
0
100
AcDbEllipse
 62
7
  6
BYLAYER
 10
44.1312627615
 20
55.5711373444
 30
0.0
 11
14.2123980506
 21
-5.198047032
 31
0.0
 40
0.2085456475
 41
0.7810034854
 42
0.8259794035
  0
ELLIPSE
  5
33E
100
AcDbEntity
  8
0
100
AcDbEllipse
 62
7
  6
BYLAYER
 10
44.4886235042
 20
55.568314116
 30
0.0
 11
13.6005907232
 21
-5.5790156486
 31
0.0
 40
0.1599424749
 41
0.707091337
 42
0.7520672551
  0
ELLIPSE
  5
33F
100
AcDbEntity
  8
0
100
AcDbEllipse
 62
7
  6
BYLAYER
 10
44.8659297134
 20
55.49837361
 30
0.0
 11
12.9331195969
 21
-5.9315691201
 31
0.0
 40
0.1089938613
 41
0.6276915302
 42
0.6726674484
  0
ELLIPSE
  5
340
100
AcDbEntity
  8
0
100
AcDbEllipse
 62
7
  6
BYLAYER
 10
45.2567255755
 20
55.3625125279
 30
0.0
 11
12.21174523
 21
-6.2680235371
 31
0.0
 40
0.0556166323
 41
0.5418884945
 42
0.5868644126
  0
ELLIPSE
  5
341
100
AcDbEntity
  8
0
100
AcDbEllipse
 62
7
  6
BYLAYER
 10
46.051923354
 20
47.928856783
 30
0.0
 11
7.5237871239
 21
14.9291080089
 31
0.0
 40
0.5015766464
 41
-1.2107708716
 42
-1.1657949534
  0
ELLIPSE
  5
342
100
AcDbEntity
  8
0
100
AcDbEllipse
 62
7
  6
BYLAYER
 10
46.4427192161
 20
47.7929957008
 30
0.0
 11
6.7281241514
 21
15.2321670699
 31
0.0
 40
0.4637684418
 41
-1.1713089434
 42
-1.1263330252
  0
ELLIPSE
  5
343
100
AcDbEntity
  8
0
100
AcDbEllipse
 62
7
  6
BYLAYER
 10
46.8200254254
 20
47.7230551948
 30
0.0
 11
5.9744188766
 21
15.4181739787
 31
0.0
 40
0.4246262441
 41
-1.1258318434
 42
-1.0808559253
  0
ELLIPSE
  5
344
100
AcDbEntity
  8
0
100
AcDbEllipse
 62
7
  6
BYLAYER
 10
47.177386168
 20
47.7202319664
 30
0.0
 11
5.2554352934
 21
15.4975747121
 31
0.0
 40
0.384261262
 41
-1.0750709669
 42
-1.0300950488
  0
ELLIPSE
  5
345
100
AcDbEntity
  8
0
100
AcDbEllipse
 62
7
  6
BYLAYER
 10
47.5086869026
 20
47.7845743219
 30
0.0
 11
4.5647144603
 21
15.4789339848
 31
0.0
 40
0.3426419623
 41
-1.019523302
 42
-0.9745473839
  0
ELLIPSE
  5
346
100
AcDbEntity
  8
0
100
AcDbEllipse
 62
7
  6
BYLAYER
 10
47.8082589818
 20
47.9149813457
 30
0.0
 11
3.8964150721
 21
15.3697175322
 31
0.0
 40
0.2996310152
 41
-0.9594709466
 42
-0.9144950285
  0
ELLIPSE
  5
347
100
AcDbEntity
  8
0
100
AcDbEllipse
 62
7
  6
BYLAYER
 10
48.0709766442
 20
48.1092217375
 30
0.0
 11
3.2449535743
 21
15.1768781678
 31
0.0
 40
0.2550159655
 41
-0.8949939425
 42
-0.8500180243
  0
ELLIPSE
  5
348
100
AcDbEntity
  8
0
100
AcDbEllipse
 62
7
  6
BYLAYER
 10
48.2923447178
 20
48.3639719902
 30
0.0
 11
2.6045512229
 21
14.9072674593
 31
0.0
 40
0.2085393773
 41
-0.825969979
 42
-0.7809940609
  0
ELLIPSE
  5
349
100
AcDbEntity
  8
0
100
AcDbEllipse
 62
7
  6
BYLAYER
 10
48.4685755335
 20
48.6748732566
 30
0.0
 11
1.9687174295
 21
14.5679056351
 31
0.0
 40
0.1599359076
 41
-0.7520571518
 42
-0.7070812337
  0
ELLIPSE
  5
34A
100
AcDbEntity
  8
0
100
AcDbEllipse
 62
7
  6
BYLAYER
 10
48.5966537332
 20
49.0366059296
 30
0.0
 11
1.3296585074
 21
14.1661309836
 31
0.0
 40
0.1089869747
 41
-0.672656568
 42
-0.6276806499
  0
ELLIPSE
  5
34B
100
AcDbEntity
  8
0
100
AcDbEllipse
 62
7
  6
BYLAYER
 10
48.6743878632
 20
49.442980663
 30
0.0
 11
0.6775884151
 21
13.7096263296
 31
0.0
 40
0.0556094299
 41
-0.58685261
 42
-0.5418766919
  0
ELLIPSE
  5
34C
100
AcDbEntity
  8
0
100
AcDbEllipse
 62
7
  6
BYLAYER
 10
48.7191796098
 20
55.5968224856
 30
0.0
 11
-0.7419176185
 21
12.6355676962
 31
0.0
 40
0.0568122221
 41
0.9723187931
 42
1.0174218849
  0
ELLIPSE
  5
34D
100
AcDbEntity
  8
0
100
AcDbEllipse
 62
7
  6
BYLAYER
 10
48.7751844893
 20
55.2393754785
 30
0.0
 11
-1.5459112751
 21
12.1028473128
 31
0.0
 40
0.1126596549
 41
0.8582724333
 42
0.9033755251
  0
ELLIPSE
  5
34E
100
AcDbEntity
  8
0
100
AcDbEllipse
 62
7
  6
BYLAYER
 10
48.867460612
 20
54.8722101284
 30
0.0
 11
-2.4294755358
 21
11.5372356716
 31
0.0
 40
0.1645731193
 41
0.7310637474
 42
0.7761668392
  0
ELLIPSE
  5
34F
100
AcDbEntity
  8
0
100
AcDbEllipse
 62
7
  6
BYLAYER
 10
48.994429108
 20
54.501608736
 30
0.0
 11
-3.4042068376
 21
10.9395507359
 31
0.0
 40
0.2080931049
 41
0.5894355681
 42
0.6262250063
  0
ELLIPSE
  5
350
100
AcDbEntity
  8
0
100
AcDbEllipse
 62
7
  6
BYLAYER
 10
49.1539175111
 20
54.133912394
 30
0.0
 11
-4.4648080884
 21
10.3117260248
 31
0.0
 40
0.2376563695
 41
0.4345035838
 42
0.4553625155
  0
ELLIPSE
  5
351
100
AcDbEntity
  8
0
100
AcDbEllipse
 62
7
  6
BYLAYER
 10
44.4886235042
 20
49.0690602709
 30
0.0
 11
11.2490381238
 21
12.2291827176
 31
0.0
 40
0.6293304387
 41
-1.2865712493
 42
-1.2476111437
  0
ELLIPSE
  5
352
100
AcDbEntity
  8
0
100
AcDbEllipse
 62
7
  6
BYLAYER
 10
45.6543244648
 20
48.1283138206
 30
0.0
 11
8.3691291807
 21
14.4957367517
 31
0.0
 40
0.5377493467
 41
-1.2432396868
 42
-1.1982637687
  0
ELLIPSE
  5
353
100
AcDbEntity
  8
0
100
AcDbEllipse
 62
7
  6
BYLAYER
 10
45.2567255755
 20
48.3879540483
 30
0.0
 11
9.2711262905
 21
13.9151494528
 31
0.0
 40
0.5717352805
 41
-1.2675173186
 42
-1.2247870382
  0
ELLIPSE
  5
354
100
AcDbEntity
  8
0
100
AcDbEllipse
 62
7
  6
BYLAYER
 10
44.8659297134
 20
48.70333495
 30
0.0
 11
10.2330589334
 21
13.1668254015
 31
0.0
 40
0.6026692941
 41
-1.2823128393
 42
-1.2419403487
  0
ELLIPSE
  5
355
100
AcDbEntity
  8
0
100
AcDbEllipse
 62
7
  6
BYLAYER
 10
50.3270233379
 20
57.4471281303
 30
0.0
 11
6.6306715163
 21
14.8897619847
 31
0.0
 40
0.479536451
 41
-1.8113149985
 42
-1.7662119067
  0
ELLIPSE
  5
356
100
AcDbEntity
  8
0
100
AcDbEllipse
 62
7
  6
BYLAYER
 10
50.0551866461
 20
57.4975179604
 30
0.0
 11
5.9141983598
 21
15.0712064093
 31
0.0
 40
0.4387975103
 41
-1.7638760346
 42
-1.7187729428
  0
ELLIPSE
  5
357
100
AcDbEntity
  8
0
100
AcDbEllipse
 62
7
  6
BYLAYER
 10
49.7977200059
 20
57.4995520034
 30
0.0
 11
5.2280102737
 21
15.1544817399
 31
0.0
 40
0.3966858117
 41
-1.7112369927
 42
-1.6661339009
  0
ELLIPSE
  5
358
100
AcDbEntity
  8
0
100
AcDbEllipse
 62
7
  6
BYLAYER
 10
49.5590287428
 20
57.4531954563
 30
0.0
 11
4.5645094692
 21
15.1480683359
 31
0.0
 40
0.3531954297
 41
-1.6539313455
 42
-1.6088282537
  0
ELLIPSE
  5
359
100
AcDbEntity
  8
0
100
AcDbEllipse
 62
7
  6
BYLAYER
 10
49.3431969304
 20
57.3592414925
 30
0.0
 11
3.9170278359
 21
15.0590602294
 31
0.0
 40
0.3082317889
 41
-1.5922649381
 42
-1.5471618463
  0
ELLIPSE
  5
35A
100
AcDbEntity
  8
0
100
AcDbEllipse
 62
7
  6
BYLAYER
 10
49.1539175111
 20
57.2192976904
 30
0.0
 11
3.2794335677
 21
14.893779084
 31
0.0
 40
0.2616433071
 41
-1.5263339993
 42
-1.4812309074
  0
ELLIPSE
  5
35B
100
AcDbEntity
  8
0
100
AcDbEllipse
 62
7
  6
BYLAYER
 10
48.994429108
 20
57.0357585271
 30
0.0
 11
2.6456676367
 21
14.6582013007
 31
0.0
 40
0.2132528315
 41
-1.456028525
 42
-1.4109254332
  0
ELLIPSE
  5
35C
100
AcDbEntity
  8
0
100
AcDbEllipse
 62
7
  6
BYLAYER
 10
48.867460612
 20
56.8117644087
 30
0.0
 11
2.0092326326
 21
14.3582391263
 31
0.0
 40
0.1628962535
 41
-1.3810187119
 42
-1.3359156201
  0
ELLIPSE
  5
35D
100
AcDbEntity
  8
0
100
AcDbEllipse
 62
7
  6
BYLAYER
 10
48.7751844893
 20
56.5511479367
 30
0.0
 11
1.362623573
 21
13.9998992874
 31
0.0
 40
0.1104783762
 41
-1.3007229657
 42
-1.2556198739
  0
ELLIPSE
  5
35E
100
AcDbEntity
  8
0
100
AcDbEllipse
 62
7
  6
BYLAYER
 10
48.7191796098
 20
56.2583683311
 30
0.0
 11
0.6966883468
 21
13.5893161587
 31
0.0
 40
0.0560608308
 41
-1.214257747
 42
-1.1691546551
  0
ELLIPSE
  5
35F
100
AcDbEntity
  8
0
100
AcDbEllipse
 62
7
  6
BYLAYER
 10
44.1312627615
 20
49.4788723494
 30
0.0
 11
12.296402924
 21
11.0872384992
 31
0.0
 40
0.6501830562
 41
-1.2800991874
 42
-1.2419234609
  0
ELLIPSE
  5
360
100
AcDbEntity
  8
0
100
AcDbEllipse
 62
7
  6
BYLAYER
 10
51.1814926781
 20
51.9935406677
 30
0.0
 11
12.1170997036
 21
-6.1913219507
 31
0.0
 40
0.0560681352
 41
1.1691665273
 42
1.2142696191
  0
ELLIPSE
  5
361
100
AcDbEntity
  8
0
100
AcDbEllipse
 62
7
  6
BYLAYER
 10
51.4630482202
 20
51.8956572346
 30
0.0
 11
12.8056374116
 21
-5.8198998215
 31
0.0
 40
0.1104854318
 41
1.2556308579
 42
1.3007339497
  0
ELLIPSE
  5
362
100
AcDbEntity
  8
0
100
AcDbEllipse
 62
7
  6
BYLAYER
 10
51.734884912
 20
51.8452674045
 30
0.0
 11
13.4392680365
 21
-5.439091141
 31
0.0
 40
0.1629030364
 41
1.3359258553
 42
1.3810289471
  0
ELLIPSE
  5
363
100
AcDbEntity
  8
0
100
AcDbEllipse
 62
7
  6
BYLAYER
 10
51.9923515522
 20
51.8432333615
 30
0.0
 11
14.0172550462
 21
-5.0379029907
 31
0.0
 40
0.2132593463
 41
1.410935015
 42
1.4560381068
  0
ELLIPSE
  5
364
100
AcDbEntity
  8
0
100
AcDbEllipse
 62
7
  6
BYLAYER
 10
52.2310428153
 20
51.8895899086
 30
0.0
 11
14.5381489316
 21
-4.6068326535
 31
0.0
 40
0.2616495724
 41
1.4812398951
 42
1.5263429869
  0
ELLIPSE
  5
365
100
AcDbEntity
  8
0
100
AcDbEllipse
 62
7
  6
BYLAYER
 10
52.4468746277
 20
51.9835438724
 30
0.0
 11
15.0000782432
 21
-4.1372971579
 31
0.0
 40
0.3082378281
 41
1.5471702683
 42
1.5922733601
  0
ELLIPSE
  5
366
100
AcDbEntity
  8
0
100
AcDbEllipse
 62
7
  6
BYLAYER
 10
52.636154047
 20
52.1234876745
 30
0.0
 11
15.4008967901
 21
-3.6210610279
 31
0.0
 40
0.3532012654
 41
1.6088361109
 42
1.6539392027
  0
ELLIPSE
  5
367
100
AcDbEntity
  8
0
100
AcDbEllipse
 62
7
  6
BYLAYER
 10
52.7956424501
 20
52.3070268378
 30
0.0
 11
15.7381957576
 21
-3.0496530487
 31
0.0
 40
0.3966914607
 41
1.666141167
 42
1.7112442588
  0
ELLIPSE
  5
368
100
AcDbEntity
  8
0
100
AcDbEllipse
 62
7
  6
BYLAYER
 10
52.9226109461
 20
52.5310209561
 30
0.0
 11
16.0091655673
 21
-2.4137512819
 31
0.0
 40
0.43880298
 41
1.7187795629
 42
1.7638826547
  0
ELLIPSE
  5
369
100
AcDbEntity
  8
0
100
AcDbEllipse
 62
7
  6
BYLAYER
 10
53.0148870688
 20
52.7916374282
 30
0.0
 11
16.2102608323
 21
-1.7025354109
 31
0.0
 40
0.4795417348
 41
1.7662177942
 42
1.811320886
  0
ELLIPSE
  5
36A
100
AcDbEntity
  8
0
100
AcDbEllipse
 62
7
  6
BYLAYER
 10
53.0708919483
 20
53.0844170338
 30
0.0
 11
16.336585227
 21
-0.9030705418
 31
0.0
 40
0.5187870566
 41
1.807666998
 42
1.8527700899
  0
ELLIPSE
  5
36B
100
AcDbEntity
  8
0
100
AcDbEllipse
 62
7
  6
BYLAYER
 10
53.0896673254
 20
53.4043502327
 30
0.0
 11
16.3808846694
 21
0.0000570158
 31
0.0
 40
0.5562423032
 41
1.8420581444
 42
1.8871612363
  0
ELLIPSE
  5
36C
100
AcDbEntity
  8
0
100
AcDbEllipse
 62
7
  6
BYLAYER
 10
53.0708919483
 20
53.7459628793
 30
0.0
 11
16.3320724217
 21
1.0242973174
 31
0.0
 40
0.5913711198
 41
1.8680513647
 42
1.9131544565
  0
ELLIPSE
  5
36D
100
AcDbEntity
  8
0
100
AcDbEllipse
 62
7
  6
BYLAYER
 10
53.0148870688
 20
54.1034098863
 30
0.0
 11
16.173473457
 21
2.1867295896
 31
0.0
 40
0.6233241255
 41
1.8841476047
 42
1.9292506965
  0
ELLIPSE
  5
36E
100
AcDbEntity
  8
0
100
AcDbEllipse
 62
7
  6
BYLAYER
 10
52.9226109461
 20
54.4705752365
 30
0.0
 11
15.8818151041
 21
3.4978039193
 31
0.0
 40
0.6508809859
 41
1.8890242343
 42
1.9239004561
  0
ELLIPSE
  5
36F
100
AcDbEntity
  8
0
100
AcDbEllipse
 62
7
  6
BYLAYER
 10
52.7956424501
 20
54.8411766289
 30
0.0
 11
15.4296988941
 21
4.9496122113
 31
0.0
 40
0.6724718307
 41
1.8822336013
 42
1.9150040014
  0
ELLIPSE
  5
370
100
AcDbEntity
  8
0
100
AcDbEllipse
 62
7
  6
BYLAYER
 10
52.636154047
 20
55.2088729708
 30
0.0
 11
14.7956511638
 21
6.5011827944
 31
0.0
 40
0.6863820082
 41
1.8652191791
 42
1.8778868028
  0
ELLIPSE
  5
371
100
AcDbEntity
  8
0
100
AcDbEllipse
 62
7
  6
BYLAYER
 10
52.2310428153
 20
55.9105423117
 30
0.0
 11
13.027932106
 21
9.5629382959
 31
0.0
 40
0.686380748
 41
-1.8866344056
 42
-1.8652219499
  0
ELLIPSE
  5
372
100
AcDbEntity
  8
0
100
AcDbEllipse
 62
7
  6
BYLAYER
 10
51.9923515522
 20
56.2325095537
 30
0.0
 11
12.0012584943
 21
10.8878046916
 31
0.0
 40
0.6724694506
 41
-1.9273383237
 42
-1.8822352318
  0
ELLIPSE
  5
373
100
AcDbEntity
  8
0
100
AcDbEllipse
 62
7
  6
BYLAYER
 10
51.734884912
 20
56.5277656532
 30
0.0
 11
10.9700225626
 21
12.0052300839
 31
0.0
 40
0.6508777042
 41
-1.9341274585
 42
-1.8890243667
  0
ELLIPSE
  5
374
100
AcDbEntity
  8
0
100
AcDbEllipse
 62
7
  6
BYLAYER
 10
50.8950357791
 20
57.2055424736
 30
0.0
 11
8.1904552171
 21
14.1862548219
 31
0.0
 40
0.5562374973
 41
-1.8871572184
 42
-1.8420541266
  0
ELLIPSE
  5
375
100
AcDbEntity
  8
0
100
AcDbEllipse
 62
7
  6
BYLAYER
 10
50.60857888
 20
57.3492446971
 30
0.0
 11
7.3861833181
 21
14.5994409912
 31
0.0
 40
0.518781985
 41
-1.8527650572
 42
-1.8076619654
  0
ELLIPSE
  5
376
100
AcDbEntity
  8
0
100
AcDbEllipse
 62
7
  6
BYLAYER
 10
51.1814926781
 20
57.0184802445
 30
0.0
 11
9.0530561034
 21
13.6318776265
 31
0.0
 40
0.5913666693
 41
-1.9131516451
 42
-1.8680485533
  0
ELLIPSE
  5
377
100
AcDbEntity
  8
0
100
AcDbEllipse
 62
7
  6
BYLAYER
 10
51.4630482202
 20
56.7912586964
 30
0.0
 11
9.9804401156
 21
12.9133293138
 31
0.0
 40
0.6233201663
 41
-1.9292492886
 42
-1.8841461968
  0
ENDSEC
  0
SECTION
  2
OBJECTS
  0
DICTIONARY
  5
C
100
AcDbDictionary
280
0
281
1
  3
ACAD_GROUP
350
D
  3
ACAD_MLINESTYLE
350
17
  3
ACAD_LAYOUT
350
1A
  3
ACAD_PLOTSETTINGS
350
19
  3
ACAD_PLOTSTYLENAME
350
E
  0
DICTIONARY
  5
D
102
{ACAD_REACTORS
330
C
102
}
100
AcDbDictionary
280
0
281
1
  0
ACDBDICTIONARYWDFLT
  5
E
102
{ACAD_REACTORS
330
C
102
}
100
AcDbDictionary
281
1
  3
Normal
350
F
100
AcDbDictionaryWithDefault
340
F
  0
DICTIONARY
  5
17
102
{ACAD_REACTORS
330
C
102
}
100
AcDbDictionary
280
0
281
1
  3
Standard
350
18
  0
DICTIONARY
  5
19
102
{ACAD_REACTORS
330
C
102
}
100
AcDbDictionary
281
1
  0
DICTIONARY
  5
1A
102
{ACAD_REACTORS
330
C
102
}
100
AcDbDictionary
281
1
  3
Model
350
378
  3
Layout1
350
379
  0
ACDBPLACEHOLDER
  5
F
102
{ACAD_REACTORS
330
E
102
}
  0
MLINESTYLE
  5
18
102
{ACAD_REACTORS
330
17
102
}
100
AcDbMlineStyle
  2
STANDARD
 70
0
  3

 62
256
 51
90.0
 52
90.0
 71
2
 49
0.5
 62
256
  6
BYLAYER
 49
-0.5
 62
256
  6
BYLAYER
  0
LAYOUT
  5
378
102
{ACAD_REACTORS
330
1A
102
}
100
AcDbPlotSettings
  1

  2
none_device
  4

  6

 40
0.0
 41
0.0
 42
0.0
 43
0.0
 44
210.0
 45
297.0
 46
0.0
 47
0.0
 48
0.0
 49
0.0
140
0.0
141
0.0
142
1.0
143
1.0
 70
1024
 72
1
 73
0
 74
0
  7

 75
0
147
1.0
148
0.0
149
0.0
100
AcDbLayout
  1
Model
 70
0
 71
0
 10
0.0
 20
0.0
 11
210.0
 21
297.0
 12
0.0
 22
0.0
 32
0.0
 14
0.0
 24
0.0
 34
0.0
 15
0.0
 25
0.0
 35
0.0
146
0.0
 13
0.0
 23
0.0
 33
0.0
 16
1.0
 26
0.0
 36
0.0
 17
0.0
 27
1.0
 37
0.0
 76
0
330
210
345
0
346
0
  0
LAYOUT
  5
379
102
{ACAD_REACTORS
330
1A
102
}
100
AcDbPlotSettings
  1

  2
none_device
  4

  6

 40
0.0
 41
0.0
 42
0.0
 43
0.0
 44
210.0
 45
297.0
 46
0.0
 47
0.0
 48
0.0
 49
0.0
140
0.0
141
0.0
142
1.0
143
1.0
 70
0
 72
1
 73
0
 74
0
  7

 75
0
147
1.0
148
0.0
149
0.0
100
AcDbLayout
  1
Layout1
 70
0
 71
1
 10
0.0
 20
0.0
 11
210.0
 21
297.0
 12
0.0
 22
0.0
 32
0.0
 14
0.0
 24
0.0
 34
0.0
 15
0.0
 25
0.0
 35
0.0
146
0.0
 13
0.0
 23
0.0
 33
0.0
 16
1.0
 26
0.0
 36
0.0
 17
0.0
 27
1.0
 37
0.0
 76
0
330
211
345
0
346
0
  0
ENDSEC
  0
EOF
