999
DXF file: C:\Users\sesa63760\Dev\_Creo\CAD\MCADID0003014_3D-CAD\drw0001_2.dxf
999
Pro/ENGINEER 2019471 by Parametric Technology Corporation
  0
SECTION
  2
HEADER
  9
$ACADVER
  1
AC1024
  9
$DWGCODEPAGE
  3
ANSI_1252
  9
$EXTMAX
 10
30.8281136572
 20
43.5997607437
 30
0.0
  9
$EXTMIN
 10
0.0
 20
0.0
 30
0.0
  9
$LIMMIN
 10
0.0
 20
0.0
  9
$LIMMAX
 10
30.8281136572
 20
43.5997607437
  9
$VIEWCTR
 10
15.4140568286
 20
21.7998803719
  9
$VIEWSIZE
 40
43.5997607437
  9
$CLAYER
  8
0
  9
$LTSCALE
 40
2.8420584781
  9
$CELTYPE
  6
BYLAYER
  9
$DIMSCALE
 40
1.0
  9
$DIMASZ
 40
0.3670013531
  9
$DIMEXO
 40
1.0
  9
$DIMDLI
 40
1.9636040394
  9
$DIMEXE
 40
1.0
  9
$DIMCEN
 40
0.4650641146
  9
$DIMLFAC
 40
1.0
  9
$DIMBLK
  1
_FILLED
  9
$DIMALT
 70
0
  9
$DIMALTF
 40
0.0393700787
  9
$DIMTXT
 40
0.5138018943
  9
$DIMTOL
 70
1
  9
$DIMLIM
 70
0
  9
$DIMTFAC
 40
1.0
  9
$DIMTP
 40
0.01
  9
$DIMTM
 40
0.01
  9
$DIMGAP
 40
0.625
  9
$DIMDSEP
 70
46
  9
$AUNITS
 70
0
  9
$PDMODE
 70
3
  9
$PDSIZE
 40
0.3125
  9
$HANDSEED
  5
22C
  9
$TILEMODE
 70
1
  9
$MEASUREMENT
 70
1
  9
$INSUNITS
 70
4
  0
ENDSEC
  0
SECTION
  2
CLASSES
  0
CLASS
  1
ACDBDICTIONARYWDFLT
  2
AcDbDictionaryWithDefault
  3
AutoCAD 2000
 90
0
 91
1
280
0
281
0
  0
CLASS
  1
ACDBPLACEHOLDER
  2
AcDbPlaceHolder
  3
AutoCAD 2000
 90
0
 91
1
280
0
281
0
  0
CLASS
  1
LAYOUT
  2
AcDbLayout
  3
AutoCAD 2000
 90
0
 91
0
280
0
281
0
  0
ENDSEC
  0
SECTION
  2
TABLES
  0
TABLE
  2
VPORT
  5
8
100
AcDbSymbolTable
 70
2
  0
VPORT
  5
1F4
100
AcDbSymbolTableRecord
100
AcDbViewportTableRecord
  2
*ACTIVE
 70
0
 10
0.0
 20
0.0
 11
1.0
 21
1.0
 12
15.4140568286
 22
21.7998803719
 13
0.0
 23
0.0
 14
1.0
 24
1.0
 15
0.0
 25
0.0
 16
0.0
 26
0.0
 36
1.0
 17
0.0
 27
0.0
 37
0.0
 40
43.5997607437
 41
0.7070707071
 42
50.0
 43
0.0
 44
0.0
 50
0.0
 51
0.0
 71
0
 72
100
 73
1
 74
1
 75
0
 76
0
 77
0
 78
0
  0
ENDTAB
  0
TABLE
  2
LTYPE
  5
5
100
AcDbSymbolTable
 70
6
  0
LTYPE
  5
14
100
AcDbSymbolTableRecord
100
AcDbLinetypeTableRecord
  2
BYBLOCK
 70
0
  3

 72
65
 73
0
 40
0.0
  0
LTYPE
  5
15
100
AcDbSymbolTableRecord
100
AcDbLinetypeTableRecord
  2
BYLAYER
 70
0
  3

 72
65
 73
0
 40
0.0
  0
LTYPE
  5
16
100
AcDbSymbolTableRecord
100
AcDbLinetypeTableRecord
  2
CONTINUOUS
 70
64
  3
Solid line
 72
65
 73
0
 40
0.0
  0
LTYPE
  5
1F5
100
AcDbSymbolTableRecord
100
AcDbLinetypeTableRecord
  2
CENTER
 70
64
  3
____ _ ____ _ ____ _ ____ _ ____ _ ____ _ ____
 72
65
 73
4
 40
0.6
 49
0.375
 74
0
 49
-0.075
 74
0
 49
0.075
 74
0
 49
-0.075
 74
0
  0
LTYPE
  5
1F6
100
AcDbSymbolTableRecord
100
AcDbLinetypeTableRecord
  2
HIDDEN
 70
64
  3
- - - - - - - - - - - - - - - - - - - -
 72
65
 73
2
 40
0.2
 49
0.1
 74
0
 49
-0.1
 74
0
  0
LTYPE
  5
1F7
100
AcDbSymbolTableRecord
100
AcDbLinetypeTableRecord
  2
PHANTOM
 70
64
  3
_____ _ _ _____ _ _ _____ _ _ _____
 72
65
 73
6
 40
0.8
 49
0.45
 74
0
 49
-0.05
 74
0
 49
0.1
 74
0
 49
-0.05
 74
0
 49
0.1
 74
0
 49
-0.05
 74
0
  0
LTYPE
  5
1F8
100
AcDbSymbolTableRecord
100
AcDbLinetypeTableRecord
  2
DOT
 70
64
  3
. . . . . . . . . . . . . . . . . . . .
 72
65
 73
2
 40
0.2
 49
0.1
 74
0
 49
-0.1
 74
0
  0
LTYPE
  5
1F9
100
AcDbSymbolTableRecord
100
AcDbLinetypeTableRecord
  2
DASHED
 70
64
  3
- - - - - - - - - - - - - - - - - - - -
 72
65
 73
2
 40
0.2
 49
0.1
 74
0
 49
-0.1
 74
0
  0
ENDTAB
  0
TABLE
  2
LAYER
  5
2
100
AcDbSymbolTable
 70
36
  0
LAYER
  5
10
100
AcDbSymbolTableRecord
100
AcDbLayerTableRecord
  2
0
 70
0
 62
7
  6
CONTINUOUS
370
-3
390
F
  0
LAYER
  5
1FA
100
AcDbSymbolTableRecord
100
AcDbLayerTableRecord
  2
DEFAULT_1
 70
0
 62
7
  6
CENTER
370
-3
390
F
  0
LAYER
  5
1FB
100
AcDbSymbolTableRecord
100
AcDbLayerTableRecord
  2
DEFAULT_2
 70
0
 62
7
  6
HIDDEN
370
-3
390
F
  0
LAYER
  5
1FC
100
AcDbSymbolTableRecord
100
AcDbLayerTableRecord
  2
DEFAULT_3
 70
0
 62
7
  6
PHANTOM
370
-3
390
F
  0
LAYER
  5
1FD
100
AcDbSymbolTableRecord
100
AcDbLayerTableRecord
  2
00_COMPONENTS
 70
0
 62
7
  6
CONTINUOUS
370
-3
390
F
  0
LAYER
  5
1FE
100
AcDbSymbolTableRecord
100
AcDbLayerTableRecord
  2
01_1_DEFAULT_DATUMS
 70
0
 62
7
  6
CONTINUOUS
370
-3
390
F
  0
LAYER
  5
1FF
100
AcDbSymbolTableRecord
100
AcDbLayerTableRecord
  2
01_PLANES
 70
0
 62
7
  6
CONTINUOUS
370
-3
390
F
  0
LAYER
  5
200
100
AcDbSymbolTableRecord
100
AcDbLayerTableRecord
  2
02_COORD_SYS
 70
0
 62
7
  6
CONTINUOUS
370
-3
390
F
  0
LAYER
  5
201
100
AcDbSymbolTableRecord
100
AcDbLayerTableRecord
  2
03_AXES
 70
0
 62
7
  6
CONTINUOUS
370
-3
390
F
  0
LAYER
  5
202
100
AcDbSymbolTableRecord
100
AcDbLayerTableRecord
  2
04_POINTS
 70
0
 62
7
  6
CONTINUOUS
370
-3
390
F
  0
LAYER
  5
203
100
AcDbSymbolTableRecord
100
AcDbLayerTableRecord
  2
05_CURVES
 70
0
 62
7
  6
CONTINUOUS
370
-3
390
F
  0
LAYER
  5
204
100
AcDbSymbolTableRecord
100
AcDbLayerTableRecord
  2
06_SURFS
 70
0
 62
7
  6
CONTINUOUS
370
-3
390
F
  0
LAYER
  5
205
100
AcDbSymbolTableRecord
100
AcDbLayerTableRecord
  2
07_COSMETICS
 70
0
 62
7
  6
CONTINUOUS
370
-3
390
F
  0
LAYER
  5
206
100
AcDbSymbolTableRecord
100
AcDbLayerTableRecord
  2
10_NOTES
 70
0
 62
7
  6
CONTINUOUS
370
-3
390
F
  0
LAYER
  5
207
100
AcDbSymbolTableRecord
100
AcDbLayerTableRecord
  2
11_NOTES_PUB
 70
0
 62
7
  6
CONTINUOUS
370
-3
390
F
  0
LAYER
  5
208
100
AcDbSymbolTableRecord
100
AcDbLayerTableRecord
  2
13_REF_GTOL
 70
0
 62
7
  6
CONTINUOUS
370
-3
390
F
  0
LAYER
  5
209
100
AcDbSymbolTableRecord
100
AcDbLayerTableRecord
  2
16_MISC
 70
0
 62
7
  6
CONTINUOUS
370
-3
390
F
  0
LAYER
  5
20A
100
AcDbSymbolTableRecord
100
AcDbLayerTableRecord
  2
17_NO_PRINT
 70
0
 62
7
  6
CONTINUOUS
370
-3
390
F
  0
LAYER
  5
20B
100
AcDbSymbolTableRecord
100
AcDbLayerTableRecord
  2
18_DATUM_CAMS_JOINTS
 70
0
 62
7
  6
CONTINUOUS
370
-3
390
F
  0
LAYER
  5
20C
100
AcDbSymbolTableRecord
100
AcDbLayerTableRecord
  2
19_DATUM_FUNCTIONAL
 70
0
 62
7
  6
CONTINUOUS
370
-3
390
F
  0
LAYER
  5
20D
100
AcDbSymbolTableRecord
100
AcDbLayerTableRecord
  2
20_DATUM_KINEMATIC_SCHEME
 70
0
 62
7
  6
CONTINUOUS
370
-3
390
F
  0
ENDTAB
  0
TABLE
  2
STYLE
  5
3
100
AcDbSymbolTable
 70
1
  0
STYLE
  5
11
100
AcDbSymbolTableRecord
100
AcDbTextStyleTableRecord
  2
STANDARD
 70
0
 40
0.0
 41
1.0
 50
0.0
 71
0
 42
0.2
  3
ARIAL.TTF
  4

  0
STYLE
  5
20E
100
AcDbSymbolTableRecord
100
AcDbTextStyleTableRecord
  2
TEXTSTYLE_1
 70
0
 40
0.0
 41
0.8
 50
0.0
 71
0
 42
0.2
  3
gdt
  4

  0
ENDTAB
  0
TABLE
  2
VIEW
  5
6
100
AcDbSymbolTable
 70
0
  0
ENDTAB
  0
TABLE
  2
UCS
  5
7
100
AcDbSymbolTable
 70
0
  0
ENDTAB
  0
TABLE
  2
APPID
  5
9
100
AcDbSymbolTable
 70
1
  0
APPID
  5
20F
100
AcDbSymbolTableRecord
100
AcDbRegAppTableRecord
  2
ACAD
 70
0
  0
ENDTAB
  0
TABLE
  2
BLOCK_RECORD
  5
1
100
AcDbSymbolTable
 70
0
  0
BLOCK_RECORD
  5
210
100
AcDbSymbolTableRecord
100
AcDbBlockTableRecord
  2
*Model_Space
  0
BLOCK_RECORD
  5
211
100
AcDbSymbolTableRecord
100
AcDbBlockTableRecord
  2
*Paper_Space
  0
BLOCK_RECORD
  5
212
100
AcDbSymbolTableRecord
100
AcDbBlockTableRecord
  2
_FILLED
  0
ENDTAB
  0
TABLE
  2
DIMSTYLE
  5
A
100
AcDbSymbolTable
 70
1
100
AcDbDimStyleTable
 71
0
  0
DIMSTYLE
105
213
100
AcDbSymbolTableRecord
100
AcDbDimStyleTableRecord
  2
STANDARD
 70
0
  3

  4

 40
1.0
 41
0.3670013531
 42
1.0
 43
0.38
 44
1.0
 45
0.0
 46
0.0
 47
0.01
 48
0.01
140
0.5138018943
141
0.09
142
0.0
143
25.4
144
1.0
145
0.0
146
1.0
147
0.625
 71
1
 72
0
 73
0
 74
0
 75
0
 76
0
 77
1
 78
8
 79
2
170
0
171
1
172
0
173
0
174
0
175
0
176
0
177
0
178
0
270
2
179
2
271
2
272
2
273
2
274
2
275
0
280
0
281
0
282
0
283
1
284
8
285
0
286
0
287
3
288
0
340
11
278
46
341
212
342
212
343
212
344
212
  0
ENDTAB
  0
ENDSEC
  0
SECTION
  2
BLOCKS
  0
BLOCK
  5
20
100
AcDbEntity
  8
0
100
AcDbBlockBegin
  2
*Model_Space
 70
0
 10
0.0
 20
0.0
 30
0.0
  3
*Model_Space
  1

  0
ENDBLK
  5
21
100
AcDbEntity
  8
0
100
AcDbBlockEnd
  0
BLOCK
  5
1C
100
AcDbEntity
  8
0
100
AcDbBlockBegin
  2
*Paper_Space
 70
0
 10
0.0
 20
0.0
 30
0.0
  3
*Paper_Space
  1

  0
ENDBLK
  5
1D
100
AcDbEntity
  8
0
100
AcDbBlockEnd
  0
BLOCK
  5
214
100
AcDbEntity
  8
0
100
AcDbBlockBegin
  2
_FILLED
 70
64
 10
0.0
 20
0.0
  3
_FILLED
  1

  0
SOLID
  5
215
100
AcDbEntity
  8
0
  6
BYBLOCK
 62
0
100
AcDbTrace
 10
0.0
 20
0.0
 11
-1.0
 21
0.25
 12
-1.0
 22
-0.25
 13
-1.0
 23
-0.25
  0
ENDBLK
  5
216
100
AcDbEntity
  8
0
  6
BYBLOCK
 62
0
100
AcDbBlockEnd
  0
ENDSEC
  0
SECTION
  2
ENTITIES
  0
LINE
  5
217
100
AcDbEntity
  8
0
100
AcDbLine
 62
7
  6
BYLAYER
 10
3.3800959379
 20
16.1635818515
 11
3.3800959379
 21
28.8635818515
  0
LINE
  5
218
100
AcDbEntity
  8
0
100
AcDbLine
 62
7
  6
BYLAYER
 10
6.5550959379
 20
16.1635818515
 11
6.5550959379
 21
14.5760818515
  0
LINE
  5
219
100
AcDbEntity
  8
0
100
AcDbLine
 62
7
  6
BYLAYER
 10
16.0800959379
 20
14.5760818515
 11
6.5550959379
 21
14.5760818515
  0
LINE
  5
21A
100
AcDbEntity
  8
0
100
AcDbLine
 62
7
  6
BYLAYER
 10
19.2550959379
 20
16.1635818515
 11
3.3800959379
 21
16.1635818515
  0
LINE
  5
21B
100
AcDbEntity
  8
0
100
AcDbLine
 62
7
  6
BYLAYER
 10
23.3848151006
 20
20.9260818515
 11
3.3800978127
 21
20.9260818515
  0
LINE
  5
21C
100
AcDbEntity
  8
0
100
AcDbLine
 62
7
  6
BYLAYER
 10
25.6298791308
 20
21.7198318515
 11
23.3848151006
 21
21.7198318515
  0
LINE
  5
21D
100
AcDbEntity
  8
0
100
AcDbLine
 62
7
  6
BYLAYER
 10
16.0800959379
 20
14.5760818515
 11
16.0800959379
 21
16.1635818515
  0
LINE
  5
21E
100
AcDbEntity
  8
0
100
AcDbLine
 62
7
  6
BYLAYER
 10
16.9302560135
 20
20.9260818515
 11
16.9302560135
 21
28.8635818515
  0
LINE
  5
21F
100
AcDbEntity
  8
0
100
AcDbLine
 62
7
  6
BYLAYER
 10
19.2550959379
 20
16.1635818515
 11
19.2550959379
 21
20.9260818515
  0
LINE
  5
220
100
AcDbEntity
  8
0
100
AcDbLine
 62
7
  6
BYLAYER
 10
25.6298791308
 20
28.0698318515
 11
23.3848151006
 21
28.0698318515
  0
LINE
  5
221
100
AcDbEntity
  8
0
100
AcDbLine
 62
7
  6
BYLAYER
 10
3.3800978127
 20
28.8635818515
 11
23.3848151006
 21
28.8635818515
  0
SPLINE
  5
222
100
AcDbEntity
  8
0
100
AcDbSpline
 62
7
  6
BYLAYER
 70
0
 71
3
 72
18
 73
14
 74
0
 42
0.0000001
 43
0.0000001
 44
0.0000000001
 40
0.0
 40
0.0
 40
0.0
 40
0.0
 40
0.0514878173
 40
0.1034647434
 40
0.1563866089
 40
0.2106528003
 40
0.2665816284
 40
0.3244059259
 40
0.4460598975
 40
0.5759022081
 40
0.7128721012
 40
0.8550712861
 40
1.0
 40
1.0
 40
1.0
 40
1.0
 10
25.6298791271
 20
21.719855627
 30
0.0
 10
25.7034065295
 20
21.7198553675
 30
0.0
 10
25.8513651143
 20
21.7301487177
 30
0.0
 10
26.0705259583
 20
21.7763958829
 30
0.0
 10
26.2853061032
 20
21.8527842282
 30
0.0
 10
26.4934864893
 20
21.9586250222
 30
0.0
 10
26.6931546925
 20
22.0926940504
 30
0.0
 10
26.9496391413
 20
22.3109611823
 30
0.0
 10
27.2378287593
 20
22.649974911
 30
0.0
 10
27.5149952274
 20
23.1335435401
 30
0.0
 10
27.7204162495
 20
23.6828751996
 30
0.0
 10
27.8466276309
 20
24.2772452188
 30
0.0
 10
27.8749431611
 20
24.6878657681
 30
0.0
 10
27.8749431611
 20
24.8948318515
 30
0.0
  0
SPLINE
  5
223
100
AcDbEntity
  8
0
100
AcDbSpline
 62
7
  6
BYLAYER
 70
0
 71
3
 72
19
 73
15
 74
0
 42
0.0000001
 43
0.0000001
 44
0.0000000001
 40
0.0
 40
0.0
 40
0.0
 40
0.0
 40
0.1449061022
 40
0.287081159
 40
0.4240292519
 40
0.5538513326
 40
0.6157867541
 40
0.675637415
 40
0.7334538966
 40
0.7893755836
 40
0.8436346608
 40
0.8965495695
 40
0.9485193824
 40
1.0
 40
1.0
 40
1.0
 40
1.0
 10
27.8749431611
 20
24.8948318515
 30
0.0
 10
27.8749431611
 20
25.1017965733
 30
0.0
 10
27.8466351878
 20
25.5124045013
 30
0.0
 10
27.7203987505
 20
26.1067989115
 30
0.0
 10
27.5150786586
 20
26.6560158305
 30
0.0
 10
27.2802460072
 20
27.0655756436
 30
0.0
 10
27.0593539181
 20
27.3496567497
 30
0.0
 10
26.8823522223
 20
27.5359578158
 30
0.0
 10
26.6931622242
 20
27.6969647643
 30
0.0
 10
26.4935006931
 20
27.831031583
 30
0.0
 10
26.2853137478
 20
27.9368756758
 30
0.0
 10
26.0705315086
 20
28.0132670461
 30
0.0
 10
25.8513673727
 20
28.0595146941
 30
0.0
 10
25.7034072438
 20
28.0698078166
 30
0.0
 10
25.6298791346
 20
28.0698080761
 30
0.0
  0
SPLINE
  5
224
100
AcDbEntity
  8
0
100
AcDbSpline
 62
7
  6
BYLAYER
 70
0
 71
3
 72
14
 73
10
 74
0
 42
0.0000001
 43
0.0000001
 44
0.0000000001
 40
0.0
 40
0.0
 40
0.0
 40
0.0
 40
0.1179868825
 40
0.236868696
 40
0.3572232658
 40
0.4796470568
 40
0.6047317929
 40
0.7329800135
 40
1.0
 40
1.0
 40
1.0
 40
1.0
 10
23.3848151006
 20
20.9260818515
 30
0.0
 10
23.4596719005
 20
20.9260818515
 30
0.0
 10
23.6100876755
 20
20.9346735468
 30
0.0
 10
23.8339237073
 20
20.9729538431
 30
0.0
 10
24.0548958679
 20
21.0364758808
 30
0.0
 10
24.2713645772
 20
21.124855873
 30
0.0
 10
24.4820245063
 20
21.2373706535
 30
0.0
 10
24.7568455838
 20
21.4210050097
 30
0.0
 10
24.9449409228
 20
21.5894900778
 30
0.0
 10
25.0615559124
 20
21.7123761665
 30
0.0
  0
SPLINE
  5
225
100
AcDbEntity
  8
0
100
AcDbSpline
 62
7
  6
BYLAYER
 70
0
 71
3
 72
14
 73
10
 74
0
 42
0.0000001
 43
0.0000001
 44
0.0000000001
 40
0.0
 40
0.0
 40
0.0
 40
0.0
 40
0.2670447289
 40
0.3952982356
 40
0.5203841239
 40
0.6428053327
 40
0.7631537938
 40
0.8820257815
 40
1.0
 40
1.0
 40
1.0
 40
1.0
 10
25.0629899582
 20
28.0757744699
 30
0.0
 10
24.9463175231
 20
28.1988829894
 30
0.0
 10
24.7581073843
 20
28.367685399
 30
0.0
 10
24.4830655687
 20
28.5516766761
 30
0.0
 10
24.2722238826
 20
28.6644117678
 30
0.0
 10
24.0555552657
 20
28.7529677689
 30
0.0
 10
23.8343689259
 20
28.8166150543
 30
0.0
 10
23.6103118827
 20
28.8549724751
 30
0.0
 10
23.4597456949
 20
28.8635818515
 30
0.0
 10
23.3848151006
 20
28.8635818515
 30
0.0
  0
SPLINE
  5
226
100
AcDbEntity
  8
0
100
AcDbSpline
 62
7
  6
BYLAYER
 70
0
 71
3
 72
18
 73
14
 74
0
 42
0.0000001
 43
0.0000001
 44
0.0000000001
 40
0.0
 40
0.0
 40
0.0
 40
0.0
 40
0.0514878173
 40
0.1034647434
 40
0.1563866089
 40
0.2106528003
 40
0.2665816284
 40
0.3244059259
 40
0.4460598975
 40
0.5759022081
 40
0.7128721012
 40
0.8550712861
 40
1.0
 40
1.0
 40
1.0
 40
1.0
 10
23.3848151043
 20
21.719855627
 30
0.0
 10
23.3112877019
 20
21.7198553675
 30
0.0
 10
23.1633291171
 20
21.7301487177
 30
0.0
 10
22.9441682731
 20
21.7763958829
 30
0.0
 10
22.7293881282
 20
21.8527842282
 30
0.0
 10
22.5212077421
 20
21.9586250222
 30
0.0
 10
22.3215395389
 20
22.0926940504
 30
0.0
 10
22.0650550901
 20
22.3109611823
 30
0.0
 10
21.7768654721
 20
22.649974911
 30
0.0
 10
21.499699004
 20
23.1335435401
 30
0.0
 10
21.2942779819
 20
23.6828751996
 30
0.0
 10
21.1680666005
 20
24.2772452188
 30
0.0
 10
21.1397510703
 20
24.6878657681
 30
0.0
 10
21.1397510703
 20
24.8948318515
 30
0.0
  0
SPLINE
  5
227
100
AcDbEntity
  8
0
100
AcDbSpline
 62
7
  6
BYLAYER
 70
0
 71
3
 72
19
 73
15
 74
0
 42
0.0000001
 43
0.0000001
 44
0.0000000001
 40
0.0
 40
0.0
 40
0.0
 40
0.0
 40
0.1449061022
 40
0.287081159
 40
0.4240292519
 40
0.5538513326
 40
0.6157867541
 40
0.675637415
 40
0.7334538966
 40
0.7893755836
 40
0.8436346608
 40
0.8965495695
 40
0.9485193824
 40
1.0
 40
1.0
 40
1.0
 40
1.0
 10
23.3848151006
 20
24.8948318515
 30
0.0
 10
23.3848151006
 20
24.6878671297
 30
0.0
 10
23.4131230738
 20
24.2772592017
 30
0.0
 10
23.5393595111
 20
23.6828647916
 30
0.0
 10
23.744679603
 20
23.1336478725
 30
0.0
 10
23.9795122544
 20
22.7240880595
 30
0.0
 10
24.2004043435
 20
22.4400069534
 30
0.0
 10
24.3774060394
 20
22.2537058873
 30
0.0
 10
24.5665960374
 20
22.0926989388
 30
0.0
 10
24.7662575686
 20
21.95863212
 30
0.0
 10
24.9744445139
 20
21.8527880273
 30
0.0
 10
25.1892267531
 20
21.7763966569
 30
0.0
 10
25.408390889
 20
21.730149009
 30
0.0
 10
25.5563510179
 20
21.7198558865
 30
0.0
 10
25.6298791271
 20
21.719855627
 30
0.0
  0
SPLINE
  5
228
100
AcDbEntity
  8
0
100
AcDbSpline
 62
7
  6
BYLAYER
 70
0
 71
3
 72
19
 73
15
 74
0
 42
0.0000001
 43
0.0000001
 44
0.0000000001
 40
0.0
 40
0.0
 40
0.0
 40
0.0
 40
0.1449061022
 40
0.287081159
 40
0.4240292519
 40
0.5538513326
 40
0.6157867541
 40
0.675637415
 40
0.7334538966
 40
0.7893755836
 40
0.8436346608
 40
0.8965495695
 40
0.9485193824
 40
1.0
 40
1.0
 40
1.0
 40
1.0
 10
21.1397510703
 20
24.8948318515
 30
0.0
 10
21.1397510703
 20
25.1017965733
 30
0.0
 10
21.1680590436
 20
25.5124045013
 30
0.0
 10
21.2942954809
 20
26.1067989115
 30
0.0
 10
21.4996155728
 20
26.6560158305
 30
0.0
 10
21.7344482242
 20
27.0655756436
 30
0.0
 10
21.9553403133
 20
27.3496567497
 30
0.0
 10
22.1323420091
 20
27.5359578158
 30
0.0
 10
22.3215320072
 20
27.6969647643
 30
0.0
 10
22.5211935383
 20
27.831031583
 30
0.0
 10
22.7293804836
 20
27.9368756758
 30
0.0
 10
22.9441627228
 20
28.0132670461
 30
0.0
 10
23.1633268587
 20
28.0595146941
 30
0.0
 10
23.3112869876
 20
28.0698078166
 30
0.0
 10
23.3848150968
 20
28.0698080761
 30
0.0
  0
SPLINE
  5
229
100
AcDbEntity
  8
0
100
AcDbSpline
 62
7
  6
BYLAYER
 70
0
 71
3
 72
18
 73
14
 74
0
 42
0.0000001
 43
0.0000001
 44
0.0000000001
 40
0.0
 40
0.0
 40
0.0
 40
0.0
 40
0.0514878173
 40
0.1034647434
 40
0.1563866089
 40
0.2106528003
 40
0.2665816284
 40
0.3244059259
 40
0.4460598975
 40
0.5759022081
 40
0.7128721012
 40
0.8550712861
 40
1.0
 40
1.0
 40
1.0
 40
1.0
 10
25.6298791346
 20
28.0698080761
 30
0.0
 10
25.5563517321
 20
28.0698083355
 30
0.0
 10
25.4083931474
 20
28.0595149854
 30
0.0
 10
25.1892323033
 20
28.0132678201
 30
0.0
 10
24.9744521584
 20
27.9368794749
 30
0.0
 10
24.7662717723
 20
27.8310386809
 30
0.0
 10
24.5666035692
 20
27.6969696526
 30
0.0
 10
24.3101191204
 20
27.4787025208
 30
0.0
 10
24.0219295023
 20
27.139688792
 30
0.0
 10
23.7447630343
 20
26.656120163
 30
0.0
 10
23.5393420122
 20
26.1067885035
 30
0.0
 10
23.4131306308
 20
25.5124184843
 30
0.0
 10
23.3848151006
 20
25.1017979349
 30
0.0
 10
23.3848151006
 20
24.8948318515
 30
0.0
  0
ENDSEC
  0
SECTION
  2
OBJECTS
  0
DICTIONARY
  5
C
100
AcDbDictionary
280
0
281
1
  3
ACAD_GROUP
350
D
  3
ACAD_MLINESTYLE
350
17
  3
ACAD_LAYOUT
350
1A
  3
ACAD_PLOTSETTINGS
350
19
  3
ACAD_PLOTSTYLENAME
350
E
  0
DICTIONARY
  5
D
102
{ACAD_REACTORS
330
C
102
}
100
AcDbDictionary
280
0
281
1
  0
ACDBDICTIONARYWDFLT
  5
E
102
{ACAD_REACTORS
330
C
102
}
100
AcDbDictionary
281
1
  3
Normal
350
F
100
AcDbDictionaryWithDefault
340
F
  0
DICTIONARY
  5
17
102
{ACAD_REACTORS
330
C
102
}
100
AcDbDictionary
280
0
281
1
  3
Standard
350
18
  0
DICTIONARY
  5
19
102
{ACAD_REACTORS
330
C
102
}
100
AcDbDictionary
281
1
  0
DICTIONARY
  5
1A
102
{ACAD_REACTORS
330
C
102
}
100
AcDbDictionary
281
1
  3
Model
350
22A
  3
Layout1
350
22B
  0
ACDBPLACEHOLDER
  5
F
102
{ACAD_REACTORS
330
E
102
}
  0
MLINESTYLE
  5
18
102
{ACAD_REACTORS
330
17
102
}
100
AcDbMlineStyle
  2
STANDARD
 70
0
  3

 62
256
 51
90.0
 52
90.0
 71
2
 49
0.5
 62
256
  6
BYLAYER
 49
-0.5
 62
256
  6
BYLAYER
  0
LAYOUT
  5
22A
102
{ACAD_REACTORS
330
1A
102
}
100
AcDbPlotSettings
  1

  2
none_device
  4

  6

 40
0.0
 41
0.0
 42
0.0
 43
0.0
 44
210.0
 45
297.0
 46
0.0
 47
0.0
 48
0.0
 49
0.0
140
0.0
141
0.0
142
1.0
143
1.0
 70
1024
 72
1
 73
0
 74
0
  7

 75
0
147
1.0
148
0.0
149
0.0
100
AcDbLayout
  1
Model
 70
0
 71
0
 10
0.0
 20
0.0
 11
210.0
 21
297.0
 12
0.0
 22
0.0
 32
0.0
 14
0.0
 24
0.0
 34
0.0
 15
0.0
 25
0.0
 35
0.0
146
0.0
 13
0.0
 23
0.0
 33
0.0
 16
1.0
 26
0.0
 36
0.0
 17
0.0
 27
1.0
 37
0.0
 76
0
330
210
345
0
346
0
  0
LAYOUT
  5
22B
102
{ACAD_REACTORS
330
1A
102
}
100
AcDbPlotSettings
  1

  2
none_device
  4

  6

 40
0.0
 41
0.0
 42
0.0
 43
0.0
 44
210.0
 45
297.0
 46
0.0
 47
0.0
 48
0.0
 49
0.0
140
0.0
141
0.0
142
1.0
143
1.0
 70
0
 72
1
 73
0
 74
0
  7

 75
0
147
1.0
148
0.0
149
0.0
100
AcDbLayout
  1
Layout1
 70
0
 71
1
 10
0.0
 20
0.0
 11
210.0
 21
297.0
 12
0.0
 22
0.0
 32
0.0
 14
0.0
 24
0.0
 34
0.0
 15
0.0
 25
0.0
 35
0.0
146
0.0
 13
0.0
 23
0.0
 33
0.0
 16
1.0
 26
0.0
 36
0.0
 17
0.0
 27
1.0
 37
0.0
 76
0
330
211
345
0
346
0
  0
ENDSEC
  0
EOF
