999
DXF file: C:\Users\sesa63760\Dev\_Creo\CAD\MCADID0003678_3D-CAD\drw0001_3.dxf
999
Pro/ENGINEER 2019471 by Parametric Technology Corporation
  0
SECTION
  2
HEADER
  9
$ACADVER
  1
AC1024
  9
$DWGCODEPAGE
  3
ANSI_1252
  9
$EXTMAX
 10
191.5055367681
 20
270.8435448578
 30
0.0
  9
$EXTMIN
 10
0.0
 20
0.0
 30
0.0
  9
$LIMMIN
 10
0.0
 20
0.0
  9
$LIMMAX
 10
191.5055367681
 20
270.8435448578
  9
$VIEWCTR
 10
95.7527683841
 20
135.4217724289
  9
$VIEWSIZE
 40
270.8435448578
  9
$CLAYER
  8
0
  9
$LTSCALE
 40
17.6549866278
  9
$CELTYPE
  6
BYLAYER
  9
$DIMSCALE
 40
1.0
  9
$DIMASZ
 40
2.2798278187
  9
$DIMEXO
 40
1.0
  9
$DIMDLI
 40
12.197990761
  9
$DIMEXE
 40
1.0
  9
$DIMCEN
 40
2.8889978118
  9
$DIMLFAC
 40
1.0
  9
$DIMBLK
  1
_FILLED
  9
$DIMALT
 70
0
  9
$DIMALTF
 40
0.0393700787
  9
$DIMTXT
 40
3.1917589461
  9
$DIMTOL
 70
1
  9
$DIMLIM
 70
0
  9
$DIMTFAC
 40
1.0
  9
$DIMTP
 40
0.01
  9
$DIMTM
 40
0.01
  9
$DIMGAP
 40
0.625
  9
$DIMDSEP
 70
46
  9
$AUNITS
 70
0
  9
$PDMODE
 70
3
  9
$PDSIZE
 40
0.3125
  9
$HANDSEED
  5
36C
  9
$TILEMODE
 70
1
  9
$MEASUREMENT
 70
1
  9
$INSUNITS
 70
4
  0
ENDSEC
  0
SECTION
  2
CLASSES
  0
CLASS
  1
ACDBDICTIONARYWDFLT
  2
AcDbDictionaryWithDefault
  3
AutoCAD 2000
 90
0
 91
1
280
0
281
0
  0
CLASS
  1
ACDBPLACEHOLDER
  2
AcDbPlaceHolder
  3
AutoCAD 2000
 90
0
 91
1
280
0
281
0
  0
CLASS
  1
LAYOUT
  2
AcDbLayout
  3
AutoCAD 2000
 90
0
 91
0
280
0
281
0
  0
ENDSEC
  0
SECTION
  2
TABLES
  0
TABLE
  2
VPORT
  5
8
100
AcDbSymbolTable
 70
2
  0
VPORT
  5
1F4
100
AcDbSymbolTableRecord
100
AcDbViewportTableRecord
  2
*ACTIVE
 70
0
 10
0.0
 20
0.0
 11
1.0
 21
1.0
 12
95.7527683841
 22
135.4217724289
 13
0.0
 23
0.0
 14
1.0
 24
1.0
 15
0.0
 25
0.0
 16
0.0
 26
0.0
 36
1.0
 17
0.0
 27
0.0
 37
0.0
 40
270.8435448578
 41
0.7070707071
 42
50.0
 43
0.0
 44
0.0
 50
0.0
 51
0.0
 71
0
 72
100
 73
1
 74
1
 75
0
 76
0
 77
0
 78
0
  0
ENDTAB
  0
TABLE
  2
LTYPE
  5
5
100
AcDbSymbolTable
 70
6
  0
LTYPE
  5
14
100
AcDbSymbolTableRecord
100
AcDbLinetypeTableRecord
  2
BYBLOCK
 70
0
  3

 72
65
 73
0
 40
0.0
  0
LTYPE
  5
15
100
AcDbSymbolTableRecord
100
AcDbLinetypeTableRecord
  2
BYLAYER
 70
0
  3

 72
65
 73
0
 40
0.0
  0
LTYPE
  5
16
100
AcDbSymbolTableRecord
100
AcDbLinetypeTableRecord
  2
CONTINUOUS
 70
64
  3
Solid line
 72
65
 73
0
 40
0.0
  0
LTYPE
  5
1F5
100
AcDbSymbolTableRecord
100
AcDbLinetypeTableRecord
  2
CENTER
 70
64
  3
____ _ ____ _ ____ _ ____ _ ____ _ ____ _ ____
 72
65
 73
4
 40
0.6
 49
0.375
 74
0
 49
-0.075
 74
0
 49
0.075
 74
0
 49
-0.075
 74
0
  0
LTYPE
  5
1F6
100
AcDbSymbolTableRecord
100
AcDbLinetypeTableRecord
  2
HIDDEN
 70
64
  3
- - - - - - - - - - - - - - - - - - - -
 72
65
 73
2
 40
0.2
 49
0.1
 74
0
 49
-0.1
 74
0
  0
LTYPE
  5
1F7
100
AcDbSymbolTableRecord
100
AcDbLinetypeTableRecord
  2
PHANTOM
 70
64
  3
_____ _ _ _____ _ _ _____ _ _ _____
 72
65
 73
6
 40
0.8
 49
0.45
 74
0
 49
-0.05
 74
0
 49
0.1
 74
0
 49
-0.05
 74
0
 49
0.1
 74
0
 49
-0.05
 74
0
  0
LTYPE
  5
1F8
100
AcDbSymbolTableRecord
100
AcDbLinetypeTableRecord
  2
DOT
 70
64
  3
. . . . . . . . . . . . . . . . . . . .
 72
65
 73
2
 40
0.2
 49
0.1
 74
0
 49
-0.1
 74
0
  0
LTYPE
  5
1F9
100
AcDbSymbolTableRecord
100
AcDbLinetypeTableRecord
  2
DASHED
 70
64
  3
- - - - - - - - - - - - - - - - - - - -
 72
65
 73
2
 40
0.2
 49
0.1
 74
0
 49
-0.1
 74
0
  0
ENDTAB
  0
TABLE
  2
LAYER
  5
2
100
AcDbSymbolTable
 70
36
  0
LAYER
  5
10
100
AcDbSymbolTableRecord
100
AcDbLayerTableRecord
  2
0
 70
0
 62
7
  6
CONTINUOUS
370
-3
390
F
  0
LAYER
  5
1FA
100
AcDbSymbolTableRecord
100
AcDbLayerTableRecord
  2
DEFAULT_1
 70
0
 62
7
  6
CENTER
370
-3
390
F
  0
LAYER
  5
1FB
100
AcDbSymbolTableRecord
100
AcDbLayerTableRecord
  2
DEFAULT_2
 70
0
 62
7
  6
HIDDEN
370
-3
390
F
  0
LAYER
  5
1FC
100
AcDbSymbolTableRecord
100
AcDbLayerTableRecord
  2
DEFAULT_3
 70
0
 62
7
  6
PHANTOM
370
-3
390
F
  0
LAYER
  5
1FD
100
AcDbSymbolTableRecord
100
AcDbLayerTableRecord
  2
00_COMPONENTS
 70
0
 62
7
  6
CONTINUOUS
370
-3
390
F
  0
LAYER
  5
1FE
100
AcDbSymbolTableRecord
100
AcDbLayerTableRecord
  2
01_1_DEFAULT_DATUMS
 70
0
 62
7
  6
CONTINUOUS
370
-3
390
F
  0
LAYER
  5
1FF
100
AcDbSymbolTableRecord
100
AcDbLayerTableRecord
  2
01_PLANES
 70
0
 62
7
  6
CONTINUOUS
370
-3
390
F
  0
LAYER
  5
200
100
AcDbSymbolTableRecord
100
AcDbLayerTableRecord
  2
02_COORD_SYS
 70
0
 62
7
  6
CONTINUOUS
370
-3
390
F
  0
LAYER
  5
201
100
AcDbSymbolTableRecord
100
AcDbLayerTableRecord
  2
03_AXES
 70
0
 62
7
  6
CONTINUOUS
370
-3
390
F
  0
LAYER
  5
202
100
AcDbSymbolTableRecord
100
AcDbLayerTableRecord
  2
04_POINTS
 70
0
 62
7
  6
CONTINUOUS
370
-3
390
F
  0
LAYER
  5
203
100
AcDbSymbolTableRecord
100
AcDbLayerTableRecord
  2
05_CURVES
 70
0
 62
7
  6
CONTINUOUS
370
-3
390
F
  0
LAYER
  5
204
100
AcDbSymbolTableRecord
100
AcDbLayerTableRecord
  2
06_SURFS
 70
0
 62
7
  6
CONTINUOUS
370
-3
390
F
  0
LAYER
  5
205
100
AcDbSymbolTableRecord
100
AcDbLayerTableRecord
  2
07_COSMETICS
 70
0
 62
7
  6
CONTINUOUS
370
-3
390
F
  0
LAYER
  5
206
100
AcDbSymbolTableRecord
100
AcDbLayerTableRecord
  2
10_NOTES
 70
0
 62
7
  6
CONTINUOUS
370
-3
390
F
  0
LAYER
  5
207
100
AcDbSymbolTableRecord
100
AcDbLayerTableRecord
  2
11_NOTES_PUB
 70
0
 62
7
  6
CONTINUOUS
370
-3
390
F
  0
LAYER
  5
208
100
AcDbSymbolTableRecord
100
AcDbLayerTableRecord
  2
13_REF_GTOL
 70
0
 62
7
  6
CONTINUOUS
370
-3
390
F
  0
LAYER
  5
209
100
AcDbSymbolTableRecord
100
AcDbLayerTableRecord
  2
16_MISC
 70
0
 62
7
  6
CONTINUOUS
370
-3
390
F
  0
LAYER
  5
20A
100
AcDbSymbolTableRecord
100
AcDbLayerTableRecord
  2
17_NO_PRINT
 70
0
 62
7
  6
CONTINUOUS
370
-3
390
F
  0
LAYER
  5
20B
100
AcDbSymbolTableRecord
100
AcDbLayerTableRecord
  2
18_DATUM_CAMS_JOINTS
 70
0
 62
7
  6
CONTINUOUS
370
-3
390
F
  0
LAYER
  5
20C
100
AcDbSymbolTableRecord
100
AcDbLayerTableRecord
  2
19_DATUM_FUNCTIONAL
 70
0
 62
7
  6
CONTINUOUS
370
-3
390
F
  0
LAYER
  5
20D
100
AcDbSymbolTableRecord
100
AcDbLayerTableRecord
  2
20_DATUM_KINEMATIC_SCHEME
 70
0
 62
7
  6
CONTINUOUS
370
-3
390
F
  0
ENDTAB
  0
TABLE
  2
STYLE
  5
3
100
AcDbSymbolTable
 70
1
  0
STYLE
  5
11
100
AcDbSymbolTableRecord
100
AcDbTextStyleTableRecord
  2
STANDARD
 70
0
 40
0.0
 41
1.0
 50
0.0
 71
0
 42
0.2
  3
ARIAL.TTF
  4

  0
STYLE
  5
20E
100
AcDbSymbolTableRecord
100
AcDbTextStyleTableRecord
  2
TEXTSTYLE_1
 70
0
 40
0.0
 41
0.8
 50
0.0
 71
0
 42
0.2
  3
gdt
  4

  0
ENDTAB
  0
TABLE
  2
VIEW
  5
6
100
AcDbSymbolTable
 70
0
  0
ENDTAB
  0
TABLE
  2
UCS
  5
7
100
AcDbSymbolTable
 70
0
  0
ENDTAB
  0
TABLE
  2
APPID
  5
9
100
AcDbSymbolTable
 70
1
  0
APPID
  5
20F
100
AcDbSymbolTableRecord
100
AcDbRegAppTableRecord
  2
ACAD
 70
0
  0
ENDTAB
  0
TABLE
  2
BLOCK_RECORD
  5
1
100
AcDbSymbolTable
 70
0
  0
BLOCK_RECORD
  5
210
100
AcDbSymbolTableRecord
100
AcDbBlockTableRecord
  2
*Model_Space
  0
BLOCK_RECORD
  5
211
100
AcDbSymbolTableRecord
100
AcDbBlockTableRecord
  2
*Paper_Space
  0
BLOCK_RECORD
  5
212
100
AcDbSymbolTableRecord
100
AcDbBlockTableRecord
  2
_FILLED
  0
ENDTAB
  0
TABLE
  2
DIMSTYLE
  5
A
100
AcDbSymbolTable
 70
1
100
AcDbDimStyleTable
 71
0
  0
DIMSTYLE
105
213
100
AcDbSymbolTableRecord
100
AcDbDimStyleTableRecord
  2
STANDARD
 70
0
  3

  4

 40
1.0
 41
2.2798278187
 42
1.0
 43
0.38
 44
1.0
 45
0.0
 46
0.0
 47
0.01
 48
0.01
140
3.1917589461
141
0.09
142
0.0
143
25.4
144
1.0
145
0.0
146
1.0
147
0.625
 71
1
 72
0
 73
0
 74
0
 75
0
 76
0
 77
1
 78
8
 79
2
170
0
171
1
172
0
173
0
174
0
175
0
176
0
177
0
178
0
270
2
179
2
271
2
272
2
273
2
274
2
275
0
280
0
281
0
282
0
283
1
284
8
285
0
286
0
287
3
288
0
340
11
278
46
341
212
342
212
343
212
344
212
  0
ENDTAB
  0
ENDSEC
  0
SECTION
  2
BLOCKS
  0
BLOCK
  5
20
100
AcDbEntity
  8
0
100
AcDbBlockBegin
  2
*Model_Space
 70
0
 10
0.0
 20
0.0
 30
0.0
  3
*Model_Space
  1

  0
ENDBLK
  5
21
100
AcDbEntity
  8
0
100
AcDbBlockEnd
  0
BLOCK
  5
1C
100
AcDbEntity
  8
0
100
AcDbBlockBegin
  2
*Paper_Space
 70
0
 10
0.0
 20
0.0
 30
0.0
  3
*Paper_Space
  1

  0
ENDBLK
  5
1D
100
AcDbEntity
  8
0
100
AcDbBlockEnd
  0
BLOCK
  5
214
100
AcDbEntity
  8
0
100
AcDbBlockBegin
  2
_FILLED
 70
64
 10
0.0
 20
0.0
  3
_FILLED
  1

  0
SOLID
  5
215
100
AcDbEntity
  8
0
  6
BYBLOCK
 62
0
100
AcDbTrace
 10
0.0
 20
0.0
 11
-1.0
 21
0.25
 12
-1.0
 22
-0.25
 13
-1.0
 23
-0.25
  0
ENDBLK
  5
216
100
AcDbEntity
  8
0
  6
BYBLOCK
 62
0
100
AcDbBlockEnd
  0
ENDSEC
  0
SECTION
  2
ENTITIES
  0
LINE
  5
217
100
AcDbEntity
  8
0
100
AcDbLine
 62
7
  6
BYLAYER
 10
22.6548471587
 20
151.0847921225
 11
22.6548471587
 21
121.0847921225
  0
LINE
  5
218
100
AcDbEntity
  8
0
100
AcDbLine
 62
7
  6
BYLAYER
 10
45.8648471587
 20
142.1847921225
 11
45.8648471587
 21
129.9847921225
  0
LINE
  5
219
100
AcDbEntity
  8
0
100
AcDbLine
 62
7
  6
BYLAYER
 10
46.8848471587
 20
141.1097921225
 11
46.8848471587
 21
131.0597921225
  0
LINE
  5
21A
100
AcDbEntity
  8
0
100
AcDbLine
 62
7
  6
BYLAYER
 10
49.0248471587
 20
131.0597921225
 11
49.0248471587
 21
141.1097921225
  0
LINE
  5
21B
100
AcDbEntity
  8
0
100
AcDbLine
 62
7
  6
BYLAYER
 10
49.8648471587
 20
129.9847921225
 11
49.8648471587
 21
142.1847921225
  0
LINE
  5
21C
100
AcDbEntity
  8
0
100
AcDbLine
 62
7
  6
BYLAYER
 10
52.1548471587
 20
111.5847921324
 11
52.1548471587
 21
160.5847921234
  0
LINE
  5
21D
100
AcDbEntity
  8
0
100
AcDbLine
 62
7
  6
BYLAYER
 10
52.6548471587
 20
111.5848212125
 11
52.6548471587
 21
160.5847630289
  0
LINE
  5
21E
100
AcDbEntity
  8
0
100
AcDbLine
 62
7
  6
BYLAYER
 10
53.6548471587
 20
110.0847921225
 11
53.6548471587
 21
110.5847921225
  0
LINE
  5
21F
100
AcDbEntity
  8
0
100
AcDbLine
 62
7
  6
BYLAYER
 10
53.6548471587
 20
161.5847921225
 11
53.6548471587
 21
162.0847921225
  0
LINE
  5
220
100
AcDbEntity
  8
0
100
AcDbLine
 62
7
  6
BYLAYER
 10
55.1548471587
 20
119.0847921225
 11
55.1548471587
 21
153.0847921225
  0
LINE
  5
221
100
AcDbEntity
  8
0
100
AcDbLine
 62
7
  6
BYLAYER
 10
55.3468382501
 20
120.8847921225
 11
55.3468382501
 21
126.2539471543
  0
LINE
  5
222
100
AcDbEntity
  8
0
100
AcDbLine
 62
7
  6
BYLAYER
 10
55.3468382501
 20
145.9156370908
 11
55.3468382501
 21
151.2847921225
  0
LINE
  5
223
100
AcDbEntity
  8
0
100
AcDbLine
 62
7
  6
BYLAYER
 10
55.7155073305
 20
126.5241319508
 11
55.7155073305
 21
145.6454522943
  0
LINE
  5
224
100
AcDbEntity
  8
0
100
AcDbLine
 62
7
  6
BYLAYER
 10
56.2761675022
 20
127.0847921225
 11
56.2761675022
 21
145.0847921225
  0
LINE
  5
225
100
AcDbEntity
  8
0
100
AcDbLine
 62
7
  6
BYLAYER
 10
58.6548471587
 20
144.1505119723
 11
58.6548471587
 21
128.0190722728
  0
LINE
  5
226
100
AcDbEntity
  8
0
100
AcDbLine
 62
7
  6
BYLAYER
 10
59.1548471587
 20
144.0253804144
 11
59.1548471587
 21
128.1442038307
  0
LINE
  5
227
100
AcDbEntity
  8
0
100
AcDbLine
 62
7
  6
BYLAYER
 10
60.1548471587
 20
128.7977241158
 11
60.1548471587
 21
143.3718601293
  0
LINE
  5
228
100
AcDbEntity
  8
0
100
AcDbLine
 62
7
  6
BYLAYER
 10
60.3494563104
 20
128.896545087
 11
60.3494563104
 21
130.4347921225
  0
LINE
  5
229
100
AcDbEntity
  8
0
100
AcDbLine
 62
7
  6
BYLAYER
 10
60.3494563104
 20
141.7347921225
 11
60.3494563104
 21
143.2730391581
  0
LINE
  5
22A
100
AcDbEntity
  8
0
100
AcDbLine
 62
7
  6
BYLAYER
 10
70.1048471587
 20
160.5847921225
 11
70.1048471587
 21
156.2347921225
  0
LINE
  5
22B
100
AcDbEntity
  8
0
100
AcDbLine
 62
7
  6
BYLAYER
 10
70.1048471587
 20
115.9347921225
 11
70.1048471587
 21
111.5847921225
  0
LINE
  5
22C
100
AcDbEntity
  8
0
100
AcDbLine
 62
7
  6
BYLAYER
 10
77.7278939954
 20
154.6398735156
 11
77.6048471587
 21
154.4347921225
  0
LINE
  5
22D
100
AcDbEntity
  8
0
100
AcDbLine
 62
7
  6
BYLAYER
 10
53.6548471578
 20
110.0847921225
 11
135.6548471488
 21
110.0847921225
  0
LINE
  5
22E
100
AcDbEntity
  8
0
100
AcDbLine
 62
7
  6
BYLAYER
 10
77.7278939954
 20
117.5297107295
 11
77.6048471587
 21
117.7347921225
  0
LINE
  5
22F
100
AcDbEntity
  8
0
100
AcDbLine
 62
7
  6
BYLAYER
 10
74.4497657656
 20
119.5296345756
 11
74.4497657656
 21
124.3770926691
  0
LINE
  5
230
100
AcDbEntity
  8
0
100
AcDbLine
 62
7
  6
BYLAYER
 10
74.4497657656
 20
125.792491576
 11
74.4497657656
 21
130.4347921225
  0
LINE
  5
231
100
AcDbEntity
  8
0
100
AcDbLine
 62
7
  6
BYLAYER
 10
74.4497657656
 20
141.7347921225
 11
74.4497657656
 21
146.3770926691
  0
LINE
  5
232
100
AcDbEntity
  8
0
100
AcDbLine
 62
7
  6
BYLAYER
 10
74.4497657656
 20
147.792491576
 11
74.4497657656
 21
152.6399496695
  0
LINE
  5
233
100
AcDbEntity
  8
0
100
AcDbLine
 62
7
  6
BYLAYER
 10
74.6548471587
 20
152.4348682764
 11
74.6548471587
 21
147.5874101829
  0
LINE
  5
234
100
AcDbEntity
  8
0
100
AcDbLine
 62
7
  6
BYLAYER
 10
74.6548471587
 20
146.5821740622
 11
74.6548471587
 21
125.5874101829
  0
LINE
  5
235
100
AcDbEntity
  8
0
100
AcDbLine
 62
7
  6
BYLAYER
 10
74.6548471587
 20
124.5821740622
 11
74.6548471587
 21
119.7347159687
  0
LINE
  5
236
100
AcDbEntity
  8
0
100
AcDbLine
 62
7
  6
BYLAYER
 10
76.5818003219
 20
117.5297107295
 11
76.5818003219
 21
111.5847921225
  0
LINE
  5
237
100
AcDbEntity
  8
0
100
AcDbLine
 62
7
  6
BYLAYER
 10
76.5818003219
 20
154.6398735156
 11
76.5818003219
 21
160.5847921225
  0
LINE
  5
238
100
AcDbEntity
  8
0
100
AcDbLine
 62
7
  6
BYLAYER
 10
76.7048471587
 20
160.5847921225
 11
76.7048471587
 21
154.4347921225
  0
LINE
  5
239
100
AcDbEntity
  8
0
100
AcDbLine
 62
7
  6
BYLAYER
 10
76.7048471587
 20
117.7347921225
 11
76.7048471587
 21
111.5847921225
  0
LINE
  5
23A
100
AcDbEntity
  8
0
100
AcDbLine
 62
7
  6
BYLAYER
 10
77.1548471587
 20
125.8847921225
 11
77.1548471587
 21
126.2847921225
  0
LINE
  5
23B
100
AcDbEntity
  8
0
100
AcDbLine
 62
7
  6
BYLAYER
 10
77.1548471587
 20
145.8847921225
 11
77.1548471587
 21
146.2847921225
  0
LINE
  5
23C
100
AcDbEntity
  8
0
100
AcDbLine
 62
7
  6
BYLAYER
 10
77.6048471587
 20
111.5847921225
 11
77.6048471587
 21
117.7347921225
  0
LINE
  5
23D
100
AcDbEntity
  8
0
100
AcDbLine
 62
7
  6
BYLAYER
 10
77.6048471587
 20
154.4347921225
 11
77.6048471587
 21
160.5847921225
  0
LINE
  5
23E
100
AcDbEntity
  8
0
100
AcDbLine
 62
7
  6
BYLAYER
 10
77.7278939954
 20
117.5297107295
 11
77.7278939954
 21
111.5847921225
  0
LINE
  5
23F
100
AcDbEntity
  8
0
100
AcDbLine
 62
7
  6
BYLAYER
 10
77.7278939954
 20
154.6398735156
 11
77.7278939954
 21
160.5847921225
  0
LINE
  5
240
100
AcDbEntity
  8
0
100
AcDbLine
 62
7
  6
BYLAYER
 10
74.6548471587
 20
146.5821740622
 11
74.4497657656
 21
146.3770926691
  0
LINE
  5
241
100
AcDbEntity
  8
0
100
AcDbLine
 62
7
  6
BYLAYER
 10
55.7155073305
 20
126.5241319508
 11
56.2761675022
 21
127.0847921225
  0
LINE
  5
242
100
AcDbEntity
  8
0
100
AcDbLine
 62
7
  6
BYLAYER
 10
135.6548180687
 20
110.5847921225
 11
53.6548762523
 21
110.5847921225
  0
LINE
  5
243
100
AcDbEntity
  8
0
100
AcDbLine
 62
7
  6
BYLAYER
 10
137.1548471587
 20
111.5847921225
 11
136.6548471587
 21
111.5847921225
  0
LINE
  5
244
100
AcDbEntity
  8
0
100
AcDbLine
 62
7
  6
BYLAYER
 10
135.1548471587
 20
111.5847921225
 11
125.6548471587
 21
111.5847921225
  0
LINE
  5
245
100
AcDbEntity
  8
0
100
AcDbLine
 62
7
  6
BYLAYER
 10
52.6548471587
 20
111.5847921225
 11
52.1548471587
 21
111.5847921225
  0
LINE
  5
246
100
AcDbEntity
  8
0
100
AcDbLine
 62
7
  6
BYLAYER
 10
58.1548471587
 20
111.5847921225
 11
76.7048471587
 21
111.5847921225
  0
LINE
  5
247
100
AcDbEntity
  8
0
100
AcDbLine
 62
7
  6
BYLAYER
 10
77.6048471587
 20
111.5847921225
 11
90.7048471587
 21
111.5847921225
  0
LINE
  5
248
100
AcDbEntity
  8
0
100
AcDbLine
 62
7
  6
BYLAYER
 10
91.6048471587
 20
111.5847921225
 11
104.7048471587
 21
111.5847921225
  0
LINE
  5
249
100
AcDbEntity
  8
0
100
AcDbLine
 62
7
  6
BYLAYER
 10
105.6048471587
 20
111.5847921225
 11
123.6548471587
 21
111.5847921225
  0
LINE
  5
24A
100
AcDbEntity
  8
0
100
AcDbLine
 62
7
  6
BYLAYER
 10
58.1548471587
 20
112.9847921225
 11
65.1548471587
 21
112.9847921225
  0
LINE
  5
24B
100
AcDbEntity
  8
0
100
AcDbLine
 62
7
  6
BYLAYER
 10
173.8548471587
 20
114.7847921225
 11
148.4548471587
 21
114.7847921225
  0
LINE
  5
24C
100
AcDbEntity
  8
0
100
AcDbLine
 62
7
  6
BYLAYER
 10
174.1548471587
 20
115.0847921225
 11
148.1548471587
 21
115.0847921225
  0
LINE
  5
24D
100
AcDbEntity
  8
0
100
AcDbLine
 62
7
  6
BYLAYER
 10
74.6548471587
 20
125.5874101829
 11
74.4497657656
 21
125.792491576
  0
LINE
  5
24E
100
AcDbEntity
  8
0
100
AcDbLine
 62
7
  6
BYLAYER
 10
56.2761675022
 20
145.0847921225
 11
55.7155073305
 21
145.6454522943
  0
LINE
  5
24F
100
AcDbEntity
  8
0
100
AcDbLine
 62
7
  6
BYLAYER
 10
77.9548471587
 20
126.2847921225
 11
77.9548471587
 21
129.5847921225
  0
LINE
  5
250
100
AcDbEntity
  8
0
100
AcDbLine
 62
7
  6
BYLAYER
 10
77.9548471587
 20
142.5847921225
 11
77.9548471587
 21
145.8847921225
  0
LINE
  5
251
100
AcDbEntity
  8
0
100
AcDbLine
 62
7
  6
BYLAYER
 10
78.3548471587
 20
145.8847921225
 11
78.3548471587
 21
142.5847921225
  0
LINE
  5
252
100
AcDbEntity
  8
0
100
AcDbLine
 62
7
  6
BYLAYER
 10
78.3548471587
 20
129.5847921225
 11
78.3548471587
 21
126.2847921225
  0
LINE
  5
253
100
AcDbEntity
  8
0
100
AcDbLine
 62
7
  6
BYLAYER
 10
79.1548471587
 20
146.2847921225
 11
79.1548471587
 21
145.8847921225
  0
LINE
  5
254
100
AcDbEntity
  8
0
100
AcDbLine
 62
7
  6
BYLAYER
 10
79.1548471587
 20
126.2847921225
 11
79.1548471587
 21
125.8847921225
  0
LINE
  5
255
100
AcDbEntity
  8
0
100
AcDbLine
 62
7
  6
BYLAYER
 10
113.1548471587
 20
117.5297107295
 11
105.7278939954
 21
117.5297107295
  0
LINE
  5
256
100
AcDbEntity
  8
0
100
AcDbLine
 62
7
  6
BYLAYER
 10
104.5818003219
 20
117.5297107295
 11
91.7278939954
 21
117.5297107295
  0
LINE
  5
257
100
AcDbEntity
  8
0
100
AcDbLine
 62
7
  6
BYLAYER
 10
90.5818003219
 20
117.5297107295
 11
77.7278939954
 21
117.5297107295
  0
LINE
  5
258
100
AcDbEntity
  8
0
100
AcDbLine
 62
7
  6
BYLAYER
 10
76.5818003219
 20
117.5297107295
 11
76.4496896117
 21
117.5297107295
  0
LINE
  5
259
100
AcDbEntity
  8
0
100
AcDbLine
 62
7
  6
BYLAYER
 10
135.1548471587
 20
117.7347921225
 11
125.6548471587
 21
117.7347921225
  0
LINE
  5
25A
100
AcDbEntity
  8
0
100
AcDbLine
 62
7
  6
BYLAYER
 10
123.6548471587
 20
117.7347921225
 11
105.6048471587
 21
117.7347921225
  0
LINE
  5
25B
100
AcDbEntity
  8
0
100
AcDbLine
 62
7
  6
BYLAYER
 10
104.7048471587
 20
117.7347921225
 11
91.6048471587
 21
117.7347921225
  0
LINE
  5
25C
100
AcDbEntity
  8
0
100
AcDbLine
 62
7
  6
BYLAYER
 10
90.7048471587
 20
117.7347921225
 11
77.6048471587
 21
117.7347921225
  0
LINE
  5
25D
100
AcDbEntity
  8
0
100
AcDbLine
 62
7
  6
BYLAYER
 10
76.7048471587
 20
117.7347921225
 11
76.6547710048
 21
117.7347921225
  0
LINE
  5
25E
100
AcDbEntity
  8
0
100
AcDbLine
 62
7
  6
BYLAYER
 10
97.1548471587
 20
118.5847921225
 11
95.1548471587
 21
118.5847921225
  0
LINE
  5
25F
100
AcDbEntity
  8
0
100
AcDbLine
 62
7
  6
BYLAYER
 10
65.1548471587
 20
118.8847921225
 11
58.1548471587
 21
118.8847921225
  0
LINE
  5
260
100
AcDbEntity
  8
0
100
AcDbLine
 62
7
  6
BYLAYER
 10
95.1548471587
 20
118.9847921225
 11
95.9548471587
 21
118.9847921225
  0
LINE
  5
261
100
AcDbEntity
  8
0
100
AcDbLine
 62
7
  6
BYLAYER
 10
96.3548471587
 20
118.9847921225
 11
97.1548471587
 21
118.9847921225
  0
LINE
  5
262
100
AcDbEntity
  8
0
100
AcDbLine
 62
7
  6
BYLAYER
 10
112.1548471587
 20
120.0847921225
 11
110.1548471587
 21
120.0847921225
  0
LINE
  5
263
100
AcDbEntity
  8
0
100
AcDbLine
 62
7
  6
BYLAYER
 10
91.1548471587
 20
120.0847921225
 11
89.1548471587
 21
120.0847921225
  0
LINE
  5
264
100
AcDbEntity
  8
0
100
AcDbLine
 62
7
  6
BYLAYER
 10
89.1548471587
 20
120.4847921225
 11
89.9548471587
 21
120.4847921225
  0
LINE
  5
265
100
AcDbEntity
  8
0
100
AcDbLine
 62
7
  6
BYLAYER
 10
90.3548471587
 20
120.4847921225
 11
91.1548471587
 21
120.4847921225
  0
LINE
  5
266
100
AcDbEntity
  8
0
100
AcDbLine
 62
7
  6
BYLAYER
 10
110.1548471587
 20
120.4847921225
 11
110.9548471587
 21
120.4847921225
  0
LINE
  5
267
100
AcDbEntity
  8
0
100
AcDbLine
 62
7
  6
BYLAYER
 10
111.3548471587
 20
120.4847921225
 11
112.1548471587
 21
120.4847921225
  0
LINE
  5
268
100
AcDbEntity
  8
0
100
AcDbLine
 62
7
  6
BYLAYER
 10
83.1548471587
 20
124.8847921225
 11
83.1548471587
 21
125.2847921225
  0
LINE
  5
269
100
AcDbEntity
  8
0
100
AcDbLine
 62
7
  6
BYLAYER
 10
83.1548471587
 20
146.8847921225
 11
83.1548471587
 21
147.2847921225
  0
LINE
  5
26A
100
AcDbEntity
  8
0
100
AcDbLine
 62
7
  6
BYLAYER
 10
83.9548471587
 20
125.2847921225
 11
83.9548471587
 21
129.5847921225
  0
LINE
  5
26B
100
AcDbEntity
  8
0
100
AcDbLine
 62
7
  6
BYLAYER
 10
83.9548471587
 20
142.5847921225
 11
83.9548471587
 21
146.8847921225
  0
LINE
  5
26C
100
AcDbEntity
  8
0
100
AcDbLine
 62
7
  6
BYLAYER
 10
84.3548471587
 20
146.8847921225
 11
84.3548471587
 21
142.5847921225
  0
LINE
  5
26D
100
AcDbEntity
  8
0
100
AcDbLine
 62
7
  6
BYLAYER
 10
84.3548471587
 20
129.5847921225
 11
84.3548471587
 21
125.2847921225
  0
LINE
  5
26E
100
AcDbEntity
  8
0
100
AcDbLine
 62
7
  6
BYLAYER
 10
85.1548471587
 20
147.2847921225
 11
85.1548471587
 21
146.8847921225
  0
LINE
  5
26F
100
AcDbEntity
  8
0
100
AcDbLine
 62
7
  6
BYLAYER
 10
85.1548471587
 20
125.2847921225
 11
85.1548471587
 21
124.8847921225
  0
LINE
  5
270
100
AcDbEntity
  8
0
100
AcDbLine
 62
7
  6
BYLAYER
 10
91.7278939954
 20
154.6398735156
 11
91.6048471587
 21
154.4347921225
  0
LINE
  5
271
100
AcDbEntity
  8
0
100
AcDbLine
 62
7
  6
BYLAYER
 10
55.1548471587
 20
120.8847921225
 11
65.1548471587
 21
120.8847921225
  0
LINE
  5
272
100
AcDbEntity
  8
0
100
AcDbLine
 62
7
  6
BYLAYER
 10
22.6548471587
 20
121.0847921225
 11
52.1548471587
 21
121.0847921225
  0
LINE
  5
273
100
AcDbEntity
  8
0
100
AcDbLine
 62
7
  6
BYLAYER
 10
63.6548471587
 20
121.9847921225
 11
59.6548471587
 21
121.9847921225
  0
LINE
  5
274
100
AcDbEntity
  8
0
100
AcDbLine
 62
7
  6
BYLAYER
 10
59.6548471587
 20
122.9847921225
 11
63.6548471587
 21
122.9847921225
  0
LINE
  5
275
100
AcDbEntity
  8
0
100
AcDbLine
 62
7
  6
BYLAYER
 10
74.4497657656
 20
124.3770926691
 11
69.8839847294
 21
124.3770926691
  0
LINE
  5
276
100
AcDbEntity
  8
0
100
AcDbLine
 62
7
  6
BYLAYER
 10
66.6760254266
 20
124.3901829708
 11
69.8800342412
 21
124.3901829708
  0
LINE
  5
277
100
AcDbEntity
  8
0
100
AcDbLine
 62
7
  6
BYLAYER
 10
74.6548471587
 20
124.5821740622
 11
74.1522100672
 21
124.5821740622
  0
LINE
  5
278
100
AcDbEntity
  8
0
100
AcDbLine
 62
7
  6
BYLAYER
 10
66.7142588668
 20
124.5847921225
 11
74.1548185114
 21
124.5847921225
  0
LINE
  5
279
100
AcDbEntity
  8
0
100
AcDbLine
 62
7
  6
BYLAYER
 10
85.1548471587
 20
124.8847921225
 11
83.1548471587
 21
124.8847921225
  0
LINE
  5
27A
100
AcDbEntity
  8
0
100
AcDbLine
 62
7
  6
BYLAYER
 10
83.1548471587
 20
125.2847921225
 11
83.9548471587
 21
125.2847921225
  0
LINE
  5
27B
100
AcDbEntity
  8
0
100
AcDbLine
 62
7
  6
BYLAYER
 10
84.3548471587
 20
125.2847921225
 11
85.1548471587
 21
125.2847921225
  0
LINE
  5
27C
100
AcDbEntity
  8
0
100
AcDbLine
 62
7
  6
BYLAYER
 10
74.1549395894
 20
125.5847921662
 11
66.7142588668
 21
125.5847921225
  0
LINE
  5
27D
100
AcDbEntity
  8
0
100
AcDbLine
 62
7
  6
BYLAYER
 10
74.152209829
 20
125.5874101829
 11
74.6548471587
 21
125.5874101829
  0
LINE
  5
27E
100
AcDbEntity
  8
0
100
AcDbLine
 62
7
  6
BYLAYER
 10
69.4879105991
 20
125.7794012743
 11
66.6760254266
 21
125.7794012743
  0
LINE
  5
27F
100
AcDbEntity
  8
0
100
AcDbLine
 62
7
  6
BYLAYER
 10
74.4497657656
 20
125.792491576
 11
69.484468689
 21
125.792491576
  0
LINE
  5
280
100
AcDbEntity
  8
0
100
AcDbLine
 62
7
  6
BYLAYER
 10
79.1548471587
 20
125.8847921225
 11
77.1548471587
 21
125.8847921225
  0
LINE
  5
281
100
AcDbEntity
  8
0
100
AcDbLine
 62
7
  6
BYLAYER
 10
91.7278939954
 20
117.5297107295
 11
91.6048471587
 21
117.7347921225
  0
LINE
  5
282
100
AcDbEntity
  8
0
100
AcDbLine
 62
7
  6
BYLAYER
 10
89.1548471587
 20
120.0847921225
 11
89.1548471587
 21
120.4847921225
  0
LINE
  5
283
100
AcDbEntity
  8
0
100
AcDbLine
 62
7
  6
BYLAYER
 10
89.1548471587
 20
151.6847921225
 11
89.1548471587
 21
152.0847921225
  0
LINE
  5
284
100
AcDbEntity
  8
0
100
AcDbLine
 62
7
  6
BYLAYER
 10
89.9548471587
 20
120.4847921225
 11
89.9548471587
 21
129.5847921225
  0
LINE
  5
285
100
AcDbEntity
  8
0
100
AcDbLine
 62
7
  6
BYLAYER
 10
89.9548471587
 20
142.5847921225
 11
89.9548471587
 21
151.6847921225
  0
LINE
  5
286
100
AcDbEntity
  8
0
100
AcDbLine
 62
7
  6
BYLAYER
 10
90.3548471587
 20
151.6847921225
 11
90.3548471587
 21
142.5847921225
  0
LINE
  5
287
100
AcDbEntity
  8
0
100
AcDbLine
 62
7
  6
BYLAYER
 10
90.3548471587
 20
129.5847921225
 11
90.3548471587
 21
120.4847921225
  0
LINE
  5
288
100
AcDbEntity
  8
0
100
AcDbLine
 62
7
  6
BYLAYER
 10
90.5818003219
 20
117.5297107295
 11
90.5818003219
 21
111.5847921225
  0
LINE
  5
289
100
AcDbEntity
  8
0
100
AcDbLine
 62
7
  6
BYLAYER
 10
90.5818003219
 20
154.6398735156
 11
90.5818003219
 21
160.5847921225
  0
LINE
  5
28A
100
AcDbEntity
  8
0
100
AcDbLine
 62
7
  6
BYLAYER
 10
90.7048471587
 20
160.5847921225
 11
90.7048471587
 21
154.4347921225
  0
LINE
  5
28B
100
AcDbEntity
  8
0
100
AcDbLine
 62
7
  6
BYLAYER
 10
90.7048471587
 20
117.7347921225
 11
90.7048471587
 21
111.5847921225
  0
LINE
  5
28C
100
AcDbEntity
  8
0
100
AcDbLine
 62
7
  6
BYLAYER
 10
91.1548471587
 20
152.0847921225
 11
91.1548471587
 21
151.6847921225
  0
LINE
  5
28D
100
AcDbEntity
  8
0
100
AcDbLine
 62
7
  6
BYLAYER
 10
91.1548471587
 20
120.4847921225
 11
91.1548471587
 21
120.0847921225
  0
LINE
  5
28E
100
AcDbEntity
  8
0
100
AcDbLine
 62
7
  6
BYLAYER
 10
91.6048471587
 20
111.5847921225
 11
91.6048471587
 21
117.7347921225
  0
LINE
  5
28F
100
AcDbEntity
  8
0
100
AcDbLine
 62
7
  6
BYLAYER
 10
91.6048471587
 20
154.4347921225
 11
91.6048471587
 21
160.5847921225
  0
LINE
  5
290
100
AcDbEntity
  8
0
100
AcDbLine
 62
7
  6
BYLAYER
 10
91.7278939954
 20
117.5297107295
 11
91.7278939954
 21
111.5847921225
  0
LINE
  5
291
100
AcDbEntity
  8
0
100
AcDbLine
 62
7
  6
BYLAYER
 10
91.7278939954
 20
154.6398735156
 11
91.7278939954
 21
160.5847921225
  0
LINE
  5
292
100
AcDbEntity
  8
0
100
AcDbLine
 62
7
  6
BYLAYER
 10
76.5818003219
 20
117.5297107295
 11
76.7048471587
 21
117.7347921225
  0
LINE
  5
293
100
AcDbEntity
  8
0
100
AcDbLine
 62
7
  6
BYLAYER
 10
74.6548471587
 20
124.5821740622
 11
74.4497657656
 21
124.3770926691
  0
LINE
  5
294
100
AcDbEntity
  8
0
100
AcDbLine
 62
7
  6
BYLAYER
 10
74.4497657656
 20
119.5296345756
 11
74.6548471587
 21
119.7347159687
  0
LINE
  5
295
100
AcDbEntity
  8
0
100
AcDbLine
 62
7
  6
BYLAYER
 10
77.1548471587
 20
126.2847921225
 11
77.9548471587
 21
126.2847921225
  0
LINE
  5
296
100
AcDbEntity
  8
0
100
AcDbLine
 62
7
  6
BYLAYER
 10
78.3548471587
 20
126.2847921225
 11
79.1548471587
 21
126.2847921225
  0
LINE
  5
297
100
AcDbEntity
  8
0
100
AcDbLine
 62
7
  6
BYLAYER
 10
56.2761675022
 20
127.0847921225
 11
57.2863033022
 21
127.0847921225
  0
LINE
  5
298
100
AcDbEntity
  8
0
100
AcDbLine
 62
7
  6
BYLAYER
 10
63.6548471587
 20
127.1847921225
 11
63.4437015407
 21
127.1847921225
  0
LINE
  5
299
100
AcDbEntity
  8
0
100
AcDbLine
 62
7
  6
BYLAYER
 10
59.8659927767
 20
127.1847921225
 11
59.6548471587
 21
127.1847921225
  0
LINE
  5
29A
100
AcDbEntity
  8
0
100
AcDbLine
 62
7
  6
BYLAYER
 10
77.9548471587
 20
129.5847921225
 11
78.3548471587
 21
129.5847921225
  0
LINE
  5
29B
100
AcDbEntity
  8
0
100
AcDbLine
 62
7
  6
BYLAYER
 10
83.9548471587
 20
129.5847921225
 11
84.3548471587
 21
129.5847921225
  0
LINE
  5
29C
100
AcDbEntity
  8
0
100
AcDbLine
 62
7
  6
BYLAYER
 10
89.9548471587
 20
129.5847921225
 11
90.3548471587
 21
129.5847921225
  0
LINE
  5
29D
100
AcDbEntity
  8
0
100
AcDbLine
 62
7
  6
BYLAYER
 10
95.9548471587
 20
129.5847921225
 11
96.3548471587
 21
129.5847921225
  0
LINE
  5
29E
100
AcDbEntity
  8
0
100
AcDbLine
 62
7
  6
BYLAYER
 10
110.9548471587
 20
129.5847921225
 11
111.3548471587
 21
129.5847921225
  0
LINE
  5
29F
100
AcDbEntity
  8
0
100
AcDbLine
 62
7
  6
BYLAYER
 10
49.8648471587
 20
129.9847921225
 11
45.8648471587
 21
129.9847921225
  0
LINE
  5
2A0
100
AcDbEntity
  8
0
100
AcDbLine
 62
7
  6
BYLAYER
 10
60.2883682359
 20
130.4347921225
 11
74.5239441418
 21
130.4347921225
  0
LINE
  5
2A1
100
AcDbEntity
  8
0
100
AcDbLine
 62
7
  6
BYLAYER
 10
45.8648471587
 20
131.0597921225
 11
49.8648471587
 21
131.0597921225
  0
LINE
  5
2A2
100
AcDbEntity
  8
0
100
AcDbLine
 62
7
  6
BYLAYER
 10
74.6548471587
 20
147.5874101829
 11
74.4497657656
 21
147.792491576
  0
LINE
  5
2A3
100
AcDbEntity
  8
0
100
AcDbLine
 62
7
  6
BYLAYER
 10
74.6548471587
 20
152.4348682764
 11
74.4497657656
 21
152.6399496695
  0
LINE
  5
2A4
100
AcDbEntity
  8
0
100
AcDbLine
 62
7
  6
BYLAYER
 10
76.5818003219
 20
154.6398735156
 11
76.7048471587
 21
154.4347921225
  0
LINE
  5
2A5
100
AcDbEntity
  8
0
100
AcDbLine
 62
7
  6
BYLAYER
 10
95.1548471587
 20
118.5847921225
 11
95.1548471587
 21
118.9847921225
  0
LINE
  5
2A6
100
AcDbEntity
  8
0
100
AcDbLine
 62
7
  6
BYLAYER
 10
95.1548471587
 20
153.1847921225
 11
95.1548471587
 21
153.5847921225
  0
LINE
  5
2A7
100
AcDbEntity
  8
0
100
AcDbLine
 62
7
  6
BYLAYER
 10
95.9548471587
 20
118.9847921225
 11
95.9548471587
 21
129.5847921225
  0
LINE
  5
2A8
100
AcDbEntity
  8
0
100
AcDbLine
 62
7
  6
BYLAYER
 10
95.9548471587
 20
142.5847921225
 11
95.9548471587
 21
153.1847921225
  0
LINE
  5
2A9
100
AcDbEntity
  8
0
100
AcDbLine
 62
7
  6
BYLAYER
 10
96.3548471587
 20
153.1847921225
 11
96.3548471587
 21
142.5847921225
  0
LINE
  5
2AA
100
AcDbEntity
  8
0
100
AcDbLine
 62
7
  6
BYLAYER
 10
96.3548471587
 20
129.5847921225
 11
96.3548471587
 21
118.9847921225
  0
LINE
  5
2AB
100
AcDbEntity
  8
0
100
AcDbLine
 62
7
  6
BYLAYER
 10
97.1548471587
 20
153.5847921225
 11
97.1548471587
 21
153.1847921225
  0
LINE
  5
2AC
100
AcDbEntity
  8
0
100
AcDbLine
 62
7
  6
BYLAYER
 10
97.1548471587
 20
118.9847921225
 11
97.1548471587
 21
118.5847921225
  0
LINE
  5
2AD
100
AcDbEntity
  8
0
100
AcDbLine
 62
7
  6
BYLAYER
 10
105.7278939954
 20
154.6398735156
 11
105.6048471587
 21
154.4347921225
  0
LINE
  5
2AE
100
AcDbEntity
  8
0
100
AcDbLine
 62
7
  6
BYLAYER
 10
76.6547710048
 20
117.7347921225
 11
76.4496896117
 21
117.5297107295
  0
LINE
  5
2AF
100
AcDbEntity
  8
0
100
AcDbLine
 62
7
  6
BYLAYER
 10
74.5590666679
 20
132.119347649
 11
60.2532457098
 21
132.119347649
  0
LINE
  5
2B0
100
AcDbEntity
  8
0
100
AcDbLine
 62
7
  6
BYLAYER
 10
148.1548471587
 20
135.7847921225
 11
174.1548471587
 21
135.7847921225
  0
LINE
  5
2B1
100
AcDbEntity
  8
0
100
AcDbLine
 62
7
  6
BYLAYER
 10
148.4548471587
 20
136.0847921225
 11
173.8548471587
 21
136.0847921225
  0
LINE
  5
2B2
100
AcDbEntity
  8
0
100
AcDbLine
 62
7
  6
BYLAYER
 10
76.4496896117
 20
154.6398735156
 11
76.6547710048
 21
154.4347921225
  0
LINE
  5
2B3
100
AcDbEntity
  8
0
100
AcDbLine
 62
7
  6
BYLAYER
 10
105.7278939954
 20
117.5297107295
 11
105.6048471587
 21
117.7347921225
  0
LINE
  5
2B4
100
AcDbEntity
  8
0
100
AcDbLine
 62
7
  6
BYLAYER
 10
90.5818003219
 20
117.5297107295
 11
90.7048471587
 21
117.7347921225
  0
LINE
  5
2B5
100
AcDbEntity
  8
0
100
AcDbLine
 62
7
  6
BYLAYER
 10
170.4548471587
 20
138.0847921225
 11
151.8548471587
 21
138.0847921225
  0
LINE
  5
2B6
100
AcDbEntity
  8
0
100
AcDbLine
 62
7
  6
BYLAYER
 10
74.5590666454
 20
140.050236596
 11
60.2532457323
 21
140.050236596
  0
LINE
  5
2B7
100
AcDbEntity
  8
0
100
AcDbLine
 62
7
  6
BYLAYER
 10
45.8648471587
 20
141.1097921225
 11
49.8648471587
 21
141.1097921225
  0
LINE
  5
2B8
100
AcDbEntity
  8
0
100
AcDbLine
 62
7
  6
BYLAYER
 10
74.5239441418
 20
141.7347921225
 11
60.2883682359
 21
141.7347921225
  0
LINE
  5
2B9
100
AcDbEntity
  8
0
100
AcDbLine
 62
7
  6
BYLAYER
 10
90.5818003219
 20
154.6398735156
 11
90.7048471587
 21
154.4347921225
  0
LINE
  5
2BA
100
AcDbEntity
  8
0
100
AcDbLine
 62
7
  6
BYLAYER
 10
104.5818003219
 20
117.5297107295
 11
104.5818003219
 21
111.5847921225
  0
LINE
  5
2BB
100
AcDbEntity
  8
0
100
AcDbLine
 62
7
  6
BYLAYER
 10
104.5818003219
 20
154.6398735156
 11
104.5818003219
 21
160.5847921225
  0
LINE
  5
2BC
100
AcDbEntity
  8
0
100
AcDbLine
 62
7
  6
BYLAYER
 10
104.7048471587
 20
160.5847921225
 11
104.7048471587
 21
154.4347921225
  0
LINE
  5
2BD
100
AcDbEntity
  8
0
100
AcDbLine
 62
7
  6
BYLAYER
 10
104.7048471587
 20
117.7347921225
 11
104.7048471587
 21
111.5847921225
  0
LINE
  5
2BE
100
AcDbEntity
  8
0
100
AcDbLine
 62
7
  6
BYLAYER
 10
105.6048471587
 20
111.5847921225
 11
105.6048471587
 21
117.7347921225
  0
LINE
  5
2BF
100
AcDbEntity
  8
0
100
AcDbLine
 62
7
  6
BYLAYER
 10
105.6048471587
 20
154.4347921225
 11
105.6048471587
 21
160.5847921225
  0
LINE
  5
2C0
100
AcDbEntity
  8
0
100
AcDbLine
 62
7
  6
BYLAYER
 10
105.7278939954
 20
117.5297107295
 11
105.7278939954
 21
111.5847921225
  0
LINE
  5
2C1
100
AcDbEntity
  8
0
100
AcDbLine
 62
7
  6
BYLAYER
 10
105.7278939954
 20
154.6398735156
 11
105.7278939954
 21
160.5847921225
  0
LINE
  5
2C2
100
AcDbEntity
  8
0
100
AcDbLine
 62
7
  6
BYLAYER
 10
45.8648471587
 20
142.1847921225
 11
49.8648471587
 21
142.1847921225
  0
LINE
  5
2C3
100
AcDbEntity
  8
0
100
AcDbLine
 62
7
  6
BYLAYER
 10
151.8548471587
 20
142.2847921225
 11
170.4548471587
 21
142.2847921225
  0
LINE
  5
2C4
100
AcDbEntity
  8
0
100
AcDbLine
 62
7
  6
BYLAYER
 10
111.3548471587
 20
142.5847921225
 11
110.9548471587
 21
142.5847921225
  0
LINE
  5
2C5
100
AcDbEntity
  8
0
100
AcDbLine
 62
7
  6
BYLAYER
 10
96.3548471587
 20
142.5847921225
 11
95.9548471587
 21
142.5847921225
  0
LINE
  5
2C6
100
AcDbEntity
  8
0
100
AcDbLine
 62
7
  6
BYLAYER
 10
90.3548471587
 20
142.5847921225
 11
89.9548471587
 21
142.5847921225
  0
LINE
  5
2C7
100
AcDbEntity
  8
0
100
AcDbLine
 62
7
  6
BYLAYER
 10
84.3548471587
 20
142.5847921225
 11
83.9548471587
 21
142.5847921225
  0
LINE
  5
2C8
100
AcDbEntity
  8
0
100
AcDbLine
 62
7
  6
BYLAYER
 10
78.3548471587
 20
142.5847921225
 11
77.9548471587
 21
142.5847921225
  0
LINE
  5
2C9
100
AcDbEntity
  8
0
100
AcDbLine
 62
7
  6
BYLAYER
 10
152.6548561574
 20
143.0847921225
 11
169.65483816
 21
143.0847921225
  0
LINE
  5
2CA
100
AcDbEntity
  8
0
100
AcDbLine
 62
7
  6
BYLAYER
 10
59.6548471587
 20
144.9847921225
 11
59.8659927767
 21
144.9847921225
  0
LINE
  5
2CB
100
AcDbEntity
  8
0
100
AcDbLine
 62
7
  6
BYLAYER
 10
63.4437015407
 20
144.9847921225
 11
63.6548471587
 21
144.9847921225
  0
LINE
  5
2CC
100
AcDbEntity
  8
0
100
AcDbLine
 62
7
  6
BYLAYER
 10
57.2863033022
 20
145.0847921225
 11
56.2761675022
 21
145.0847921225
  0
LINE
  5
2CD
100
AcDbEntity
  8
0
100
AcDbLine
 62
7
  6
BYLAYER
 10
79.1548471587
 20
145.8847921225
 11
78.3548471587
 21
145.8847921225
  0
LINE
  5
2CE
100
AcDbEntity
  8
0
100
AcDbLine
 62
7
  6
BYLAYER
 10
77.9548471587
 20
145.8847921225
 11
77.1548471587
 21
145.8847921225
  0
LINE
  5
2CF
100
AcDbEntity
  8
0
100
AcDbLine
 62
7
  6
BYLAYER
 10
77.1548471587
 20
146.2847921225
 11
79.1548471587
 21
146.2847921225
  0
LINE
  5
2D0
100
AcDbEntity
  8
0
100
AcDbLine
 62
7
  6
BYLAYER
 10
74.4497657656
 20
146.3770926691
 11
69.484468689
 21
146.3770926691
  0
LINE
  5
2D1
100
AcDbEntity
  8
0
100
AcDbLine
 62
7
  6
BYLAYER
 10
66.6760254266
 20
146.3901829708
 11
69.4879105991
 21
146.3901829708
  0
LINE
  5
2D2
100
AcDbEntity
  8
0
100
AcDbLine
 62
7
  6
BYLAYER
 10
74.6548471587
 20
146.5821740622
 11
74.1522100672
 21
146.5821740622
  0
LINE
  5
2D3
100
AcDbEntity
  8
0
100
AcDbLine
 62
7
  6
BYLAYER
 10
66.7142588668
 20
146.5847921225
 11
74.1548185114
 21
146.5847921225
  0
LINE
  5
2D4
100
AcDbEntity
  8
0
100
AcDbLine
 62
7
  6
BYLAYER
 10
85.1548471587
 20
146.8847921225
 11
84.3548471587
 21
146.8847921225
  0
LINE
  5
2D5
100
AcDbEntity
  8
0
100
AcDbLine
 62
7
  6
BYLAYER
 10
83.9548471587
 20
146.8847921225
 11
83.1548471587
 21
146.8847921225
  0
LINE
  5
2D6
100
AcDbEntity
  8
0
100
AcDbLine
 62
7
  6
BYLAYER
 10
83.1548471587
 20
147.2847921225
 11
85.1548471587
 21
147.2847921225
  0
LINE
  5
2D7
100
AcDbEntity
  8
0
100
AcDbLine
 62
7
  6
BYLAYER
 10
110.1548471587
 20
120.0847921225
 11
110.1548471587
 21
120.4847921225
  0
LINE
  5
2D8
100
AcDbEntity
  8
0
100
AcDbLine
 62
7
  6
BYLAYER
 10
110.1548471587
 20
151.6847921225
 11
110.1548471587
 21
152.0847921225
  0
LINE
  5
2D9
100
AcDbEntity
  8
0
100
AcDbLine
 62
7
  6
BYLAYER
 10
110.9548471587
 20
120.4847921225
 11
110.9548471587
 21
129.5847921225
  0
LINE
  5
2DA
100
AcDbEntity
  8
0
100
AcDbLine
 62
7
  6
BYLAYER
 10
110.9548471587
 20
142.5847921225
 11
110.9548471587
 21
151.6847921225
  0
LINE
  5
2DB
100
AcDbEntity
  8
0
100
AcDbLine
 62
7
  6
BYLAYER
 10
111.3548471587
 20
151.6847921225
 11
111.3548471587
 21
142.5847921225
  0
LINE
  5
2DC
100
AcDbEntity
  8
0
100
AcDbLine
 62
7
  6
BYLAYER
 10
111.3548471587
 20
129.5847921225
 11
111.3548471587
 21
120.4847921225
  0
LINE
  5
2DD
100
AcDbEntity
  8
0
100
AcDbLine
 62
7
  6
BYLAYER
 10
112.1548471587
 20
152.0847921225
 11
112.1548471587
 21
151.6847921225
  0
LINE
  5
2DE
100
AcDbEntity
  8
0
100
AcDbLine
 62
7
  6
BYLAYER
 10
112.1548471587
 20
120.4847921225
 11
112.1548471587
 21
120.0847921225
  0
LINE
  5
2DF
100
AcDbEntity
  8
0
100
AcDbLine
 62
7
  6
BYLAYER
 10
113.1548471587
 20
160.5847921225
 11
113.1548471587
 21
154.5438779699
  0
LINE
  5
2E0
100
AcDbEntity
  8
0
100
AcDbLine
 62
7
  6
BYLAYER
 10
113.1548471587
 20
117.6257062752
 11
113.1548471587
 21
111.5847921225
  0
LINE
  5
2E1
100
AcDbEntity
  8
0
100
AcDbLine
 62
7
  6
BYLAYER
 10
104.5818003219
 20
117.5297107295
 11
104.7048471587
 21
117.7347921225
  0
LINE
  5
2E2
100
AcDbEntity
  8
0
100
AcDbLine
 62
7
  6
BYLAYER
 10
74.1549395895
 20
147.5847921662
 11
66.7142588668
 21
147.5847921225
  0
LINE
  5
2E3
100
AcDbEntity
  8
0
100
AcDbLine
 62
7
  6
BYLAYER
 10
74.152209829
 20
147.5874101829
 11
74.6548471587
 21
147.5874101829
  0
LINE
  5
2E4
100
AcDbEntity
  8
0
100
AcDbLine
 62
7
  6
BYLAYER
 10
69.8800342412
 20
147.7794012743
 11
66.6760254266
 21
147.7794012743
  0
LINE
  5
2E5
100
AcDbEntity
  8
0
100
AcDbLine
 62
7
  6
BYLAYER
 10
74.4497657656
 20
147.792491576
 11
69.8839847294
 21
147.792491576
  0
LINE
  5
2E6
100
AcDbEntity
  8
0
100
AcDbLine
 62
7
  6
BYLAYER
 10
63.6548471587
 20
149.1847921225
 11
59.6548471587
 21
149.1847921225
  0
LINE
  5
2E7
100
AcDbEntity
  8
0
100
AcDbLine
 62
7
  6
BYLAYER
 10
59.6548471587
 20
150.1847921225
 11
63.6548471587
 21
150.1847921225
  0
LINE
  5
2E8
100
AcDbEntity
  8
0
100
AcDbLine
 62
7
  6
BYLAYER
 10
52.1548471587
 20
151.0847921225
 11
22.6548471587
 21
151.0847921225
  0
LINE
  5
2E9
100
AcDbEntity
  8
0
100
AcDbLine
 62
7
  6
BYLAYER
 10
65.1548471587
 20
151.2847921225
 11
55.1548471587
 21
151.2847921225
  0
LINE
  5
2EA
100
AcDbEntity
  8
0
100
AcDbLine
 62
7
  6
BYLAYER
 10
112.1548471587
 20
151.6847921225
 11
111.3548471587
 21
151.6847921225
  0
LINE
  5
2EB
100
AcDbEntity
  8
0
100
AcDbLine
 62
7
  6
BYLAYER
 10
110.9548471587
 20
151.6847921225
 11
110.1548471587
 21
151.6847921225
  0
LINE
  5
2EC
100
AcDbEntity
  8
0
100
AcDbLine
 62
7
  6
BYLAYER
 10
91.1548471587
 20
151.6847921225
 11
90.3548471587
 21
151.6847921225
  0
LINE
  5
2ED
100
AcDbEntity
  8
0
100
AcDbLine
 62
7
  6
BYLAYER
 10
89.9548471587
 20
151.6847921225
 11
89.1548471587
 21
151.6847921225
  0
LINE
  5
2EE
100
AcDbEntity
  8
0
100
AcDbLine
 62
7
  6
BYLAYER
 10
89.1548471587
 20
152.0847921225
 11
91.1548471587
 21
152.0847921225
  0
LINE
  5
2EF
100
AcDbEntity
  8
0
100
AcDbLine
 62
7
  6
BYLAYER
 10
110.1548471587
 20
152.0847921225
 11
112.1548471587
 21
152.0847921225
  0
LINE
  5
2F0
100
AcDbEntity
  8
0
100
AcDbLine
 62
7
  6
BYLAYER
 10
104.5818003219
 20
154.6398735156
 11
104.7048471587
 21
154.4347921225
  0
LINE
  5
2F1
100
AcDbEntity
  8
0
100
AcDbLine
 62
7
  6
BYLAYER
 10
116.6548471587
 20
122.5847921225
 11
116.6548471587
 21
149.5847921225
  0
LINE
  5
2F2
100
AcDbEntity
  8
0
100
AcDbLine
 62
7
  6
BYLAYER
 10
97.1548471587
 20
153.1847921225
 11
96.3548471587
 21
153.1847921225
  0
LINE
  5
2F3
100
AcDbEntity
  8
0
100
AcDbLine
 62
7
  6
BYLAYER
 10
95.9548471587
 20
153.1847921225
 11
95.1548471587
 21
153.1847921225
  0
LINE
  5
2F4
100
AcDbEntity
  8
0
100
AcDbLine
 62
7
  6
BYLAYER
 10
58.1548471587
 20
153.2847921225
 11
65.1548471587
 21
153.2847921225
  0
LINE
  5
2F5
100
AcDbEntity
  8
0
100
AcDbLine
 62
7
  6
BYLAYER
 10
95.1548471587
 20
153.5847921225
 11
97.1548471587
 21
153.5847921225
  0
LINE
  5
2F6
100
AcDbEntity
  8
0
100
AcDbLine
 62
7
  6
BYLAYER
 10
76.6547710048
 20
154.4347921225
 11
76.7048471587
 21
154.4347921225
  0
LINE
  5
2F7
100
AcDbEntity
  8
0
100
AcDbLine
 62
7
  6
BYLAYER
 10
77.6048471587
 20
154.4347921225
 11
90.7048471587
 21
154.4347921225
  0
LINE
  5
2F8
100
AcDbEntity
  8
0
100
AcDbLine
 62
7
  6
BYLAYER
 10
91.6048471587
 20
154.4347921225
 11
104.7048471587
 21
154.4347921225
  0
LINE
  5
2F9
100
AcDbEntity
  8
0
100
AcDbLine
 62
7
  6
BYLAYER
 10
105.6048471587
 20
154.4347921225
 11
123.6548471587
 21
154.4347921225
  0
LINE
  5
2FA
100
AcDbEntity
  8
0
100
AcDbLine
 62
7
  6
BYLAYER
 10
125.6548471587
 20
154.4347921225
 11
135.1548471587
 21
154.4347921225
  0
LINE
  5
2FB
100
AcDbEntity
  8
0
100
AcDbLine
 62
7
  6
BYLAYER
 10
76.4496896117
 20
154.6398735156
 11
76.5818003219
 21
154.6398735156
  0
LINE
  5
2FC
100
AcDbEntity
  8
0
100
AcDbLine
 62
7
  6
BYLAYER
 10
77.7278939954
 20
154.6398735156
 11
90.5818003219
 21
154.6398735156
  0
LINE
  5
2FD
100
AcDbEntity
  8
0
100
AcDbLine
 62
7
  6
BYLAYER
 10
91.7278939954
 20
154.6398735156
 11
104.5818003219
 21
154.6398735156
  0
LINE
  5
2FE
100
AcDbEntity
  8
0
100
AcDbLine
 62
7
  6
BYLAYER
 10
105.7278939954
 20
154.6398735156
 11
113.1548471587
 21
154.6398735156
  0
LINE
  5
2FF
100
AcDbEntity
  8
0
100
AcDbLine
 62
7
  6
BYLAYER
 10
148.1548471587
 20
115.0847921225
 11
148.4548471587
 21
114.7847921225
  0
LINE
  5
300
100
AcDbEntity
  8
0
100
AcDbLine
 62
7
  6
BYLAYER
 10
123.6548471587
 20
160.5847921225
 11
123.6548471587
 21
154.4347921225
  0
LINE
  5
301
100
AcDbEntity
  8
0
100
AcDbLine
 62
7
  6
BYLAYER
 10
123.6548471587
 20
117.7347921225
 11
123.6548471587
 21
111.5847921225
  0
LINE
  5
302
100
AcDbEntity
  8
0
100
AcDbLine
 62
7
  6
BYLAYER
 10
124.6548471587
 20
149.5847921225
 11
124.6548471587
 21
122.5847921225
  0
LINE
  5
303
100
AcDbEntity
  8
0
100
AcDbLine
 62
7
  6
BYLAYER
 10
125.6548471587
 20
160.5847921225
 11
125.6548471587
 21
154.4347921225
  0
LINE
  5
304
100
AcDbEntity
  8
0
100
AcDbLine
 62
7
  6
BYLAYER
 10
125.6548471587
 20
117.7347921225
 11
125.6548471587
 21
111.5847921225
  0
LINE
  5
305
100
AcDbEntity
  8
0
100
AcDbLine
 62
7
  6
BYLAYER
 10
65.1548471587
 20
159.1847921225
 11
58.1548471587
 21
159.1847921225
  0
LINE
  5
306
100
AcDbEntity
  8
0
100
AcDbLine
 62
7
  6
BYLAYER
 10
135.1548471587
 20
160.5847921225
 11
125.6548471587
 21
160.5847921225
  0
LINE
  5
307
100
AcDbEntity
  8
0
100
AcDbLine
 62
7
  6
BYLAYER
 10
123.6548471587
 20
160.5847921225
 11
105.6048471587
 21
160.5847921225
  0
LINE
  5
308
100
AcDbEntity
  8
0
100
AcDbLine
 62
7
  6
BYLAYER
 10
104.7048471587
 20
160.5847921225
 11
91.6048471587
 21
160.5847921225
  0
LINE
  5
309
100
AcDbEntity
  8
0
100
AcDbLine
 62
7
  6
BYLAYER
 10
90.7048471587
 20
160.5847921225
 11
77.6048471587
 21
160.5847921225
  0
LINE
  5
30A
100
AcDbEntity
  8
0
100
AcDbLine
 62
7
  6
BYLAYER
 10
52.1548471587
 20
160.5847921225
 11
52.6548471587
 21
160.5847921225
  0
LINE
  5
30B
100
AcDbEntity
  8
0
100
AcDbLine
 62
7
  6
BYLAYER
 10
58.1548471587
 20
160.5847921225
 11
76.7048471587
 21
160.5847921225
  0
LINE
  5
30C
100
AcDbEntity
  8
0
100
AcDbLine
 62
7
  6
BYLAYER
 10
136.6548471587
 20
160.5847921225
 11
137.1548471587
 21
160.5847921225
  0
LINE
  5
30D
100
AcDbEntity
  8
0
100
AcDbLine
 62
7
  6
BYLAYER
 10
53.6548762487
 20
161.5847921225
 11
135.654818065
 21
161.5847921225
  0
LINE
  5
30E
100
AcDbEntity
  8
0
100
AcDbLine
 62
7
  6
BYLAYER
 10
135.6548471596
 20
162.0847921225
 11
53.6548471685
 21
162.0847921225
  0
LINE
  5
30F
100
AcDbEntity
  8
0
100
AcDbLine
 62
7
  6
BYLAYER
 10
134.238180492
 20
111.5847921225
 11
134.238180492
 21
117.6811817884
  0
LINE
  5
310
100
AcDbEntity
  8
0
100
AcDbLine
 62
7
  6
BYLAYER
 10
134.238180492
 20
154.4884024566
 11
134.238180492
 21
160.5847921225
  0
LINE
  5
311
100
AcDbEntity
  8
0
100
AcDbLine
 62
7
  6
BYLAYER
 10
135.1548471587
 20
160.5847921225
 11
135.1548471587
 21
154.4347921225
  0
LINE
  5
312
100
AcDbEntity
  8
0
100
AcDbLine
 62
7
  6
BYLAYER
 10
135.1548471587
 20
117.7347921225
 11
135.1548471587
 21
111.5847921225
  0
LINE
  5
313
100
AcDbEntity
  8
0
100
AcDbLine
 62
7
  6
BYLAYER
 10
135.6548471587
 20
162.0847921225
 11
135.6548471587
 21
161.5847921225
  0
LINE
  5
314
100
AcDbEntity
  8
0
100
AcDbLine
 62
7
  6
BYLAYER
 10
135.6548471587
 20
110.5847921225
 11
135.6548471587
 21
110.0847921225
  0
LINE
  5
315
100
AcDbEntity
  8
0
100
AcDbLine
 62
7
  6
BYLAYER
 10
152.6548471587
 20
143.0847921225
 11
151.8548471587
 21
142.2847921225
  0
LINE
  5
316
100
AcDbEntity
  8
0
100
AcDbLine
 62
7
  6
BYLAYER
 10
148.4548471587
 20
136.0847921225
 11
148.1548471587
 21
135.7847921225
  0
LINE
  5
317
100
AcDbEntity
  8
0
100
AcDbLine
 62
7
  6
BYLAYER
 10
136.6548471587
 20
160.5847630325
 11
136.6548471587
 21
111.5848212162
  0
LINE
  5
318
100
AcDbEntity
  8
0
100
AcDbLine
 62
7
  6
BYLAYER
 10
137.1548471587
 20
111.5847921216
 11
137.1548471587
 21
160.5847921127
  0
LINE
  5
319
100
AcDbEntity
  8
0
100
AcDbLine
 62
7
  6
BYLAYER
 10
148.1548471587
 20
115.0847921225
 11
148.1548471587
 21
135.7847921225
  0
LINE
  5
31A
100
AcDbEntity
  8
0
100
AcDbLine
 62
7
  6
BYLAYER
 10
151.8548471587
 20
138.0847921225
 11
151.8548471587
 21
142.2847921225
  0
LINE
  5
31B
100
AcDbEntity
  8
0
100
AcDbLine
 62
7
  6
BYLAYER
 10
173.8548471587
 20
136.0847921225
 11
174.1548471587
 21
135.7847921225
  0
LINE
  5
31C
100
AcDbEntity
  8
0
100
AcDbLine
 62
7
  6
BYLAYER
 10
152.6548471587
 20
138.0847921225
 11
152.6548471587
 21
136.0847921225
  0
LINE
  5
31D
100
AcDbEntity
  8
0
100
AcDbLine
 62
7
  6
BYLAYER
 10
169.6548471587
 20
143.0847921225
 11
170.4548471587
 21
142.2847921225
  0
LINE
  5
31E
100
AcDbEntity
  8
0
100
AcDbLine
 62
7
  6
BYLAYER
 10
174.1548471587
 20
115.0847921225
 11
173.8548471587
 21
114.7847921225
  0
LINE
  5
31F
100
AcDbEntity
  8
0
100
AcDbLine
 62
7
  6
BYLAYER
 10
169.6548471587
 20
138.0847921225
 11
169.6548471587
 21
136.0847921225
  0
LINE
  5
320
100
AcDbEntity
  8
0
100
AcDbLine
 62
7
  6
BYLAYER
 10
170.4548471587
 20
138.0847921225
 11
170.4548471587
 21
142.2847921225
  0
LINE
  5
321
100
AcDbEntity
  8
0
100
AcDbLine
 62
7
  6
BYLAYER
 10
174.1548471587
 20
115.0847921225
 11
174.1548471587
 21
135.7847921225
  0
ARC
  5
322
100
AcDbEntity
  8
0
100
AcDbCircle
 62
7
  6
BYLAYER
 10
65.1548471587
 20
115.9347921225
 40
4.95
100
AcDbArc
 50
0.0
 51
90.0
  0
ARC
  5
323
100
AcDbEntity
  8
0
100
AcDbCircle
 62
7
  6
BYLAYER
 10
58.1548471587
 20
115.9347921225
 40
4.35
100
AcDbArc
 50
133.6028189727
 51
270.0
  0
ARC
  5
324
100
AcDbEntity
  8
0
100
AcDbCircle
 62
7
  6
BYLAYER
 10
63.6548471587
 20
125.0847921225
 40
3.1
100
AcDbArc
 50
9.2817990867
 51
84.5754452158
  0
ARC
  5
325
100
AcDbEntity
  8
0
100
AcDbCircle
 62
7
  6
BYLAYER
 10
61.6548471587
 20
126.0847921225
 40
3.1
100
AcDbArc
 50
42.2944524301
 51
118.9385277402
  0
ARC
  5
326
100
AcDbEntity
  8
0
100
AcDbCircle
 62
7
  6
BYLAYER
 10
59.6548471587
 20
125.0847921225
 40
3.1
100
AcDbArc
 50
99.2817990867
 51
270.0
  0
ARC
  5
327
100
AcDbEntity
  8
0
100
AcDbCircle
 62
7
  6
BYLAYER
 10
63.6548471587
 20
125.0847921225
 40
3.1
100
AcDbArc
 50
270.0
 51
350.7182009133
  0
ARC
  5
328
100
AcDbEntity
  8
0
100
AcDbCircle
 62
7
  6
BYLAYER
 10
65.1548471587
 20
115.9347921225
 40
2.95
100
AcDbArc
 50
270.0
 51
90.0
  0
ARC
  5
329
100
AcDbEntity
  8
0
100
AcDbCircle
 62
7
  6
BYLAYER
 10
58.1548471587
 20
115.9347921225
 40
2.95
100
AcDbArc
 50
90.0
 51
270.0
  0
ARC
  5
32A
100
AcDbEntity
  8
0
100
AcDbCircle
 62
7
  6
BYLAYER
 10
61.6548471587
 20
126.0847921225
 40
2.1
100
AcDbArc
 50
31.5881355052
 51
148.4118644948
  0
ARC
  5
32B
100
AcDbEntity
  8
0
100
AcDbCircle
 62
7
  6
BYLAYER
 10
63.6548471587
 20
125.0847921225
 40
2.1
100
AcDbArc
 50
270.0
 51
90.0
  0
ARC
  5
32C
100
AcDbEntity
  8
0
100
AcDbCircle
 62
7
  6
BYLAYER
 10
59.6548471587
 20
125.0847921225
 40
2.1
100
AcDbArc
 50
90.0
 51
270.0
  0
ARC
  5
32D
100
AcDbEntity
  8
0
100
AcDbCircle
 62
7
  6
BYLAYER
 10
54.6548471587
 20
127.5847921225
 40
1.5
100
AcDbArc
 50
294.8726008074
 51
315.0
  0
ARC
  5
32E
100
AcDbEntity
  8
0
100
AcDbCircle
 62
7
  6
BYLAYER
 10
53.6548471587
 20
111.5847921225
 40
1.5
100
AcDbArc
 50
180.0
 51
270.0000000629
  0
ARC
  5
32F
100
AcDbEntity
  8
0
100
AcDbCircle
 62
7
  6
BYLAYER
 10
53.6548471587
 20
111.5847921225
 40
0.9999953767
100
AcDbArc
 50
179.9983332664
 51
270.0016669424
  0
ARC
  5
330
100
AcDbEntity
  8
0
100
AcDbCircle
 62
7
  6
BYLAYER
 10
74.1548310824
 20
125.0847921502
 40
0.5000000278
100
AcDbArc
 50
269.9985594664
 51
89.9875660097
  0
ARC
  5
331
100
AcDbEntity
  8
0
100
AcDbCircle
 62
7
  6
BYLAYER
 10
65.1548471587
 20
156.2347921225
 40
4.95
100
AcDbArc
 50
270.0
 51
360.0
  0
ARC
  5
332
100
AcDbEntity
  8
0
100
AcDbCircle
 62
7
  6
BYLAYER
 10
58.1548471587
 20
156.2347921225
 40
4.35
100
AcDbArc
 50
90.0
 51
226.3971810273
  0
ARC
  5
333
100
AcDbEntity
  8
0
100
AcDbCircle
 62
7
  6
BYLAYER
 10
61.6548471587
 20
146.0847921225
 40
3.1
100
AcDbArc
 50
241.0614722598
 51
317.7055475699
  0
ARC
  5
334
100
AcDbEntity
  8
0
100
AcDbCircle
 62
7
  6
BYLAYER
 10
63.6548471587
 20
147.0847921225
 40
3.1
100
AcDbArc
 50
275.4245547842
 51
350.7182009133
  0
ARC
  5
335
100
AcDbEntity
  8
0
100
AcDbCircle
 62
7
  6
BYLAYER
 10
63.6548471587
 20
147.0847921225
 40
3.1
100
AcDbArc
 50
9.2817990867
 51
90.0
  0
ARC
  5
336
100
AcDbEntity
  8
0
100
AcDbCircle
 62
7
  6
BYLAYER
 10
59.6548471587
 20
147.0847921225
 40
3.1
100
AcDbArc
 50
90.0
 51
260.7182009133
  0
ARC
  5
337
100
AcDbEntity
  8
0
100
AcDbCircle
 62
7
  6
BYLAYER
 10
65.1548471587
 20
156.2347921225
 40
2.95
100
AcDbArc
 50
270.0
 51
90.0
  0
ARC
  5
338
100
AcDbEntity
  8
0
100
AcDbCircle
 62
7
  6
BYLAYER
 10
58.1548471587
 20
156.2347921225
 40
2.95
100
AcDbArc
 50
90.0
 51
270.0
  0
ARC
  5
339
100
AcDbEntity
  8
0
100
AcDbCircle
 62
7
  6
BYLAYER
 10
63.6548471587
 20
147.0847921225
 40
2.1
100
AcDbArc
 50
270.0
 51
90.0
  0
ARC
  5
33A
100
AcDbEntity
  8
0
100
AcDbCircle
 62
7
  6
BYLAYER
 10
61.6548471587
 20
146.0847921225
 40
2.1
100
AcDbArc
 50
211.5881355052
 51
328.4118644948
  0
ARC
  5
33B
100
AcDbEntity
  8
0
100
AcDbCircle
 62
7
  6
BYLAYER
 10
59.6548471587
 20
147.0847921225
 40
2.1
100
AcDbArc
 50
90.0
 51
270.0
  0
ARC
  5
33C
100
AcDbEntity
  8
0
100
AcDbCircle
 62
7
  6
BYLAYER
 10
54.6548471587
 20
144.5847921225
 40
1.5
100
AcDbArc
 50
45.0
 51
65.1273991926
  0
ARC
  5
33D
100
AcDbEntity
  8
0
100
AcDbCircle
 62
7
  6
BYLAYER
 10
53.6548471587
 20
160.5847921225
 40
1.5
100
AcDbArc
 50
90.0
 51
180.0000000629
  0
ARC
  5
33E
100
AcDbEntity
  8
0
100
AcDbCircle
 62
7
  6
BYLAYER
 10
53.6548471587
 20
160.5847921225
 40
0.9999953767
100
AcDbArc
 50
89.9983332664
 51
180.0016669424
  0
ARC
  5
33F
100
AcDbEntity
  8
0
100
AcDbCircle
 62
7
  6
BYLAYER
 10
74.1548310824
 20
147.0847921502
 40
0.5000000278
100
AcDbArc
 50
269.9985594723
 51
89.9875660039
  0
ARC
  5
340
100
AcDbEntity
  8
0
100
AcDbCircle
 62
7
  6
BYLAYER
 10
120.6548471587
 20
122.5847921225
 40
4.0
100
AcDbArc
 50
180.0
 51
360.0
  0
ARC
  5
341
100
AcDbEntity
  8
0
100
AcDbCircle
 62
7
  6
BYLAYER
 10
135.6548471587
 20
111.5847921225
 40
1.5
100
AcDbArc
 50
270.0
 51
359.9999999828
  0
ARC
  5
342
100
AcDbEntity
  8
0
100
AcDbCircle
 62
7
  6
BYLAYER
 10
135.6548471587
 20
111.5847921225
 40
0.9999953767
100
AcDbArc
 50
269.9983332664
 51
0.0016669424
  0
ARC
  5
343
100
AcDbEntity
  8
0
100
AcDbCircle
 62
7
  6
BYLAYER
 10
108.6548471587
 20
136.0847921225
 40
40.5
100
AcDbArc
 50
165.2587598663
 51
171.9807283856
  0
ARC
  5
344
100
AcDbEntity
  8
0
100
AcDbCircle
 62
7
  6
BYLAYER
 10
108.6548471587
 20
136.0847921225
 40
40.5
100
AcDbArc
 50
188.0192716144
 51
194.7412401337
  0
ARC
  5
345
100
AcDbEntity
  8
0
100
AcDbCircle
 62
7
  6
BYLAYER
 10
108.6548471587
 20
136.0847921225
 40
40.5
100
AcDbArc
 50
142.7755999225
 51
163.216518864
  0
ARC
  5
346
100
AcDbEntity
  8
0
100
AcDbCircle
 62
7
  6
BYLAYER
 10
108.6548471587
 20
136.0847921225
 40
40.5
100
AcDbArc
 50
196.783481136
 51
217.2244000775
  0
CIRCLE
  5
347
100
AcDbEntity
  8
0
100
AcDbCircle
 62
7
  6
BYLAYER
 10
104.1548471587
 20
136.0847921225
 40
4.0
  0
ARC
  5
348
100
AcDbEntity
  8
0
100
AcDbCircle
 62
7
  6
BYLAYER
 10
120.6548471587
 20
149.5847921225
 40
4.0
100
AcDbArc
 50
0.0
 51
180.0
  0
ARC
  5
349
100
AcDbEntity
  8
0
100
AcDbCircle
 62
7
  6
BYLAYER
 10
135.6548471587
 20
160.5847921225
 40
1.5
100
AcDbArc
 50
0.0
 51
89.9999999828
  0
ARC
  5
34A
100
AcDbEntity
  8
0
100
AcDbCircle
 62
7
  6
BYLAYER
 10
135.6548471587
 20
160.5847921225
 40
0.9999953767
100
AcDbArc
 50
359.9983332664
 51
90.0016669424
  0
CIRCLE
  5
34B
100
AcDbEntity
  8
0
100
AcDbCircle
 62
7
  6
BYLAYER
 10
104.1548471587
 20
136.0847921225
 40
0.75
  0
SPLINE
  5
34C
100
AcDbEntity
  8
0
100
AcDbSpline
 62
7
  6
BYLAYER
 70
0
 71
3
 72
22
 73
18
 74
0
 42
0.0000001
 43
0.0000001
 44
0.0000000001
 40
0.0
 40
0.0
 40
0.0
 40
0.0
 40
0.0012849111
 40
0.0049320208
 40
0.010960852
 40
0.0193583939
 40
0.030107848
 40
0.0431913758
 40
0.0762637325
 40
0.1182287822
 40
0.1686599717
 40
0.2271207531
 40
0.2930364916
 40
0.4445049558
 40
0.6173325793
 40
0.8051049407
 40
1.0
 40
1.0
 40
1.0
 40
1.0
 10
55.181027762
 20
149.3347921225
 30
0.0
 10
55.1804922889
 20
149.3347921221
 30
0.0
 10
55.1805515979
 20
149.3316881387
 30
0.0
 10
55.1796797869
 20
149.3281523252
 30
0.0
 10
55.1794172641
 20
149.3200678288
 30
0.0
 10
55.1788072156
 20
149.3098374892
 30
0.0
 10
55.1783365816
 20
149.2963192604
 30
0.0
 10
55.1775828786
 20
149.2726612575
 30
0.0
 10
55.1767385729
 20
149.2359178714
 30
0.0
 10
55.1757912594
 20
149.1836512243
 30
0.0
 10
55.1748937109
 20
149.1207849835
 30
0.0
 10
55.1740473932
 20
149.0479420526
 30
0.0
 10
55.1729539079
 20
148.9329910916
 30
0.0
 10
55.1718257995
 20
148.770378441
 30
0.0
 10
55.1708532647
 20
148.5569812551
 30
0.0
 10
55.1702547056
 20
148.3254852377
 30
0.0
 10
55.1701191351
 20
148.1660125833
 30
0.0
 10
55.1701191351
 20
148.0847921226
 30
0.0
  0
SPLINE
  5
34D
100
AcDbEntity
  8
0
100
AcDbSpline
 62
7
  6
BYLAYER
 70
0
 71
3
 72
22
 73
18
 74
0
 42
0.0000001
 43
0.0000001
 44
0.0000000001
 40
0.0
 40
0.0
 40
0.0
 40
0.0
 40
0.0012849111
 40
0.0049320208
 40
0.010960852
 40
0.0193583939
 40
0.030107848
 40
0.0431913758
 40
0.0762637325
 40
0.1182287822
 40
0.1686599717
 40
0.2271207531
 40
0.2930364916
 40
0.4445049558
 40
0.6173325793
 40
0.8051049407
 40
1.0
 40
1.0
 40
1.0
 40
1.0
 10
55.181027762
 20
125.3347921225
 30
0.0
 10
55.1804922889
 20
125.3347921221
 30
0.0
 10
55.1805515979
 20
125.3316881387
 30
0.0
 10
55.1796797869
 20
125.3281523252
 30
0.0
 10
55.1794172641
 20
125.3200678288
 30
0.0
 10
55.1788072156
 20
125.3098374892
 30
0.0
 10
55.1783365816
 20
125.2963192604
 30
0.0
 10
55.1775828786
 20
125.2726612575
 30
0.0
 10
55.1767385729
 20
125.2359178714
 30
0.0
 10
55.1757912594
 20
125.1836512243
 30
0.0
 10
55.1748937109
 20
125.1207849835
 30
0.0
 10
55.1740473932
 20
125.0479420526
 30
0.0
 10
55.1729539079
 20
124.9329910916
 30
0.0
 10
55.1718257995
 20
124.770378441
 30
0.0
 10
55.1708532647
 20
124.5569812551
 30
0.0
 10
55.1702547056
 20
124.3254852377
 30
0.0
 10
55.1701191351
 20
124.1660125833
 30
0.0
 10
55.1701191351
 20
124.0847921226
 30
0.0
  0
SPLINE
  5
34E
100
AcDbEntity
  8
0
100
AcDbSpline
 62
7
  6
BYLAYER
 70
0
 71
3
 72
22
 73
18
 74
0
 42
0.0000001
 43
0.0000001
 44
0.0000000001
 40
0.0
 40
0.0
 40
0.0
 40
0.0
 40
0.1948950588
 40
0.3826674174
 40
0.5554950409
 40
0.7069635065
 40
0.7728792457
 40
0.8313400269
 40
0.8817712168
 40
0.9237362671
 40
0.9568086236
 40
0.9698921514
 40
0.9806416057
 40
0.989039148
 40
0.9950679795
 40
0.9987150893
 40
1.0
 40
1.0
 40
1.0
 40
1.0
 10
55.1701191351
 20
148.0847921226
 30
0.0
 10
55.1701191351
 20
148.003571662
 30
0.0
 10
55.1702547056
 20
147.844099009
 30
0.0
 10
55.1708532647
 20
147.6126029929
 30
0.0
 10
55.1718257995
 20
147.3992058077
 30
0.0
 10
55.1729539078
 20
147.2365931562
 30
0.0
 10
55.1740473932
 20
147.1216421943
 30
0.0
 10
55.1748937109
 20
147.0487992631
 30
0.0
 10
55.1757912594
 20
146.9859330219
 30
0.0
 10
55.1767385728
 20
146.9336663745
 30
0.0
 10
55.1775828786
 20
146.8969229881
 30
0.0
 10
55.1783365816
 20
146.8732649854
 30
0.0
 10
55.1788072156
 20
146.8597467561
 30
0.0
 10
55.179417264
 20
146.8495164166
 30
0.0
 10
55.179679787
 20
146.8414319189
 30
0.0
 10
55.1805515976
 20
146.8378961071
 30
0.0
 10
55.1804922891
 20
146.8347921221
 30
0.0
 10
55.181027762
 20
146.8347921225
 30
0.0
  0
SPLINE
  5
34F
100
AcDbEntity
  8
0
100
AcDbSpline
 62
7
  6
BYLAYER
 70
0
 71
3
 72
22
 73
18
 74
0
 42
0.0000001
 43
0.0000001
 44
0.0000000001
 40
0.0
 40
0.0
 40
0.0
 40
0.0
 40
0.1948950588
 40
0.3826674174
 40
0.5554950409
 40
0.7069635065
 40
0.7728792457
 40
0.8313400269
 40
0.8817712168
 40
0.9237362671
 40
0.9568086236
 40
0.9698921514
 40
0.9806416057
 40
0.989039148
 40
0.9950679795
 40
0.9987150893
 40
1.0
 40
1.0
 40
1.0
 40
1.0
 10
55.1701191351
 20
124.0847921226
 30
0.0
 10
55.1701191351
 20
124.003571662
 30
0.0
 10
55.1702547056
 20
123.844099009
 30
0.0
 10
55.1708532647
 20
123.6126029929
 30
0.0
 10
55.1718257995
 20
123.3992058077
 30
0.0
 10
55.1729539078
 20
123.2365931562
 30
0.0
 10
55.1740473932
 20
123.1216421943
 30
0.0
 10
55.1748937109
 20
123.0487992631
 30
0.0
 10
55.1757912594
 20
122.9859330219
 30
0.0
 10
55.1767385728
 20
122.9336663745
 30
0.0
 10
55.1775828786
 20
122.8969229881
 30
0.0
 10
55.1783365816
 20
122.8732649854
 30
0.0
 10
55.1788072156
 20
122.8597467561
 30
0.0
 10
55.179417264
 20
122.8495164166
 30
0.0
 10
55.179679787
 20
122.8414319189
 30
0.0
 10
55.1805515976
 20
122.8378961071
 30
0.0
 10
55.1804922891
 20
122.8347921221
 30
0.0
 10
55.181027762
 20
122.8347921225
 30
0.0
  0
SPLINE
  5
350
100
AcDbEntity
  8
0
100
AcDbSpline
 62
7
  6
BYLAYER
 70
0
 71
3
 72
29
 73
25
 74
0
 42
0.0000001
 43
0.0000001
 44
0.0000000001
 40
0.0
 40
0.0
 40
0.0
 40
0.0
 40
0.0003685891
 40
0.0012794155
 40
0.0027670079
 40
0.0048361857
 40
0.0074877833
 40
0.0107215166
 40
0.0189322466
 40
0.0294574911
 40
0.0422715589
 40
0.0573448604
 40
0.074647596
 40
0.0941468036
 40
0.1157969466
 40
0.1653548636
 40
0.222907949
 40
0.2879502679
 40
0.3599333111
 40
0.4382316408
 40
0.5221818322
 40
0.6110460587
 40
0.8004676703
 40
1.0
 40
1.0
 40
1.0
 40
1.0
 10
113.1548471587
 20
117.625704428
 30
0.0
 10
113.1548471587
 20
117.6269947679
 30
0.0
 10
113.1604842365
 20
117.6289467451
 30
0.0
 10
113.1687135237
 20
117.6307902981
 30
0.0
 10
113.1848952574
 20
117.6330685094
 30
0.0
 10
113.2062155505
 20
117.6352590177
 30
0.0
 10
113.2340876736
 20
117.637538649
 30
0.0
 10
113.2832702401
 20
117.640828081
 30
0.0
 10
113.3601200257
 20
117.6447631624
 30
0.0
 10
113.4704644735
 20
117.6492087333
 30
0.0
 10
113.6048715185
 20
117.6536333026
 30
0.0
 10
113.7630086145
 20
117.658021214
 30
0.0
 10
113.9445604712
 20
117.6623526169
 30
0.0
 10
114.1491425338
 20
117.6666144236
 30
0.0
 10
114.4666330224
 20
117.6724556636
 30
0.0
 10
114.91734225
 20
117.6793612134
 30
0.0
 10
115.5199621122
 20
117.686904158
 30
0.0
 10
116.201097478
 20
117.6939539968
 30
0.0
 10
116.954865306
 20
117.7004389535
 30
0.0
 10
117.7748318323
 20
117.7063019121
 30
0.0
 10
118.6539008811
 20
117.7114843458
 30
0.0
 10
119.9219860138
 20
117.7175585824
 30
0.0
 10
121.5947022765
 20
117.7230290543
 30
0.0
 10
122.956333629
 20
117.7251531917
 30
0.0
 10
123.6548471587
 20
117.7256852799
 30
0.0
  0
SPLINE
  5
351
100
AcDbEntity
  8
0
100
AcDbSpline
 62
7
  6
BYLAYER
 70
0
 71
3
 72
21
 73
17
 74
0
 42
0.0000001
 43
0.0000001
 44
0.0000000001
 40
0.0
 40
0.0
 40
0.0
 40
0.0
 40
0.0012596903
 40
0.0044332502
 40
0.0096277664
 40
0.0168569484
 40
0.0374211211
 40
0.0661081386
 40
0.1028712089
 40
0.1476037925
 40
0.2001839151
 40
0.2604889577
 40
0.4037064086
 40
0.575894341
 40
0.7754358175
 40
1.0
 40
1.0
 40
1.0
 40
1.0
 10
60.2883682359
 20
130.4347921225
 30
0.0
 10
60.2876604367
 20
130.4347921225
 30
0.0
 10
60.286686682
 20
130.4380099842
 30
0.0
 10
60.2856829717
 20
130.4425596915
 30
0.0
 10
60.2845086893
 20
130.4516676328
 30
0.0
 10
60.2827497254
 20
130.4698691185
 30
0.0
 10
60.2806893528
 20
130.5017290364
 30
0.0
 10
60.2783667237
 20
130.5499136732
 30
0.0
 10
60.2760449994
 20
130.6118159116
 30
0.0
 10
60.2737317056
 20
130.687103069
 30
0.0
 10
60.2714438391
 20
130.7756408843
 30
0.0
 10
60.2682535858
 20
130.9195037659
 30
0.0
 10
60.2645035369
 20
131.1305779326
 30
0.0
 10
60.2604090918
 20
131.4198890117
 30
0.0
 10
60.2565704251
 20
131.7549150343
 30
0.0
 10
60.2543303133
 20
131.9932025859
 30
0.0
 10
60.2532454035
 20
132.1193768309
 30
0.0
  0
SPLINE
  5
352
100
AcDbEntity
  8
0
100
AcDbSpline
 62
7
  6
BYLAYER
 70
0
 71
3
 72
21
 73
17
 74
0
 42
0.0000001
 43
0.0000001
 44
0.0000000001
 40
0.0
 40
0.0
 40
0.0
 40
0.0
 40
0.01991815
 40
0.0553325513
 40
0.1050881922
 40
0.1675923841
 40
0.2408282326
 40
0.3224274108
 40
0.4999999647
 40
0.6775725275
 40
0.7591717143
 40
0.8324075756
 40
0.8949117813
 40
0.9446674332
 40
0.9800818448
 40
1.0
 40
1.0
 40
1.0
 40
1.0
 10
60.2532454035
 20
132.1193768309
 30
0.0
 10
60.2497794888
 20
132.1719218273
 30
0.0
 10
60.2459484234
 20
132.3182121474
 30
0.0
 10
60.240246803
 20
132.5959508427
 30
0.0
 10
60.2355274279
 20
132.9863591142
 30
0.0
 10
60.2310969551
 20
133.4767425172
 30
0.0
 10
60.2275575972
 20
134.0513313262
 30
0.0
 10
60.2239211842
 20
134.9301353969
 30
0.0
 10
60.2222289592
 20
136.0847918656
 30
0.0
 10
60.2239211829
 20
137.2394483575
 30
0.0
 10
60.2275575953
 20
138.1182525084
 30
0.0
 10
60.2310969528
 20
138.6928414106
 30
0.0
 10
60.2355274257
 20
139.1832249129
 30
0.0
 10
60.2402468006
 20
139.5736332772
 30
0.0
 10
60.2459484231
 20
139.8513720426
 30
0.0
 10
60.2497794879
 20
139.9976624038
 30
0.0
 10
60.2532454035
 20
140.0502074139
 30
0.0
  0
SPLINE
  5
353
100
AcDbEntity
  8
0
100
AcDbSpline
 62
7
  6
BYLAYER
 70
0
 71
3
 72
21
 73
17
 74
0
 42
0.0000001
 43
0.0000001
 44
0.0000000001
 40
0.0
 40
0.0
 40
0.0
 40
0.0
 40
0.2245641824
 40
0.424105659
 40
0.5962935914
 40
0.7395110423
 40
0.7998160849
 40
0.8523962075
 40
0.8971287911
 40
0.9338918614
 40
0.9625788789
 40
0.9831430516
 40
0.9903722336
 40
0.9955667498
 40
0.9987403097
 40
1.0
 40
1.0
 40
1.0
 40
1.0
 10
60.2532454035
 20
140.0502074139
 30
0.0
 10
60.2543303133
 20
140.1763816589
 30
0.0
 10
60.2565704251
 20
140.4146692105
 30
0.0
 10
60.2604090918
 20
140.7496952332
 30
0.0
 10
60.2645035369
 20
141.0390063123
 30
0.0
 10
60.2682535858
 20
141.2500804791
 30
0.0
 10
60.2714438391
 20
141.3939433607
 30
0.0
 10
60.2737317056
 20
141.4824811761
 30
0.0
 10
60.2760449993
 20
141.5577683334
 30
0.0
 10
60.2783667237
 20
141.6196705719
 30
0.0
 10
60.2806893528
 20
141.6678552087
 30
0.0
 10
60.2827497254
 20
141.6997151265
 30
0.0
 10
60.2845086893
 20
141.7179166122
 30
0.0
 10
60.2856829717
 20
141.7270245536
 30
0.0
 10
60.286686682
 20
141.7315742609
 30
0.0
 10
60.2876604367
 20
141.7347921225
 30
0.0
 10
60.2883682359
 20
141.7347921225
 30
0.0
  0
SPLINE
  5
354
100
AcDbEntity
  8
0
100
AcDbSpline
 62
7
  6
BYLAYER
 70
0
 71
3
 72
22
 73
18
 74
0
 42
0.0000001
 43
0.0000001
 44
0.0000000001
 40
0.0
 40
0.0
 40
0.0
 40
0.0
 40
0.0012849111
 40
0.0049320208
 40
0.010960852
 40
0.0193583939
 40
0.030107848
 40
0.0431913758
 40
0.0762637325
 40
0.1182287822
 40
0.1686599717
 40
0.2271207531
 40
0.2930364916
 40
0.4445049558
 40
0.6173325793
 40
0.8051049407
 40
1.0
 40
1.0
 40
1.0
 40
1.0
 10
55.181027762
 20
122.8347921225
 30
0.0
 10
55.1815632352
 20
122.8347921229
 30
0.0
 10
55.1815039262
 20
122.8378961063
 30
0.0
 10
55.1823757372
 20
122.8414319199
 30
0.0
 10
55.18263826
 20
122.8495164163
 30
0.0
 10
55.1832483085
 20
122.8597467559
 30
0.0
 10
55.1837189425
 20
122.8732649847
 30
0.0
 10
55.1844726455
 20
122.8969229875
 30
0.0
 10
55.1853169512
 20
122.9336663737
 30
0.0
 10
55.1862642647
 20
122.9859330208
 30
0.0
 10
55.1871618132
 20
123.0487992616
 30
0.0
 10
55.1880081309
 20
123.1216421925
 30
0.0
 10
55.1891016162
 20
123.2365931535
 30
0.0
 10
55.1902297246
 20
123.3992058041
 30
0.0
 10
55.1912022594
 20
123.61260299
 30
0.0
 10
55.1918008185
 20
123.8440990074
 30
0.0
 10
55.1919363889
 20
124.0035716618
 30
0.0
 10
55.1919363889
 20
124.0847921226
 30
0.0
  0
SPLINE
  5
355
100
AcDbEntity
  8
0
100
AcDbSpline
 62
7
  6
BYLAYER
 70
0
 71
3
 72
22
 73
18
 74
0
 42
0.0000001
 43
0.0000001
 44
0.0000000001
 40
0.0
 40
0.0
 40
0.0
 40
0.0
 40
0.1948950588
 40
0.3826674174
 40
0.5554950409
 40
0.7069635065
 40
0.7728792457
 40
0.8313400269
 40
0.8817712169
 40
0.9237362672
 40
0.9568086236
 40
0.9698921514
 40
0.9806416057
 40
0.989039148
 40
0.9950679795
 40
0.9987150893
 40
1.0
 40
1.0
 40
1.0
 40
1.0
 10
55.1919363889
 20
148.0847921226
 30
0.0
 10
55.1919363889
 20
148.1660125831
 30
0.0
 10
55.1918008185
 20
148.3254852361
 30
0.0
 10
55.1912022594
 20
148.5569812522
 30
0.0
 10
55.1902297246
 20
148.7703784374
 30
0.0
 10
55.1891016163
 20
148.9329910889
 30
0.0
 10
55.1880081309
 20
149.0479420508
 30
0.0
 10
55.1871618132
 20
149.120784982
 30
0.0
 10
55.1862642647
 20
149.1836512232
 30
0.0
 10
55.1853169513
 20
149.2359178706
 30
0.0
 10
55.1844726455
 20
149.2726612569
 30
0.0
 10
55.1837189425
 20
149.2963192597
 30
0.0
 10
55.1832483085
 20
149.3098374889
 30
0.0
 10
55.1826382601
 20
149.3200678285
 30
0.0
 10
55.1823757371
 20
149.3281523262
 30
0.0
 10
55.1815039265
 20
149.331688138
 30
0.0
 10
55.181563235
 20
149.3347921229
 30
0.0
 10
55.181027762
 20
149.3347921225
 30
0.0
  0
SPLINE
  5
356
100
AcDbEntity
  8
0
100
AcDbSpline
 62
7
  6
BYLAYER
 70
0
 71
3
 72
22
 73
18
 74
0
 42
0.0000001
 43
0.0000001
 44
0.0000000001
 40
0.0
 40
0.0
 40
0.0
 40
0.0
 40
0.1948950588
 40
0.3826674174
 40
0.5554950409
 40
0.7069635065
 40
0.7728792457
 40
0.8313400269
 40
0.8817712169
 40
0.9237362672
 40
0.9568086236
 40
0.9698921514
 40
0.9806416057
 40
0.989039148
 40
0.9950679795
 40
0.9987150893
 40
1.0
 40
1.0
 40
1.0
 40
1.0
 10
55.1919363889
 20
124.0847921226
 30
0.0
 10
55.1919363889
 20
124.1660125831
 30
0.0
 10
55.1918008185
 20
124.3254852361
 30
0.0
 10
55.1912022594
 20
124.5569812522
 30
0.0
 10
55.1902297246
 20
124.7703784374
 30
0.0
 10
55.1891016163
 20
124.9329910889
 30
0.0
 10
55.1880081309
 20
125.0479420508
 30
0.0
 10
55.1871618132
 20
125.120784982
 30
0.0
 10
55.1862642647
 20
125.1836512232
 30
0.0
 10
55.1853169513
 20
125.2359178706
 30
0.0
 10
55.1844726455
 20
125.2726612569
 30
0.0
 10
55.1837189425
 20
125.2963192597
 30
0.0
 10
55.1832483085
 20
125.3098374889
 30
0.0
 10
55.1826382601
 20
125.3200678285
 30
0.0
 10
55.1823757371
 20
125.3281523262
 30
0.0
 10
55.1815039265
 20
125.331688138
 30
0.0
 10
55.181563235
 20
125.3347921229
 30
0.0
 10
55.181027762
 20
125.3347921225
 30
0.0
  0
SPLINE
  5
357
100
AcDbEntity
  8
0
100
AcDbSpline
 62
7
  6
BYLAYER
 70
0
 71
3
 72
22
 73
18
 74
0
 42
0.0000001
 43
0.0000001
 44
0.0000000001
 40
0.0
 40
0.0
 40
0.0
 40
0.0
 40
0.0012849111
 40
0.0049320208
 40
0.010960852
 40
0.0193583939
 40
0.030107848
 40
0.0431913758
 40
0.0762637325
 40
0.1182287822
 40
0.1686599717
 40
0.2271207531
 40
0.2930364916
 40
0.4445049558
 40
0.6173325793
 40
0.8051049407
 40
1.0
 40
1.0
 40
1.0
 40
1.0
 10
55.181027762
 20
146.8347921225
 30
0.0
 10
55.1815632352
 20
146.8347921229
 30
0.0
 10
55.1815039262
 20
146.8378961063
 30
0.0
 10
55.1823757372
 20
146.8414319199
 30
0.0
 10
55.18263826
 20
146.8495164163
 30
0.0
 10
55.1832483085
 20
146.8597467559
 30
0.0
 10
55.1837189425
 20
146.8732649847
 30
0.0
 10
55.1844726455
 20
146.8969229875
 30
0.0
 10
55.1853169512
 20
146.9336663737
 30
0.0
 10
55.1862642647
 20
146.9859330208
 30
0.0
 10
55.1871618132
 20
147.0487992616
 30
0.0
 10
55.1880081309
 20
147.1216421925
 30
0.0
 10
55.1891016162
 20
147.2365931535
 30
0.0
 10
55.1902297246
 20
147.3992058041
 30
0.0
 10
55.1912022594
 20
147.61260299
 30
0.0
 10
55.1918008185
 20
147.8440990074
 30
0.0
 10
55.1919363889
 20
148.0035716618
 30
0.0
 10
55.1919363889
 20
148.0847921226
 30
0.0
  0
SPLINE
  5
358
100
AcDbEntity
  8
0
100
AcDbSpline
 62
7
  6
BYLAYER
 70
0
 71
3
 72
9
 73
5
 74
0
 42
0.0000001
 43
0.0000001
 44
0.0000000001
 40
0.0
 40
0.0
 40
0.0
 40
0.0
 40
0.5678303161
 40
1.0
 40
1.0
 40
1.0
 40
1.0
 10
125.6548471587
 20
154.4438991393
 30
0.0
 10
127.2795025176
 20
154.44513671
 30
0.0
 10
130.1406546229
 20
154.4527905747
 30
0.0
 10
133.0017914387
 20
154.4721361873
 30
0.0
 10
134.2381929132
 20
154.4884025919
 30
0.0
  0
SPLINE
  5
359
100
AcDbEntity
  8
0
100
AcDbSpline
 62
7
  6
BYLAYER
 70
0
 71
3
 72
10
 73
6
 74
0
 42
0.0000001
 43
0.0000001
 44
0.0000000001
 40
0.0
 40
0.0
 40
0.0
 40
0.0
 40
0.5337678575
 40
0.8174708635
 40
1.0
 40
1.0
 40
1.0
 40
1.0
 10
134.2381929132
 20
154.4884025919
 30
0.0
 10
134.3954109732
 20
154.4904709918
 30
0.0
 10
134.6362275847
 20
154.4906908411
 30
0.0
 10
134.9307875635
 20
154.4897240074
 30
0.0
 10
135.0681309917
 20
154.4887776248
 30
0.0
 10
135.1218844366
 20
154.4875485642
 30
0.0
  0
SPLINE
  5
35A
100
AcDbEntity
  8
0
100
AcDbSpline
 62
7
  6
BYLAYER
 70
0
 71
3
 72
11
 73
7
 74
0
 42
0.0000001
 43
0.0000001
 44
0.0000000001
 40
0.0
 40
0.0
 40
0.0
 40
0.0
 40
0.4336937912
 40
0.7461775417
 40
0.9354457001
 40
1.0
 40
1.0
 40
1.0
 40
1.0
 10
135.1218844366
 20
154.4875485642
 30
0.0
 10
135.1266573902
 20
154.4874394317
 30
0.0
 10
135.1345764745
 20
154.4870373528
 30
0.0
 10
135.1457629024
 20
154.4872670466
 30
0.0
 10
135.1504341132
 20
154.4859042905
 30
0.0
 10
135.1548471587
 20
154.4867009726
 30
0.0
 10
135.1548471587
 20
154.485990344
 30
0.0
  0
SPLINE
  5
35B
100
AcDbEntity
  8
0
100
AcDbSpline
 62
7
  6
BYLAYER
 70
0
 71
3
 72
10
 73
6
 74
0
 42
0.0000001
 43
0.0000001
 44
0.0000000001
 40
0.0
 40
0.0
 40
0.0
 40
0.0
 40
0.5329855415
 40
0.8166735385
 40
1.0
 40
1.0
 40
1.0
 40
1.0
 10
134.2381926
 20
117.6811816565
 30
0.0
 10
134.3950309904
 20
117.6791182518
 30
0.0
 10
134.6353838572
 20
117.6788981372
 30
0.0
 10
134.9296641051
 20
117.6798501882
 30
0.0
 10
135.0671068638
 20
117.6808003981
 30
0.0
 10
135.1210441757
 20
117.6820166611
 30
0.0
  0
SPLINE
  5
35C
100
AcDbEntity
  8
0
100
AcDbSpline
 62
7
  6
BYLAYER
 70
0
 71
3
 72
11
 73
7
 74
0
 42
0.0000001
 43
0.0000001
 44
0.0000000001
 40
0.0
 40
0.0
 40
0.0
 40
0.0
 40
0.4335979575
 40
0.7461033938
 40
0.935433498
 40
1.0
 40
1.0
 40
1.0
 40
1.0
 10
135.1210441757
 20
117.6820166611
 30
0.0
 10
135.1259375175
 20
117.6821270038
 30
0.0
 10
135.13405705
 20
117.6825377948
 30
0.0
 10
135.1455291594
 20
117.6822930138
 30
0.0
 10
135.1503182575
 20
117.6836940135
 30
0.0
 10
135.1548471587
 20
117.682865053
 30
0.0
 10
135.1548471587
 20
117.6835938993
 30
0.0
  0
SPLINE
  5
35D
100
AcDbEntity
  8
0
100
AcDbSpline
 62
7
  6
BYLAYER
 70
0
 71
3
 72
9
 73
5
 74
0
 42
0.0000001
 43
0.0000001
 44
0.0000000001
 40
0.0
 40
0.0
 40
0.0
 40
0.0
 40
0.5678297659
 40
1.0
 40
1.0
 40
1.0
 40
1.0
 10
125.6548471587
 20
117.7256851057
 30
0.0
 10
127.2795008839
 20
117.7244475364
 30
0.0
 10
130.1406528834
 20
117.7167934264
 30
0.0
 10
133.0017895966
 20
117.6974480813
 30
0.0
 10
134.2381926
 20
117.6811816565
 30
0.0
  0
LINE
  5
35E
100
AcDbEntity
  8
0
100
AcDbLine
 62
7
  6
BYLAYER
 10
59.0569700768
 20
128.1265914678
 11
59.0572380889
 21
128.1425126898
  0
SPLINE
  5
35F
100
AcDbEntity
  8
0
100
AcDbSpline
 62
7
  6
BYLAYER
 70
0
 71
3
 72
13
 73
9
 74
0
 42
0.0000001
 43
0.0000001
 44
0.0000000001
 40
0.0
 40
0.0
 40
0.0
 40
0.0
 40
0.0886136978
 40
0.207604276
 40
0.4999999997
 40
0.7923957237
 40
0.911386302
 40
1.0
 40
1.0
 40
1.0
 40
1.0
 10
59.0572380889
 20
128.1425126898
 30
0.0
 10
59.0650979785
 20
128.6116532695
 30
0.0
 10
59.0771984607
 20
129.7108564517
 30
0.0
 10
59.0949792538
 20
132.3582796761
 30
0.0
 10
59.1023365577
 20
136.0847921203
 30
0.0
 10
59.0949792539
 20
139.8113045652
 30
0.0
 10
59.0771984607
 20
142.4587277925
 30
0.0
 10
59.0650979786
 20
143.5579309764
 30
0.0
 10
59.0572380889
 20
144.0270715571
 30
0.0
  0
LINE
  5
360
100
AcDbEntity
  8
0
100
AcDbLine
 62
7
  6
BYLAYER
 10
59.0572380889
 20
144.0270715571
 11
59.0569700768
 21
144.0429927773
  0
SPLINE
  5
361
100
AcDbEntity
  8
0
100
AcDbSpline
 62
7
  6
BYLAYER
 70
0
 71
3
 72
21
 73
17
 74
0
 42
0.0000001
 43
0.0000001
 44
0.0000000001
 40
0.0
 40
0.0
 40
0.0
 40
0.0
 40
0.0012596669
 40
0.0044331446
 40
0.0096275255
 40
0.0168565232
 40
0.0374201944
 40
0.066106557
 40
0.10286887
 40
0.1476006912
 40
0.2001801435
 40
0.2604847052
 40
0.4037020411
 40
0.5758910861
 40
0.7754345823
 40
1.0
 40
1.0
 40
1.0
 40
1.0
 10
74.5239441418
 20
130.4347921225
 30
0.0
 10
74.5246519279
 20
130.4347921225
 30
0.0
 10
74.5256257076
 20
130.438009873
 30
0.0
 10
74.5266294011
 20
130.4425594866
 30
0.0
 10
74.5278036953
 20
130.4516671755
 30
0.0
 10
74.5295626558
 20
130.469868212
 30
0.0
 10
74.5316230363
 20
130.5017273643
 30
0.0
 10
74.533945668
 20
130.5499109292
 30
0.0
 10
74.5362673996
 20
130.6118119429
 30
0.0
 10
74.5385806986
 20
130.6870978696
 30
0.0
 10
74.5408685704
 20
130.775634609
 30
0.0
 10
74.5440588377
 20
130.9194967787
 30
0.0
 10
74.5478088919
 20
131.1305712358
 30
0.0
 10
74.5519033237
 20
131.4198840105
 30
0.0
 10
74.5557419498
 20
131.7549124877
 30
0.0
 10
74.5579820581
 20
131.9932018681
 30
0.0
 10
74.5590669739
 20
132.1193768071
 30
0.0
  0
SPLINE
  5
362
100
AcDbEntity
  8
0
100
AcDbSpline
 62
7
  6
BYLAYER
 70
0
 71
3
 72
29
 73
25
 74
0
 42
0.0000001
 43
0.0000001
 44
0.0000000001
 40
0.0
 40
0.0
 40
0.0
 40
0.0
 40
0.0003685961
 40
0.0012794473
 40
0.0027670803
 40
0.0048363129
 40
0.0074879786
 40
0.0107217917
 40
0.0189327115
 40
0.0294581158
 40
0.0422722639
 40
0.057345591
 40
0.0746483223
 40
0.0941474546
 40
0.115797428
 40
0.1653549367
 40
0.2229076696
 40
0.2879497151
 40
0.3599326664
 40
0.4382310362
 40
0.5221814388
 40
0.6110460605
 40
0.8004681146
 40
1.0
 40
1.0
 40
1.0
 40
1.0
 10
113.1548471587
 20
154.5438798202
 30
0.0
 10
113.1548471587
 20
154.5425894556
 30
0.0
 10
113.1604844451
 20
154.5406375188
 30
0.0
 10
113.1687139108
 20
154.5387939429
 30
0.0
 10
113.1848961153
 20
154.5365157542
 30
0.0
 10
113.206216965
 20
154.5343252474
 30
0.0
 10
113.2340898081
 20
154.5320456294
 30
0.0
 10
113.2832735565
 20
154.5287562152
 30
0.0
 10
113.3601248511
 20
154.5248211783
 30
0.0
 10
113.470470805
 20
154.5203756285
 30
0.0
 10
113.6048787805
 20
154.5159510556
 30
0.0
 10
113.7630162312
 20
154.511563136
 30
0.0
 10
113.9445678973
 20
154.5072317267
 30
0.0
 10
114.1491490859
 20
154.5029699029
 30
0.0
 10
114.4666372854
 20
154.4971286209
 30
0.0
 10
114.9173432529
 20
154.4902230149
 30
0.0
 10
115.519959491
 20
154.4826800055
 30
0.0
 10
116.2010923403
 20
154.4756300848
 30
0.0
 10
116.954859026
 20
154.4691450693
 30
0.0
 10
117.7748261062
 20
154.4632820523
 30
0.0
 10
118.6538974142
 20
154.458099593
 30
0.0
 10
119.9219862137
 20
154.4520253777
 30
0.0
 10
121.594703847
 20
154.4465550594
 30
0.0
 10
122.9563351874
 20
154.4444310522
 30
0.0
 10
123.6548471587
 20
154.4438989652
 30
0.0
  0
SPLINE
  5
363
100
AcDbEntity
  8
0
100
AcDbSpline
 62
7
  6
BYLAYER
 70
0
 71
3
 72
21
 73
17
 74
0
 42
0.0000001
 43
0.0000001
 44
0.0000000001
 40
0.0
 40
0.0
 40
0.0
 40
0.0
 40
0.0199179031
 40
0.0553321256
 40
0.1050874366
 40
0.1675907683
 40
0.2408261626
 40
0.3224255662
 40
0.5000000015
 40
0.6775744364
 40
0.7591738397
 40
0.8324092334
 40
0.8949125645
 40
0.9446678751
 40
0.9800820972
 40
1.0
 40
1.0
 40
1.0
 40
1.0
 10
74.5590669739
 20
132.1193768071
 30
0.0
 10
74.5625328457
 20
132.1719211525
 30
0.0
 10
74.566363933
 20
132.3182103462
 30
0.0
 10
74.5720653436
 20
132.5959470501
 30
0.0
 10
74.5767847863
 20
132.9863517025
 30
0.0
 10
74.5812153626
 20
133.4767307605
 30
0.0
 10
74.5847548331
 20
134.0513166932
 30
0.0
 10
74.5883913964
 20
134.930125138
 30
0.0
 10
74.5900837205
 20
136.0847921335
 30
0.0
 10
74.5883913963
 20
137.239459128
 30
0.0
 10
74.584754833
 20
138.1182675694
 30
0.0
 10
74.5812153625
 20
138.692853498
 30
0.0
 10
74.5767847862
 20
139.1832325517
 30
0.0
 10
74.5720653435
 20
139.5736372002
 30
0.0
 10
74.5663639329
 20
139.8513739012
 30
0.0
 10
74.5625328457
 20
139.9976630932
 30
0.0
 10
74.5590669739
 20
140.050207438
 30
0.0
  0
SPLINE
  5
364
100
AcDbEntity
  8
0
100
AcDbSpline
 62
7
  6
BYLAYER
 70
0
 71
3
 72
21
 73
17
 74
0
 42
0.0000001
 43
0.0000001
 44
0.0000000001
 40
0.0
 40
0.0
 40
0.0
 40
0.0
 40
0.2245654177
 40
0.4241089139
 40
0.5962979589
 40
0.7395152948
 40
0.7998198565
 40
0.8523993088
 40
0.89713113
 40
0.933893443
 40
0.9625798056
 40
0.9831434768
 40
0.9903724745
 40
0.9955668554
 40
0.9987403331
 40
1.0
 40
1.0
 40
1.0
 40
1.0
 10
74.5590669739
 20
140.050207438
 30
0.0
 10
74.5579820581
 20
140.176382377
 30
0.0
 10
74.5557419498
 20
140.4146717574
 30
0.0
 10
74.5519033237
 20
140.7497002346
 30
0.0
 10
74.5478088919
 20
141.0390130093
 30
0.0
 10
74.5440588377
 20
141.2500874664
 30
0.0
 10
74.5408685704
 20
141.3939496361
 30
0.0
 10
74.5385806986
 20
141.4824863755
 30
0.0
 10
74.5362673996
 20
141.5577723022
 30
0.0
 10
74.533945668
 20
141.6196733159
 30
0.0
 10
74.5316230363
 20
141.6678568808
 30
0.0
 10
74.5295626558
 20
141.6997160331
 30
0.0
 10
74.5278036953
 20
141.7179170696
 30
0.0
 10
74.5266294011
 20
141.7270247585
 30
0.0
 10
74.5256257076
 20
141.731574372
 30
0.0
 10
74.5246519279
 20
141.7347921225
 30
0.0
 10
74.5239441418
 20
141.7347921225
 30
0.0
  0
SPLINE
  5
365
100
AcDbEntity
  8
0
100
AcDbSpline
 62
7
  6
BYLAYER
 70
0
 71
3
 72
49
 73
45
 74
0
 42
0.0000001
 43
0.0000001
 44
0.0000000001
 40
0.0
 40
0.0
 40
0.0
 40
0.0
 40
0.0001487135
 40
0.0005705019
 40
0.0012902813
 40
0.0023104717
 40
0.0052516714
 40
0.0093895085
 40
0.0147143831
 40
0.0212113291
 40
0.0288646058
 40
0.0376581785
 40
0.0475710528
 40
0.058577035
 40
0.0837619079
 40
0.1129721137
 40
0.1459244119
 40
0.1823011187
 40
0.2217502987
 40
0.263889796
 40
0.3083129835
 40
0.4022718156
 40
0.5000010774
 40
0.5977299244
 40
0.6916876412
 40
0.736110145
 40
0.7782490773
 40
0.8176977621
 40
0.8540743056
 40
0.8870264942
 40
0.9162369532
 40
0.9414220185
 40
0.9524282183
 40
0.9623412658
 40
0.971134905
 40
0.9787883277
 40
0.9852854505
 40
0.9906104434
 40
0.9947483049
 40
0.9976895182
 40
0.9987097132
 40
0.9994294957
 40
0.9998512859
 40
1.0
 40
1.0
 40
1.0
 40
1.0
 10
55.2857105316
 20
126.223905362
 30
0.0
 10
55.2848233327
 20
126.2234941815
 30
0.0
 10
55.2821687205
 20
126.2284284611
 30
0.0
 10
55.2813947799
 20
126.2353472651
 30
0.0
 10
55.2788341247
 20
126.2502275602
 30
0.0
 10
55.2761157172
 20
126.2803617881
 30
0.0
 10
55.2723005858
 20
126.3338814272
 30
0.0
 10
55.2684008688
 20
126.4151614164
 30
0.0
 10
55.2643295759
 20
126.5200984038
 30
0.0
 10
55.2603337687
 20
126.6480667414
 30
0.0
 10
55.256357748
 20
126.7988883671
 30
0.0
 10
55.2524469719
 20
126.9721671753
 30
0.0
 10
55.2486045468
 20
127.1675015203
 30
0.0
 10
55.2433525884
 20
127.4706061084
 30
0.0
 10
55.2371776813
 20
127.9006007045
 30
0.0
 10
55.230481277
 20
128.4749055659
 30
0.0
 10
55.2242878314
 20
129.1228106587
 30
0.0
 10
55.2186622143
 20
129.8380483702
 30
0.0
 10
55.213665858
 20
130.6137015406
 30
0.0
 10
55.2093485349
 20
131.4422683064
 30
0.0
 10
55.2044688268
 20
132.629258807
 30
0.0
 10
55.2004382
 20
134.1817795944
 30
0.0
 10
55.1988288172
 20
136.0848106041
 30
0.0
 10
55.2004382609
 20
137.9878342798
 30
0.0
 10
55.2044688651
 20
139.5403405107
 30
0.0
 10
55.2093485542
 20
140.7273154672
 30
0.0
 10
55.2136657694
 20
141.5558707671
 30
0.0
 10
55.2186621186
 20
142.3315158924
 30
0.0
 10
55.2242875842
 20
143.0467485546
 30
0.0
 10
55.2304810737
 20
143.6946535173
 30
0.0
 10
55.2371773479
 20
144.2689605899
 30
0.0
 10
55.2433523698
 20
144.6989595452
 30
0.0
 10
55.2486042907
 20
145.0020679689
 30
0.0
 10
55.2524467008
 20
145.1974053213
 30
0.0
 10
55.2563575522
 20
145.370686664
 30
0.0
 10
55.2603336018
 20
145.5215108502
 30
0.0
 10
55.2643294454
 20
145.6494820878
 30
0.0
 10
55.2684007867
 20
145.7544211795
 30
0.0
 10
55.2723006514
 20
145.8357021879
 30
0.0
 10
55.2761158518
 20
145.8892221066
 30
0.0
 10
55.2788343022
 20
145.9193564651
 30
0.0
 10
55.2813949759
 20
145.9342368291
 30
0.0
 10
55.2821689309
 20
145.9411556531
 30
0.0
 10
55.2848235454
 20
145.9460899622
 30
0.0
 10
55.2857107475
 20
145.9456787802
 30
0.0
  0
ELLIPSE
  5
366
100
AcDbEntity
  8
0
100
AcDbEllipse
 62
7
  6
BYLAYER
 10
76.6549233154
 20
119.7348682793
 30
0.0
 11
1.4143212623
 21
1.4143212623
 31
0.0
 40
0.9999238505
 41
2.3562325664
 42
3.9269527408
  0
ELLIPSE
  5
367
100
AcDbEntity
  8
0
100
AcDbEllipse
 62
7
  6
BYLAYER
 10
76.4498419224
 20
119.5297868862
 30
0.0
 11
1.4143212623
 21
1.4143212623
 31
0.0
 40
0.9999238505
 41
2.3562325664
 42
3.9269527408
  0
ELLIPSE
  5
368
100
AcDbEntity
  8
0
100
AcDbEllipse
 62
7
  6
BYLAYER
 10
76.6549233154
 20
152.4347159658
 30
0.0
 11
-1.4143212623
 21
1.4143212623
 31
0.0
 40
0.9999238505
 41
-0.7853600872
 42
0.7853600872
  0
ELLIPSE
  5
369
100
AcDbEntity
  8
0
100
AcDbEllipse
 62
7
  6
BYLAYER
 10
76.4498419224
 20
152.6397973588
 30
0.0
 11
-1.4143212623
 21
1.4143212623
 31
0.0
 40
0.9999238505
 41
-0.7853600872
 42
0.7853600872
  0
ENDSEC
  0
SECTION
  2
OBJECTS
  0
DICTIONARY
  5
C
100
AcDbDictionary
280
0
281
1
  3
ACAD_GROUP
350
D
  3
ACAD_MLINESTYLE
350
17
  3
ACAD_LAYOUT
350
1A
  3
ACAD_PLOTSETTINGS
350
19
  3
ACAD_PLOTSTYLENAME
350
E
  0
DICTIONARY
  5
D
102
{ACAD_REACTORS
330
C
102
}
100
AcDbDictionary
280
0
281
1
  0
ACDBDICTIONARYWDFLT
  5
E
102
{ACAD_REACTORS
330
C
102
}
100
AcDbDictionary
281
1
  3
Normal
350
F
100
AcDbDictionaryWithDefault
340
F
  0
DICTIONARY
  5
17
102
{ACAD_REACTORS
330
C
102
}
100
AcDbDictionary
280
0
281
1
  3
Standard
350
18
  0
DICTIONARY
  5
19
102
{ACAD_REACTORS
330
C
102
}
100
AcDbDictionary
281
1
  0
DICTIONARY
  5
1A
102
{ACAD_REACTORS
330
C
102
}
100
AcDbDictionary
281
1
  3
Model
350
36A
  3
Layout1
350
36B
  0
ACDBPLACEHOLDER
  5
F
102
{ACAD_REACTORS
330
E
102
}
  0
MLINESTYLE
  5
18
102
{ACAD_REACTORS
330
17
102
}
100
AcDbMlineStyle
  2
STANDARD
 70
0
  3

 62
256
 51
90.0
 52
90.0
 71
2
 49
0.5
 62
256
  6
BYLAYER
 49
-0.5
 62
256
  6
BYLAYER
  0
LAYOUT
  5
36A
102
{ACAD_REACTORS
330
1A
102
}
100
AcDbPlotSettings
  1

  2
none_device
  4

  6

 40
0.0
 41
0.0
 42
0.0
 43
0.0
 44
210.0
 45
297.0
 46
0.0
 47
0.0
 48
0.0
 49
0.0
140
0.0
141
0.0
142
1.0
143
1.0
 70
1024
 72
1
 73
0
 74
0
  7

 75
0
147
1.0
148
0.0
149
0.0
100
AcDbLayout
  1
Model
 70
0
 71
0
 10
0.0
 20
0.0
 11
210.0
 21
297.0
 12
0.0
 22
0.0
 32
0.0
 14
0.0
 24
0.0
 34
0.0
 15
0.0
 25
0.0
 35
0.0
146
0.0
 13
0.0
 23
0.0
 33
0.0
 16
1.0
 26
0.0
 36
0.0
 17
0.0
 27
1.0
 37
0.0
 76
0
330
210
345
0
346
0
  0
LAYOUT
  5
36B
102
{ACAD_REACTORS
330
1A
102
}
100
AcDbPlotSettings
  1

  2
none_device
  4

  6

 40
0.0
 41
0.0
 42
0.0
 43
0.0
 44
210.0
 45
297.0
 46
0.0
 47
0.0
 48
0.0
 49
0.0
140
0.0
141
0.0
142
1.0
143
1.0
 70
0
 72
1
 73
0
 74
0
  7

 75
0
147
1.0
148
0.0
149
0.0
100
AcDbLayout
  1
Layout1
 70
0
 71
1
 10
0.0
 20
0.0
 11
210.0
 21
297.0
 12
0.0
 22
0.0
 32
0.0
 14
0.0
 24
0.0
 34
0.0
 15
0.0
 25
0.0
 35
0.0
146
0.0
 13
0.0
 23
0.0
 33
0.0
 16
1.0
 26
0.0
 36
0.0
 17
0.0
 27
1.0
 37
0.0
 76
0
330
211
345
0
346
0
  0
ENDSEC
  0
EOF
