  0
SECTION
  2
HEADER
  9
$ACADVER
  1
AC1009
  9
$DWGCODEPAGE
  3
ansi_1250
  9
$INSBASE
 10
0.0
 20
0.0
 30
0.0
  9
$EXTMIN
 10
-2.007654
 20
-2.007654
 30
0.0
  9
$EXTMAX
 10
2.007654
 20
2.007654
 30
0.0
  9
$LIMMIN
 10
0.0
 20
0.0
  9
$LIMMAX
 10
0.0
 20
0.0
  9
$ORTHOMODE
 70
     0
  9
$REGENMODE
 70
     1
  9
$FILLMODE
 70
     1
  9
$QTEXTMODE
 70
     0
  9
$MIRRTEXT
 70
     1
  9
$DRAGMODE
 70
     2
  9
$LTSCALE
 40
1.0
  9
$OSMODE
 70
     0
  9
$ATTMODE
 70
     1
  9
$TEXTSIZE
 40
0.2
  9
$TRACEWID
 40
0.05
  9
$TEXTSTYLE
  7
STANDARD
  9
$CLAYER
  8
0
  9
$CELTYPE
  6
CONTINUOUS
  9
$CECOLOR
 62
   256
  9
$DIMSCALE
 40
1.0
  9
$DIMASZ
 40
0.18
  9
$DIMEXO
 40
0.0625
  9
$DIMDLI
 40
0.38
  9
$DIMRND
 40
0.0
  9
$DIMDLE
 40
0.0
  9
$DIMEXE
 40
0.18
  9
$DIMTP
 40
0.0
  9
$DIMTM
 40
0.0
  9
$DIMTXT
 40
0.18
  9
$DIMCEN
 40
0.09
  9
$DIMTSZ
 40
0.0
  9
$DIMTOL
 70
     0
  9
$DIMLIM
 70
     0
  9
$DIMTIH
 70
     1
  9
$DIMTOH
 70
     1
  9
$DIMSE1
 70
     0
  9
$DIMSE2
 70
     0
  9
$DIMTAD
 70
     0
  9
$DIMZIN
 70
     0
  9
$DIMBLK
  1

  9
$DIMASO
 70
     1
  9
$DIMSHO
 70
     1
  9
$DIMPOST
  1

  9
$DIMAPOST
  1

  9
$DIMALT
 70
     0
  9
$DIMALTD
 70
     2
  9
$DIMALTF
 40
25.4
  9
$DIMLFAC
 40
1.0
  9
$DIMTOFL
 70
     0
  9
$DIMTVP
 40
0.0
  9
$DIMTIX
 70
     0
  9
$DIMSOXD
 70
     0
  9
$DIMSAH
 70
     0
  9
$DIMBLK1
  1

  9
$DIMBLK2
  1

  9
$DIMSTYLE
  2
STANDARD
  9
$DIMCLRD
 70
     0
  9
$DIMCLRE
 70
     0
  9
$DIMCLRT
 70
     0
  9
$DIMTFAC
 40
1.0
  9
$DIMGAP
 40
0.09
  9
$LUNITS
 70
     2
  9
$LUPREC
 70
     4
  9
$AXISMODE
 70
     0
  9
$AXISUNIT
 10
0.0
 20
0.0
  9
$SKETCHINC
 40
0.1
  9
$FILLETRAD
 40
0.0
  9
$AUNITS
 70
     0
  9
$AUPREC
 70
     0
  9
$MENU
  1
acad
  9
$ELEVATION
 40
0.0
  9
$PELEVATION
 40
0.0
  9
$THICKNESS
 40
0.0
  9
$LIMCHECK
 70
     0
  9
$BLIPMODE
 70
     1
  9
$CHAMFERA
 40
0.0
  9
$CHAMFERB
 40
0.0
  9
$SKPOLY
 70
     0
  9
$TDCREATE
 40
0.000000000
  9
$TDUPDATE
 40
0.000000000
  9
$TDINDWG
 40
0.0000000000
  9
$TDUSRTIMER
 40
0.0000000000
  9
$USRTIMER
 70
     1
  9
$ANGBASE
 50
0.0
  9
$ANGDIR
 70
     0
  9
$PDMODE
 70
     0
  9
$PDSIZE
 40
0.0
  9
$PLINEWID
 40
0.0
  9
$COORDS
 70
     0
  9
$SPLFRAME
 70
     0
  9
$SPLINETYPE
 70
     6
  9
$SPLINESEGS
 70
     8
  9
$ATTDIA
 70
     0
  9
$ATTREQ
 70
     1
  9
$HANDLING
 70
     1
  9
$HANDSEED
  5
33F
  9
$SURFTAB1
 70
     6
  9
$SURFTAB2
 70
     6
  9
$SURFTYPE
 70
     6
  9
$SURFU
 70
     6
  9
$SURFV
 70
     6
  9
$UCSNAME
  2

  9
$UCSORG
 10
0.0
 20
0.0
 30
0.0
  9
$UCSXDIR
 10
1.0
 20
0.0
 30
0.0
  9
$UCSYDIR
 10
0.0
 20
1.0
 30
0.0
  9
$PUCSNAME
  2

  9
$PUCSORG
 10
0.0
 20
0.0
 30
0.0
  9
$PUCSXDIR
 10
1.0
 20
0.0
 30
0.0
  9
$PUCSYDIR
 10
0.0
 20
1.0
 30
0.0
  9
$USERI1
 70
     0
  9
$USERI2
 70
     0
  9
$USERI3
 70
     0
  9
$USERI4
 70
     0
  9
$USERI5
 70
     0
  9
$USERR1
 40
0.0
  9
$USERR2
 40
0.0
  9
$USERR3
 40
0.0
  9
$USERR4
 40
0.0
  9
$USERR5
 40
0.0
  9
$WORLDVIEW
 70
     1
  9
$SHADEDGE
 70
     3
  9
$SHADEDIF
 70
    70
  9
$TILEMODE
 70
     1
  9
$MAXACTVP
 70
    16
  9
$PINSBASE
 10
0.0
 20
0.0
 30
0.0
  9
$PLIMCHECK
 70
     0
  9
$PEXTMIN
 10
1.000000E+20
 20
1.000000E+20
 30
1.000000E+20
  9
$PEXTMAX
 10
-1.000000E+20
 20
-1.000000E+20
 30
-1.000000E+20
  9
$PLIMMIN
 10
0.0
 20
0.0
  9
$PLIMMAX
 10
12.0
 20
9.0
  9
$UNITMODE
 70
     0
  9
$VISRETAIN
 70
     0
  9
$PLINEGEN
 70
     1
  9
$PSLTSCALE
 70
     0
  9
$TREEDEPTH
 70
  3020
  0
ENDSEC
  0
SECTION
  2
TABLES
  0
TABLE
  2
VPORT
 70
     1
  0
VPORT
  2
*ACTIVE
 70
     0
 10
0.0
 20
0.0
 11
1.0
 21
1.0
 12
6.591288
 22
4.579184
 13
0.0
 23
0.0
 14
1.0
 24
1.0
 15
0.0
 25
0.0
 16
0.0
 26
0.0
 36
1.0
 17
0.0
 27
0.0
 37
0.0
 40
9.158369
 41
0.688564
 42
50.0
 43
0.0
 44
0.0
 50
0.0
 51
0.0
 71
     0
 72
   100
 73
     1
 74
     1
 75
     0
 76
     0
 77
     0
 78
     0
  0
ENDTAB
  0
TABLE
  2
LTYPE
 70
     5
  0
LTYPE
  2
CONTINUOUS
 70
    64
  3
Solid line
 72
    65
 73
     0
 40
0.0
  0
LTYPE
  2
CENTER
 70
    64
  3
Center ____ _ ____ _ ____ _ ____ _ ____ _ ____
 72
    65
 73
     4
 40
50.8
 49
31.75
 49
-6.35
 49
6.35
 49
-6.35
  0
LTYPE
  2
HIDDEN
 70
    64
  3
Hidden __ __ __ __ __ __ __ __ __ __ __ __ __ __
 72
    65
 73
     2
 40
9.525
 49
6.35
 49
-3.175
  0
LTYPE
  2
CENTER2
 70
    64
  3
Center (.5x) ___ _ ___ _ ___ _ ___ _ ___ _ ___
 72
    65
 73
     4
 40
28.575
 49
19.05
 49
-3.175
 49
3.175
 49
-3.175
  0
LTYPE
  2
HIDDEN2
 70
    64
  3
Hidden (.5x) _ _ _ _ _ _ _ _ _ _ _ _ _ _ _ _ _
 72
    65
 73
     2
 40
4.7625
 49
3.175
 49
-1.5875
  0
ENDTAB
  0
TABLE
  2
LAYER
 70
     1
  0
LAYER
  2
0
 70
     0
 62
     7
  6
CONTINUOUS
  0
ENDTAB
  0
TABLE
  2
STYLE
 70
     1
  0
STYLE
  2
STANDARD
 70
     0
 40
0.0
 41
1.0
 50
0.0
 71
     0
 42
0.0
  3
txt
  4

  0
ENDTAB
  0
TABLE
  2
VIEW
 70
     0
  0
ENDTAB
  0
TABLE
  2
UCS
 70
     0
  0
ENDTAB
  0
TABLE
  2
APPID
 70
     1
  0
APPID
  2
ACAD
 70
     0
  0
ENDTAB
  0
TABLE
  2
DIMSTYLE
 70
     1
  0
DIMSTYLE
  2
STANDARD
 70
     0
  3

  4

  5

  6

  7

 40
1.0
 41
0.18
 42
0.0625
 43
0.38
 44
0.18
 45
0.0
 46
0.0
 47
0.0
 48
0.0
 71
     0
 72
     0
 73
     1
 74
     1
 75
     0
 76
     0
 77
     0
 78
     0
140
0.18
141
0.09
142
0.0
143
25.4
144
1.0
145
0.0
146
1.0
147
0.09
170
     0
171
     2
172
     0
173
     0
174
     0
175
     0
176
     0
177
     0
178
     0
  0
ENDTAB
  0
ENDSEC
  0
SECTION
  2
BLOCKS
  0
ENDSEC
  0
SECTION
  2
ENTITIES
  0
LINE
  8
0
  6
CONTINUOUS
 62
     7
  5
1C6
 10
-0.721972
 20
-0.053856
 30
0.0
 11
-0.722228
 21
-0.051403
 31
0.0
  0
LINE
  8
0
  6
CONTINUOUS
 62
     7
  5
1C7
 10
-0.722228
 20
-0.051403
 30
0.0
 11
-0.722481
 21
-0.048831
 31
0.0
  0
LINE
  8
0
  6
CONTINUOUS
 62
     7
  5
1C8
 10
-0.722481
 20
-0.048831
 30
0.0
 11
-0.722729
 21
-0.046145
 31
0.0
  0
LINE
  8
0
  6
CONTINUOUS
 62
     7
  5
1C9
 10
-0.722729
 20
-0.046145
 30
0.0
 11
-0.722969
 21
-0.043354
 31
0.0
  0
LINE
  8
0
  6
CONTINUOUS
 62
     7
  5
1CA
 10
-0.722969
 20
-0.043354
 30
0.0
 11
-0.7232
 21
-0.040464
 31
0.0
  0
LINE
  8
0
  6
CONTINUOUS
 62
     7
  5
1CB
 10
-0.7232
 20
-0.040464
 30
0.0
 11
-0.72342
 21
-0.037485
 31
0.0
  0
LINE
  8
0
  6
CONTINUOUS
 62
     7
  5
1CC
 10
-0.72342
 20
-0.037485
 30
0.0
 11
-0.723627
 21
-0.034426
 31
0.0
  0
LINE
  8
0
  6
CONTINUOUS
 62
     7
  5
1CD
 10
-0.723627
 20
-0.034426
 30
0.0
 11
-0.723819
 21
-0.031296
 31
0.0
  0
LINE
  8
0
  6
CONTINUOUS
 62
     7
  5
1CE
 10
-0.723819
 20
-0.031296
 30
0.0
 11
-0.723996
 21
-0.028105
 31
0.0
  0
LINE
  8
0
  6
CONTINUOUS
 62
     7
  5
1CF
 10
-0.723996
 20
-0.028105
 30
0.0
 11
-0.724155
 21
-0.024862
 31
0.0
  0
LINE
  8
0
  6
CONTINUOUS
 62
     7
  5
1D0
 10
-0.724155
 20
-0.024862
 30
0.0
 11
-0.724295
 21
-0.021577
 31
0.0
  0
LINE
  8
0
  6
CONTINUOUS
 62
     7
  5
1D1
 10
-0.724295
 20
-0.021577
 30
0.0
 11
-0.724417
 21
-0.018261
 31
0.0
  0
LINE
  8
0
  6
CONTINUOUS
 62
     7
  5
1D2
 10
-0.724417
 20
-0.018261
 30
0.0
 11
-0.724519
 21
-0.014925
 31
0.0
  0
LINE
  8
0
  6
CONTINUOUS
 62
     7
  5
1D3
 10
-0.724519
 20
-0.014925
 30
0.0
 11
-0.7246
 21
-0.011581
 31
0.0
  0
LINE
  8
0
  6
CONTINUOUS
 62
     7
  5
1D4
 10
-0.7246
 20
-0.011581
 30
0.0
 11
-0.72466
 21
-0.008243
 31
0.0
  0
LINE
  8
0
  6
CONTINUOUS
 62
     7
  5
1D5
 10
-0.72466
 20
-0.008243
 30
0.0
 11
-0.7247
 21
-0.004922
 31
0.0
  0
LINE
  8
0
  6
CONTINUOUS
 62
     7
  5
1D6
 10
-0.7247
 20
-0.004922
 30
0.0
 11
-0.72472
 21
-0.001631
 31
0.0
  0
LINE
  8
0
  6
CONTINUOUS
 62
     7
  5
1D7
 10
-0.72472
 20
-0.001631
 30
0.0
 11
-0.72472
 21
0.001631
 31
0.0
  0
LINE
  8
0
  6
CONTINUOUS
 62
     7
  5
1D8
 10
-0.72472
 20
0.001631
 30
0.0
 11
-0.7247
 21
0.004922
 31
0.0
  0
LINE
  8
0
  6
CONTINUOUS
 62
     7
  5
1D9
 10
-0.7247
 20
0.004922
 30
0.0
 11
-0.72466
 21
0.008243
 31
0.0
  0
LINE
  8
0
  6
CONTINUOUS
 62
     7
  5
1DA
 10
-0.72466
 20
0.008243
 30
0.0
 11
-0.7246
 21
0.011581
 31
0.0
  0
LINE
  8
0
  6
CONTINUOUS
 62
     7
  5
1DB
 10
-0.7246
 20
0.011581
 30
0.0
 11
-0.724519
 21
0.014925
 31
0.0
  0
LINE
  8
0
  6
CONTINUOUS
 62
     7
  5
1DC
 10
-0.724519
 20
0.014925
 30
0.0
 11
-0.724417
 21
0.018261
 31
0.0
  0
LINE
  8
0
  6
CONTINUOUS
 62
     7
  5
1DD
 10
-0.724417
 20
0.018261
 30
0.0
 11
-0.724295
 21
0.021577
 31
0.0
  0
LINE
  8
0
  6
CONTINUOUS
 62
     7
  5
1DE
 10
-0.724295
 20
0.021577
 30
0.0
 11
-0.724155
 21
0.024862
 31
0.0
  0
LINE
  8
0
  6
CONTINUOUS
 62
     7
  5
1DF
 10
-0.724155
 20
0.024862
 30
0.0
 11
-0.723996
 21
0.028105
 31
0.0
  0
LINE
  8
0
  6
CONTINUOUS
 62
     7
  5
1E0
 10
-0.723996
 20
0.028105
 30
0.0
 11
-0.723819
 21
0.031296
 31
0.0
  0
LINE
  8
0
  6
CONTINUOUS
 62
     7
  5
1E1
 10
-0.723819
 20
0.031296
 30
0.0
 11
-0.723627
 21
0.034426
 31
0.0
  0
LINE
  8
0
  6
CONTINUOUS
 62
     7
  5
1E2
 10
-0.723627
 20
0.034426
 30
0.0
 11
-0.72342
 21
0.037485
 31
0.0
  0
LINE
  8
0
  6
CONTINUOUS
 62
     7
  5
1E3
 10
-0.72342
 20
0.037485
 30
0.0
 11
-0.7232
 21
0.040464
 31
0.0
  0
LINE
  8
0
  6
CONTINUOUS
 62
     7
  5
1E4
 10
-0.7232
 20
0.040464
 30
0.0
 11
-0.722969
 21
0.043354
 31
0.0
  0
LINE
  8
0
  6
CONTINUOUS
 62
     7
  5
1E5
 10
-0.722969
 20
0.043354
 30
0.0
 11
-0.722729
 21
0.046145
 31
0.0
  0
LINE
  8
0
  6
CONTINUOUS
 62
     7
  5
1E6
 10
-0.722729
 20
0.046145
 30
0.0
 11
-0.722481
 21
0.048831
 31
0.0
  0
LINE
  8
0
  6
CONTINUOUS
 62
     7
  5
1E7
 10
-0.722481
 20
0.048831
 30
0.0
 11
-0.722228
 21
0.051403
 31
0.0
  0
LINE
  8
0
  6
CONTINUOUS
 62
     7
  5
1E8
 10
-0.722228
 20
0.051403
 30
0.0
 11
-0.721972
 21
0.053856
 31
0.0
  0
LINE
  8
0
  6
CONTINUOUS
 62
     7
  5
1E9
 10
-0.717666
 20
-0.07874
 30
0.0
 11
-0.71773
 21
-0.07872
 31
0.0
  0
LINE
  8
0
  6
CONTINUOUS
 62
     7
  5
1EA
 10
-0.71773
 20
-0.07872
 30
0.0
 11
-0.7178
 21
-0.078659
 31
0.0
  0
LINE
  8
0
  6
CONTINUOUS
 62
     7
  5
1EB
 10
-0.7178
 20
-0.078659
 30
0.0
 11
-0.717874
 21
-0.078557
 31
0.0
  0
LINE
  8
0
  6
CONTINUOUS
 62
     7
  5
1EC
 10
-0.717874
 20
-0.078557
 30
0.0
 11
-0.717954
 21
-0.078412
 31
0.0
  0
LINE
  8
0
  6
CONTINUOUS
 62
     7
  5
1ED
 10
-0.717954
 20
-0.078412
 30
0.0
 11
-0.718038
 21
-0.078225
 31
0.0
  0
LINE
  8
0
  6
CONTINUOUS
 62
     7
  5
1EE
 10
-0.718038
 20
-0.078225
 30
0.0
 11
-0.718127
 21
-0.077994
 31
0.0
  0
LINE
  8
0
  6
CONTINUOUS
 62
     7
  5
1EF
 10
-0.718127
 20
-0.077994
 30
0.0
 11
-0.718221
 21
-0.07772
 31
0.0
  0
LINE
  8
0
  6
CONTINUOUS
 62
     7
  5
1F0
 10
-0.718221
 20
-0.07772
 30
0.0
 11
-0.718319
 21
-0.077402
 31
0.0
  0
LINE
  8
0
  6
CONTINUOUS
 62
     7
  5
1F1
 10
-0.718319
 20
-0.077402
 30
0.0
 11
-0.718422
 21
-0.07704
 31
0.0
  0
LINE
  8
0
  6
CONTINUOUS
 62
     7
  5
1F2
 10
-0.718422
 20
-0.07704
 30
0.0
 11
-0.718529
 21
-0.076634
 31
0.0
  0
LINE
  8
0
  6
CONTINUOUS
 62
     7
  5
1F3
 10
-0.718529
 20
-0.076634
 30
0.0
 11
-0.71864
 21
-0.076184
 31
0.0
  0
LINE
  8
0
  6
CONTINUOUS
 62
     7
  5
1F4
 10
-0.71864
 20
-0.076184
 30
0.0
 11
-0.718756
 21
-0.075691
 31
0.0
  0
LINE
  8
0
  6
CONTINUOUS
 62
     7
  5
1F5
 10
-0.718756
 20
-0.075691
 30
0.0
 11
-0.718875
 21
-0.075154
 31
0.0
  0
LINE
  8
0
  6
CONTINUOUS
 62
     7
  5
1F6
 10
-0.718875
 20
-0.075154
 30
0.0
 11
-0.718998
 21
-0.074574
 31
0.0
  0
LINE
  8
0
  6
CONTINUOUS
 62
     7
  5
1F7
 10
-0.718998
 20
-0.074574
 30
0.0
 11
-0.719124
 21
-0.073951
 31
0.0
  0
LINE
  8
0
  6
CONTINUOUS
 62
     7
  5
1F8
 10
-0.719124
 20
-0.073951
 30
0.0
 11
-0.719254
 21
-0.073286
 31
0.0
  0
LINE
  8
0
  6
CONTINUOUS
 62
     7
  5
1F9
 10
-0.719254
 20
-0.073286
 30
0.0
 11
-0.719387
 21
-0.072579
 31
0.0
  0
LINE
  8
0
  6
CONTINUOUS
 62
     7
  5
1FA
 10
-0.719387
 20
-0.072579
 30
0.0
 11
-0.719522
 21
-0.071831
 31
0.0
  0
LINE
  8
0
  6
CONTINUOUS
 62
     7
  5
1FB
 10
-0.719522
 20
-0.071831
 30
0.0
 11
-0.71966
 21
-0.071043
 31
0.0
  0
LINE
  8
0
  6
CONTINUOUS
 62
     7
  5
1FC
 10
-0.71966
 20
-0.071043
 30
0.0
 11
-0.7198
 21
-0.070215
 31
0.0
  0
LINE
  8
0
  6
CONTINUOUS
 62
     7
  5
1FD
 10
-0.7198
 20
-0.070215
 30
0.0
 11
-0.719942
 21
-0.069349
 31
0.0
  0
LINE
  8
0
  6
CONTINUOUS
 62
     7
  5
1FE
 10
-0.719942
 20
-0.069349
 30
0.0
 11
-0.720086
 21
-0.068445
 31
0.0
  0
LINE
  8
0
  6
CONTINUOUS
 62
     7
  5
1FF
 10
-0.720086
 20
-0.068445
 30
0.0
 11
-0.720231
 21
-0.067504
 31
0.0
  0
LINE
  8
0
  6
CONTINUOUS
 62
     7
  5
200
 10
-0.720231
 20
-0.067504
 30
0.0
 11
-0.720378
 21
-0.066528
 31
0.0
  0
LINE
  8
0
  6
CONTINUOUS
 62
     7
  5
201
 10
-0.720378
 20
-0.066528
 30
0.0
 11
-0.720525
 21
-0.065518
 31
0.0
  0
LINE
  8
0
  6
CONTINUOUS
 62
     7
  5
202
 10
-0.720525
 20
-0.065518
 30
0.0
 11
-0.720672
 21
-0.064475
 31
0.0
  0
LINE
  8
0
  6
CONTINUOUS
 62
     7
  5
203
 10
-0.720672
 20
-0.064475
 30
0.0
 11
-0.72082
 21
-0.0634
 31
0.0
  0
LINE
  8
0
  6
CONTINUOUS
 62
     7
  5
204
 10
-0.72082
 20
-0.0634
 30
0.0
 11
-0.720968
 21
-0.062296
 31
0.0
  0
LINE
  8
0
  6
CONTINUOUS
 62
     7
  5
205
 10
-0.720968
 20
-0.062296
 30
0.0
 11
-0.721115
 21
-0.061164
 31
0.0
  0
LINE
  8
0
  6
CONTINUOUS
 62
     7
  5
206
 10
-0.721115
 20
-0.061164
 30
0.0
 11
-0.721261
 21
-0.060005
 31
0.0
  0
LINE
  8
0
  6
CONTINUOUS
 62
     7
  5
207
 10
-0.721261
 20
-0.060005
 30
0.0
 11
-0.721406
 21
-0.058822
 31
0.0
  0
LINE
  8
0
  6
CONTINUOUS
 62
     7
  5
208
 10
-0.721406
 20
-0.058822
 30
0.0
 11
-0.72155
 21
-0.057616
 31
0.0
  0
LINE
  8
0
  6
CONTINUOUS
 62
     7
  5
209
 10
-0.72155
 20
-0.057616
 30
0.0
 11
-0.721692
 21
-0.056389
 31
0.0
  0
LINE
  8
0
  6
CONTINUOUS
 62
     7
  5
20A
 10
-0.721692
 20
-0.056389
 30
0.0
 11
-0.721832
 21
-0.05514
 31
0.0
  0
LINE
  8
0
  6
CONTINUOUS
 62
     7
  5
20B
 10
-0.721832
 20
-0.05514
 30
0.0
 11
-0.721972
 21
-0.053856
 31
0.0
  0
LINE
  8
0
  6
CONTINUOUS
 62
     7
  5
20C
 10
-0.717666
 20
0.07874
 30
0.0
 11
-0.717458
 21
0.078442
 31
0.0
  0
LINE
  8
0
  6
CONTINUOUS
 62
     7
  5
20D
 10
-0.717458
 20
0.078442
 30
0.0
 11
-0.717314
 21
0.077521
 31
0.0
  0
LINE
  8
0
  6
CONTINUOUS
 62
     7
  5
20E
 10
-0.717314
 20
0.077521
 30
0.0
 11
-0.717237
 21
0.075958
 31
0.0
  0
LINE
  8
0
  6
CONTINUOUS
 62
     7
  5
20F
 10
-0.717237
 20
0.075958
 30
0.0
 11
-0.717227
 21
0.073754
 31
0.0
  0
LINE
  8
0
  6
CONTINUOUS
 62
     7
  5
210
 10
-0.717227
 20
0.073754
 30
0.0
 11
-0.71728
 21
0.070933
 31
0.0
  0
LINE
  8
0
  6
CONTINUOUS
 62
     7
  5
211
 10
-0.71728
 20
0.070933
 30
0.0
 11
-0.717387
 21
0.06753
 31
0.0
  0
LINE
  8
0
  6
CONTINUOUS
 62
     7
  5
212
 10
-0.717387
 20
0.06753
 30
0.0
 11
-0.717538
 21
0.063606
 31
0.0
  0
LINE
  8
0
  6
CONTINUOUS
 62
     7
  5
213
 10
-0.717538
 20
0.063606
 30
0.0
 11
-0.71772
 21
0.059239
 31
0.0
  0
LINE
  8
0
  6
CONTINUOUS
 62
     7
  5
214
 10
-0.71772
 20
0.059239
 30
0.0
 11
-0.717921
 21
0.054519
 31
0.0
  0
LINE
  8
0
  6
CONTINUOUS
 62
     7
  5
215
 10
-0.717921
 20
0.054519
 30
0.0
 11
-0.718137
 21
0.049335
 31
0.0
  0
LINE
  8
0
  6
CONTINUOUS
 62
     7
  5
216
 10
-0.718137
 20
0.049335
 30
0.0
 11
-0.718359
 21
0.043652
 31
0.0
  0
LINE
  8
0
  6
CONTINUOUS
 62
     7
  5
217
 10
-0.718359
 20
0.043652
 30
0.0
 11
-0.718575
 21
0.037539
 31
0.0
  0
LINE
  8
0
  6
CONTINUOUS
 62
     7
  5
218
 10
-0.718575
 20
0.037539
 30
0.0
 11
-0.718774
 21
0.031078
 31
0.0
  0
LINE
  8
0
  6
CONTINUOUS
 62
     7
  5
219
 10
-0.718774
 20
0.031078
 30
0.0
 11
-0.718945
 21
0.024354
 31
0.0
  0
LINE
  8
0
  6
CONTINUOUS
 62
     7
  5
21A
 10
-0.718945
 20
0.024354
 30
0.0
 11
-0.719079
 21
0.017455
 31
0.0
  0
LINE
  8
0
  6
CONTINUOUS
 62
     7
  5
21B
 10
-0.719079
 20
0.017455
 30
0.0
 11
-0.719171
 21
0.010488
 31
0.0
  0
LINE
  8
0
  6
CONTINUOUS
 62
     7
  5
21C
 10
-0.719171
 20
0.010488
 30
0.0
 11
-0.719217
 21
0.003562
 31
0.0
  0
LINE
  8
0
  6
CONTINUOUS
 62
     7
  5
21D
 10
-0.719217
 20
0.003562
 30
0.0
 11
-0.719218
 21
-0.003258
 31
0.0
  0
LINE
  8
0
  6
CONTINUOUS
 62
     7
  5
21E
 10
-0.719218
 20
-0.003258
 30
0.0
 11
-0.719174
 21
-0.010179
 31
0.0
  0
LINE
  8
0
  6
CONTINUOUS
 62
     7
  5
21F
 10
-0.719174
 20
-0.010179
 30
0.0
 11
-0.719084
 21
-0.017148
 31
0.0
  0
LINE
  8
0
  6
CONTINUOUS
 62
     7
  5
220
 10
-0.719084
 20
-0.017148
 30
0.0
 11
-0.718952
 21
-0.024051
 31
0.0
  0
LINE
  8
0
  6
CONTINUOUS
 62
     7
  5
221
 10
-0.718952
 20
-0.024051
 30
0.0
 11
-0.718783
 21
-0.030785
 31
0.0
  0
LINE
  8
0
  6
CONTINUOUS
 62
     7
  5
222
 10
-0.718783
 20
-0.030785
 30
0.0
 11
-0.718585
 21
-0.03726
 31
0.0
  0
LINE
  8
0
  6
CONTINUOUS
 62
     7
  5
223
 10
-0.718585
 20
-0.03726
 30
0.0
 11
-0.718369
 21
-0.04339
 31
0.0
  0
LINE
  8
0
  6
CONTINUOUS
 62
     7
  5
224
 10
-0.718369
 20
-0.04339
 30
0.0
 11
-0.718147
 21
-0.049093
 31
0.0
  0
LINE
  8
0
  6
CONTINUOUS
 62
     7
  5
225
 10
-0.718147
 20
-0.049093
 30
0.0
 11
-0.717931
 21
-0.054301
 31
0.0
  0
LINE
  8
0
  6
CONTINUOUS
 62
     7
  5
226
 10
-0.717931
 20
-0.054301
 30
0.0
 11
-0.717729
 21
-0.059037
 31
0.0
  0
LINE
  8
0
  6
CONTINUOUS
 62
     7
  5
227
 10
-0.717729
 20
-0.059037
 30
0.0
 11
-0.717545
 21
-0.063421
 31
0.0
  0
LINE
  8
0
  6
CONTINUOUS
 62
     7
  5
228
 10
-0.717545
 20
-0.063421
 30
0.0
 11
-0.717393
 21
-0.067367
 31
0.0
  0
LINE
  8
0
  6
CONTINUOUS
 62
     7
  5
229
 10
-0.717393
 20
-0.067367
 30
0.0
 11
-0.717284
 21
-0.070794
 31
0.0
  0
LINE
  8
0
  6
CONTINUOUS
 62
     7
  5
22A
 10
-0.717284
 20
-0.070794
 30
0.0
 11
-0.717228
 21
-0.073642
 31
0.0
  0
LINE
  8
0
  6
CONTINUOUS
 62
     7
  5
22B
 10
-0.717228
 20
-0.073642
 30
0.0
 11
-0.717235
 21
-0.075874
 31
0.0
  0
LINE
  8
0
  6
CONTINUOUS
 62
     7
  5
22C
 10
-0.717235
 20
-0.075874
 30
0.0
 11
-0.717309
 21
-0.077466
 31
0.0
  0
LINE
  8
0
  6
CONTINUOUS
 62
     7
  5
22D
 10
-0.717309
 20
-0.077466
 30
0.0
 11
-0.71745
 21
-0.078414
 31
0.0
  0
LINE
  8
0
  6
CONTINUOUS
 62
     7
  5
22E
 10
-0.71745
 20
-0.078414
 30
0.0
 11
-0.717655
 21
-0.07874
 31
0.0
  0
LINE
  8
0
  6
CONTINUOUS
 62
     7
  5
22F
 10
-0.721972
 20
0.053856
 30
0.0
 11
-0.721832
 21
0.05514
 31
0.0
  0
LINE
  8
0
  6
CONTINUOUS
 62
     7
  5
230
 10
-0.721832
 20
0.05514
 30
0.0
 11
-0.721692
 21
0.056389
 31
0.0
  0
LINE
  8
0
  6
CONTINUOUS
 62
     7
  5
231
 10
-0.721692
 20
0.056389
 30
0.0
 11
-0.72155
 21
0.057616
 31
0.0
  0
LINE
  8
0
  6
CONTINUOUS
 62
     7
  5
232
 10
-0.72155
 20
0.057616
 30
0.0
 11
-0.721406
 21
0.058822
 31
0.0
  0
LINE
  8
0
  6
CONTINUOUS
 62
     7
  5
233
 10
-0.721406
 20
0.058822
 30
0.0
 11
-0.721261
 21
0.060005
 31
0.0
  0
LINE
  8
0
  6
CONTINUOUS
 62
     7
  5
234
 10
-0.721261
 20
0.060005
 30
0.0
 11
-0.721115
 21
0.061164
 31
0.0
  0
LINE
  8
0
  6
CONTINUOUS
 62
     7
  5
235
 10
-0.721115
 20
0.061164
 30
0.0
 11
-0.720968
 21
0.062296
 31
0.0
  0
LINE
  8
0
  6
CONTINUOUS
 62
     7
  5
236
 10
-0.720968
 20
0.062296
 30
0.0
 11
-0.72082
 21
0.0634
 31
0.0
  0
LINE
  8
0
  6
CONTINUOUS
 62
     7
  5
237
 10
-0.72082
 20
0.0634
 30
0.0
 11
-0.720672
 21
0.064475
 31
0.0
  0
LINE
  8
0
  6
CONTINUOUS
 62
     7
  5
238
 10
-0.720672
 20
0.064475
 30
0.0
 11
-0.720525
 21
0.065518
 31
0.0
  0
LINE
  8
0
  6
CONTINUOUS
 62
     7
  5
239
 10
-0.720525
 20
0.065518
 30
0.0
 11
-0.720378
 21
0.066528
 31
0.0
  0
LINE
  8
0
  6
CONTINUOUS
 62
     7
  5
23A
 10
-0.720378
 20
0.066528
 30
0.0
 11
-0.720231
 21
0.067504
 31
0.0
  0
LINE
  8
0
  6
CONTINUOUS
 62
     7
  5
23B
 10
-0.720231
 20
0.067504
 30
0.0
 11
-0.720086
 21
0.068445
 31
0.0
  0
LINE
  8
0
  6
CONTINUOUS
 62
     7
  5
23C
 10
-0.720086
 20
0.068445
 30
0.0
 11
-0.719942
 21
0.069349
 31
0.0
  0
LINE
  8
0
  6
CONTINUOUS
 62
     7
  5
23D
 10
-0.719942
 20
0.069349
 30
0.0
 11
-0.7198
 21
0.070215
 31
0.0
  0
LINE
  8
0
  6
CONTINUOUS
 62
     7
  5
23E
 10
-0.7198
 20
0.070215
 30
0.0
 11
-0.71966
 21
0.071043
 31
0.0
  0
LINE
  8
0
  6
CONTINUOUS
 62
     7
  5
23F
 10
-0.71966
 20
0.071043
 30
0.0
 11
-0.719522
 21
0.071831
 31
0.0
  0
LINE
  8
0
  6
CONTINUOUS
 62
     7
  5
240
 10
-0.719522
 20
0.071831
 30
0.0
 11
-0.719387
 21
0.072579
 31
0.0
  0
LINE
  8
0
  6
CONTINUOUS
 62
     7
  5
241
 10
-0.719387
 20
0.072579
 30
0.0
 11
-0.719254
 21
0.073286
 31
0.0
  0
LINE
  8
0
  6
CONTINUOUS
 62
     7
  5
242
 10
-0.719254
 20
0.073286
 30
0.0
 11
-0.719124
 21
0.073951
 31
0.0
  0
LINE
  8
0
  6
CONTINUOUS
 62
     7
  5
243
 10
-0.719124
 20
0.073951
 30
0.0
 11
-0.718998
 21
0.074574
 31
0.0
  0
LINE
  8
0
  6
CONTINUOUS
 62
     7
  5
244
 10
-0.718998
 20
0.074574
 30
0.0
 11
-0.718875
 21
0.075154
 31
0.0
  0
LINE
  8
0
  6
CONTINUOUS
 62
     7
  5
245
 10
-0.718875
 20
0.075154
 30
0.0
 11
-0.718756
 21
0.075691
 31
0.0
  0
LINE
  8
0
  6
CONTINUOUS
 62
     7
  5
246
 10
-0.718756
 20
0.075691
 30
0.0
 11
-0.71864
 21
0.076184
 31
0.0
  0
LINE
  8
0
  6
CONTINUOUS
 62
     7
  5
247
 10
-0.71864
 20
0.076184
 30
0.0
 11
-0.718529
 21
0.076634
 31
0.0
  0
LINE
  8
0
  6
CONTINUOUS
 62
     7
  5
248
 10
-0.718529
 20
0.076634
 30
0.0
 11
-0.718422
 21
0.07704
 31
0.0
  0
LINE
  8
0
  6
CONTINUOUS
 62
     7
  5
249
 10
-0.718422
 20
0.07704
 30
0.0
 11
-0.718319
 21
0.077402
 31
0.0
  0
LINE
  8
0
  6
CONTINUOUS
 62
     7
  5
24A
 10
-0.718319
 20
0.077402
 30
0.0
 11
-0.718221
 21
0.07772
 31
0.0
  0
LINE
  8
0
  6
CONTINUOUS
 62
     7
  5
24B
 10
-0.718221
 20
0.07772
 30
0.0
 11
-0.718127
 21
0.077994
 31
0.0
  0
LINE
  8
0
  6
CONTINUOUS
 62
     7
  5
24C
 10
-0.718127
 20
0.077994
 30
0.0
 11
-0.718038
 21
0.078225
 31
0.0
  0
LINE
  8
0
  6
CONTINUOUS
 62
     7
  5
24D
 10
-0.718038
 20
0.078225
 30
0.0
 11
-0.717954
 21
0.078412
 31
0.0
  0
LINE
  8
0
  6
CONTINUOUS
 62
     7
  5
24E
 10
-0.717954
 20
0.078412
 30
0.0
 11
-0.717874
 21
0.078557
 31
0.0
  0
LINE
  8
0
  6
CONTINUOUS
 62
     7
  5
24F
 10
-0.717874
 20
0.078557
 30
0.0
 11
-0.7178
 21
0.078659
 31
0.0
  0
LINE
  8
0
  6
CONTINUOUS
 62
     7
  5
250
 10
-0.7178
 20
0.078659
 30
0.0
 11
-0.71773
 21
0.07872
 31
0.0
  0
LINE
  8
0
  6
CONTINUOUS
 62
     7
  5
251
 10
-0.71773
 20
0.07872
 30
0.0
 11
-0.717666
 21
0.07874
 31
0.0
  0
CIRCLE
  8
0
  6
CONTINUOUS
 62
     7
  5
252
 10
0.0
 20
0.0
 30
0.0
 40
0.344488
  0
LINE
  8
0
  6
CONTINUOUS
 62
     7
  5
253
 10
-0.590551
 20
0.0
 30
0.0
 11
-0.295276
 21
-0.511432
 31
0.0
  0
LINE
  8
0
  6
CONTINUOUS
 62
     7
  5
254
 10
-0.295276
 20
-0.511432
 30
0.0
 11
0.295276
 21
-0.511432
 31
0.0
  0
LINE
  8
0
  6
CONTINUOUS
 62
     7
  5
255
 10
0.295276
 20
-0.511432
 30
0.0
 11
0.590551
 21
0.0
 31
0.0
  0
LINE
  8
0
  6
CONTINUOUS
 62
     7
  5
256
 10
0.590551
 20
0.0
 30
0.0
 11
0.295276
 21
0.511432
 31
0.0
  0
LINE
  8
0
  6
CONTINUOUS
 62
     7
  5
257
 10
0.295276
 20
0.511432
 30
0.0
 11
-0.295276
 21
0.511432
 31
0.0
  0
LINE
  8
0
  6
CONTINUOUS
 62
     7
  5
258
 10
-0.295276
 20
0.511432
 30
0.0
 11
-0.590551
 21
0.0
 31
0.0
  0
CIRCLE
  8
0
  6
CONTINUOUS
 62
     7
  5
259
 10
0.0
 20
0.0
 30
0.0
 40
0.610236
  0
LINE
  8
0
  6
CONTINUOUS
 62
     7
  5
25A
 10
-0.353331
 20
-0.816929
 30
0.0
 11
0.353331
 21
-0.816929
 31
0.0
  0
ARC
  8
0
  6
CONTINUOUS
 62
     7
  5
25B
 10
0.0
 20
0.0
 30
0.0
 40
0.790957
 50
243.386027
 51
243.467022
  0
CIRCLE
  8
0
  6
CONTINUOUS
 62
     7
  5
25C
 10
0.0
 20
0.0
 30
0.0
 40
0.790957
  0
LINE
  8
0
  6
CONTINUOUS
 62
     7
  5
25D
 10
-0.354331
 20
-0.707151
 30
0.0
 11
-0.354331
 21
-0.666802
 31
0.0
  0
LINE
  8
0
  6
CONTINUOUS
 62
     7
  5
25E
 10
-0.354331
 20
-0.666802
 30
0.0
 11
-0.354331
 21
-0.630619
 31
0.0
  0
LINE
  8
0
  6
CONTINUOUS
 62
     7
  5
25F
 10
-0.354331
 20
-0.630619
 30
0.0
 11
-0.352955
 21
-0.630142
 31
0.0
  0
LINE
  8
0
  6
CONTINUOUS
 62
     7
  5
260
 10
-0.352955
 20
-0.630142
 30
0.0
 11
-0.34873
 21
-0.631232
 31
0.0
  0
LINE
  8
0
  6
CONTINUOUS
 62
     7
  5
261
 10
-0.34873
 20
-0.631232
 30
0.0
 11
-0.341585
 21
-0.63388
 31
0.0
  0
LINE
  8
0
  6
CONTINUOUS
 62
     7
  5
262
 10
-0.341585
 20
-0.63388
 30
0.0
 11
-0.331562
 21
-0.637968
 31
0.0
  0
LINE
  8
0
  6
CONTINUOUS
 62
     7
  5
263
 10
-0.331562
 20
-0.637968
 30
0.0
 11
-0.318786
 21
-0.64329
 31
0.0
  0
LINE
  8
0
  6
CONTINUOUS
 62
     7
  5
264
 10
-0.318786
 20
-0.64329
 30
0.0
 11
-0.303447
 21
-0.649576
 31
0.0
  0
LINE
  8
0
  6
CONTINUOUS
 62
     7
  5
265
 10
-0.303447
 20
-0.649576
 30
0.0
 11
-0.285818
 21
-0.656515
 31
0.0
  0
LINE
  8
0
  6
CONTINUOUS
 62
     7
  5
266
 10
-0.285818
 20
-0.656515
 30
0.0
 11
-0.26626
 21
-0.663772
 31
0.0
  0
LINE
  8
0
  6
CONTINUOUS
 62
     7
  5
267
 10
-0.26626
 20
-0.663772
 30
0.0
 11
-0.245186
 21
-0.671023
 31
0.0
  0
LINE
  8
0
  6
CONTINUOUS
 62
     7
  5
268
 10
-0.245186
 20
-0.671023
 30
0.0
 11
-0.222092
 21
-0.678271
 31
0.0
  0
LINE
  8
0
  6
CONTINUOUS
 62
     7
  5
269
 10
-0.222092
 20
-0.678271
 30
0.0
 11
-0.196719
 21
-0.685383
 31
0.0
  0
LINE
  8
0
  6
CONTINUOUS
 62
     7
  5
26A
 10
-0.196719
 20
-0.685383
 30
0.0
 11
-0.169351
 21
-0.692059
 31
0.0
  0
LINE
  8
0
  6
CONTINUOUS
 62
     7
  5
26B
 10
-0.169351
 20
-0.692059
 30
0.0
 11
-0.140328
 21
-0.698019
 31
0.0
  0
LINE
  8
0
  6
CONTINUOUS
 62
     7
  5
26C
 10
-0.140328
 20
-0.698019
 30
0.0
 11
-0.110015
 21
-0.703029
 31
0.0
  0
LINE
  8
0
  6
CONTINUOUS
 62
     7
  5
26D
 10
-0.110015
 20
-0.703029
 30
0.0
 11
-0.0788
 21
-0.706905
 31
0.0
  0
LINE
  8
0
  6
CONTINUOUS
 62
     7
  5
26E
 10
-0.0788
 20
-0.706905
 30
0.0
 11
-0.047153
 21
-0.709519
 31
0.0
  0
LINE
  8
0
  6
CONTINUOUS
 62
     7
  5
26F
 10
-0.047153
 20
-0.709519
 30
0.0
 11
-0.01559
 21
-0.710815
 31
0.0
  0
LINE
  8
0
  6
CONTINUOUS
 62
     7
  5
270
 10
-0.01559
 20
-0.710815
 30
0.0
 11
0.01559
 21
-0.710815
 31
0.0
  0
LINE
  8
0
  6
CONTINUOUS
 62
     7
  5
271
 10
0.01559
 20
-0.710815
 30
0.0
 11
0.047153
 21
-0.709519
 31
0.0
  0
LINE
  8
0
  6
CONTINUOUS
 62
     7
  5
272
 10
0.047153
 20
-0.709519
 30
0.0
 11
0.0788
 21
-0.706905
 31
0.0
  0
LINE
  8
0
  6
CONTINUOUS
 62
     7
  5
273
 10
0.0788
 20
-0.706905
 30
0.0
 11
0.110015
 21
-0.703029
 31
0.0
  0
LINE
  8
0
  6
CONTINUOUS
 62
     7
  5
274
 10
0.110015
 20
-0.703029
 30
0.0
 11
0.140328
 21
-0.698019
 31
0.0
  0
LINE
  8
0
  6
CONTINUOUS
 62
     7
  5
275
 10
0.140328
 20
-0.698019
 30
0.0
 11
0.169351
 21
-0.692059
 31
0.0
  0
LINE
  8
0
  6
CONTINUOUS
 62
     7
  5
276
 10
0.169351
 20
-0.692059
 30
0.0
 11
0.196719
 21
-0.685383
 31
0.0
  0
LINE
  8
0
  6
CONTINUOUS
 62
     7
  5
277
 10
0.196719
 20
-0.685383
 30
0.0
 11
0.222092
 21
-0.678271
 31
0.0
  0
LINE
  8
0
  6
CONTINUOUS
 62
     7
  5
278
 10
0.222092
 20
-0.678271
 30
0.0
 11
0.245186
 21
-0.671023
 31
0.0
  0
LINE
  8
0
  6
CONTINUOUS
 62
     7
  5
279
 10
0.245186
 20
-0.671023
 30
0.0
 11
0.26626
 21
-0.663772
 31
0.0
  0
LINE
  8
0
  6
CONTINUOUS
 62
     7
  5
27A
 10
0.26626
 20
-0.663772
 30
0.0
 11
0.285818
 21
-0.656515
 31
0.0
  0
LINE
  8
0
  6
CONTINUOUS
 62
     7
  5
27B
 10
0.285818
 20
-0.656515
 30
0.0
 11
0.303447
 21
-0.649576
 31
0.0
  0
LINE
  8
0
  6
CONTINUOUS
 62
     7
  5
27C
 10
0.303447
 20
-0.649576
 30
0.0
 11
0.318786
 21
-0.64329
 31
0.0
  0
LINE
  8
0
  6
CONTINUOUS
 62
     7
  5
27D
 10
0.318786
 20
-0.64329
 30
0.0
 11
0.331562
 21
-0.637968
 31
0.0
  0
LINE
  8
0
  6
CONTINUOUS
 62
     7
  5
27E
 10
0.331562
 20
-0.637968
 30
0.0
 11
0.341585
 21
-0.63388
 31
0.0
  0
LINE
  8
0
  6
CONTINUOUS
 62
     7
  5
27F
 10
0.341585
 20
-0.63388
 30
0.0
 11
0.34873
 21
-0.631232
 31
0.0
  0
LINE
  8
0
  6
CONTINUOUS
 62
     7
  5
280
 10
0.34873
 20
-0.631232
 30
0.0
 11
0.352955
 21
-0.630142
 31
0.0
  0
LINE
  8
0
  6
CONTINUOUS
 62
     7
  5
281
 10
0.352955
 20
-0.630142
 30
0.0
 11
0.354331
 21
-0.630619
 31
0.0
  0
LINE
  8
0
  6
CONTINUOUS
 62
     7
  5
282
 10
0.354331
 20
-0.666802
 30
0.0
 11
0.354331
 21
-0.707151
 31
0.0
  0
LINE
  8
0
  6
CONTINUOUS
 62
     7
  5
283
 10
0.354331
 20
-0.630619
 30
0.0
 11
0.354331
 21
-0.666802
 31
0.0
  0
LINE
  8
0
  6
CONTINUOUS
 62
     7
  5
284
 10
-1.249964
 20
-0.782272
 30
0.0
 11
-1.228381
 21
-0.762519
 31
0.0
  0
LINE
  8
0
  6
CONTINUOUS
 62
     7
  5
285
 10
-1.228381
 20
-0.762519
 30
0.0
 11
-1.205464
 21
-0.744979
 31
0.0
  0
LINE
  8
0
  6
CONTINUOUS
 62
     7
  5
286
 10
-1.205464
 20
-0.744979
 30
0.0
 11
-1.181489
 21
-0.729725
 31
0.0
  0
LINE
  8
0
  6
CONTINUOUS
 62
     7
  5
287
 10
-1.181489
 20
-0.729725
 30
0.0
 11
-1.155704
 21
-0.716312
 31
0.0
  0
LINE
  8
0
  6
CONTINUOUS
 62
     7
  5
288
 10
-1.155704
 20
-0.716312
 30
0.0
 11
-1.128165
 21
-0.704969
 31
0.0
  0
LINE
  8
0
  6
CONTINUOUS
 62
     7
  5
289
 10
-1.128165
 20
-0.704969
 30
0.0
 11
-1.099329
 21
-0.696049
 31
0.0
  0
LINE
  8
0
  6
CONTINUOUS
 62
     7
  5
28A
 10
-1.099329
 20
-0.696049
 30
0.0
 11
-1.069678
 21
-0.689775
 31
0.0
  0
LINE
  8
0
  6
CONTINUOUS
 62
     7
  5
28B
 10
-1.069678
 20
-0.689775
 30
0.0
 11
-1.0397
 21
-0.686251
 31
0.0
  0
LINE
  8
0
  6
CONTINUOUS
 62
     7
  5
28C
 10
-1.0397
 20
-0.686251
 30
0.0
 11
-1.009935
 21
-0.685467
 31
0.0
  0
LINE
  8
0
  6
CONTINUOUS
 62
     7
  5
28D
 10
-1.009935
 20
-0.685467
 30
0.0
 11
-0.980947
 21
-0.687285
 31
0.0
  0
LINE
  8
0
  6
CONTINUOUS
 62
     7
  5
28E
 10
-0.980947
 20
-0.687285
 30
0.0
 11
-0.95244
 21
-0.691598
 31
0.0
  0
LINE
  8
0
  6
CONTINUOUS
 62
     7
  5
28F
 10
-0.95244
 20
-0.691598
 30
0.0
 11
-0.923545
 21
-0.69863
 31
0.0
  0
LINE
  8
0
  6
CONTINUOUS
 62
     7
  5
290
 10
-0.923545
 20
-0.69863
 30
0.0
 11
-0.894853
 21
-0.708445
 31
0.0
  0
LINE
  8
0
  6
CONTINUOUS
 62
     7
  5
291
 10
-0.894853
 20
-0.708445
 30
0.0
 11
-0.866946
 21
-0.720964
 31
0.0
  0
LINE
  8
0
  6
CONTINUOUS
 62
     7
  5
292
 10
-0.866946
 20
-0.720964
 30
0.0
 11
-0.840326
 21
-0.736001
 31
0.0
  0
LINE
  8
0
  6
CONTINUOUS
 62
     7
  5
293
 10
-0.840326
 20
-0.736001
 30
0.0
 11
-0.815448
 21
-0.75325
 31
0.0
  0
LINE
  8
0
  6
CONTINUOUS
 62
     7
  5
294
 10
-0.815448
 20
-0.75325
 30
0.0
 11
-0.792724
 21
-0.772267
 31
0.0
  0
LINE
  8
0
  6
CONTINUOUS
 62
     7
  5
295
 10
-0.792724
 20
-0.772267
 30
0.0
 11
-0.772267
 21
-0.792724
 31
0.0
  0
LINE
  8
0
  6
CONTINUOUS
 62
     7
  5
296
 10
-0.772267
 20
-0.792724
 30
0.0
 11
-0.75325
 21
-0.815448
 31
0.0
  0
LINE
  8
0
  6
CONTINUOUS
 62
     7
  5
297
 10
-0.75325
 20
-0.815448
 30
0.0
 11
-0.736001
 21
-0.840326
 31
0.0
  0
LINE
  8
0
  6
CONTINUOUS
 62
     7
  5
298
 10
-0.736001
 20
-0.840326
 30
0.0
 11
-0.720964
 21
-0.866946
 31
0.0
  0
LINE
  8
0
  6
CONTINUOUS
 62
     7
  5
299
 10
-0.720964
 20
-0.866946
 30
0.0
 11
-0.708445
 21
-0.894853
 31
0.0
  0
LINE
  8
0
  6
CONTINUOUS
 62
     7
  5
29A
 10
-0.708445
 20
-0.894853
 30
0.0
 11
-0.69863
 21
-0.923545
 31
0.0
  0
LINE
  8
0
  6
CONTINUOUS
 62
     7
  5
29B
 10
-0.69863
 20
-0.923545
 30
0.0
 11
-0.691598
 21
-0.95244
 31
0.0
  0
LINE
  8
0
  6
CONTINUOUS
 62
     7
  5
29C
 10
-0.691598
 20
-0.95244
 30
0.0
 11
-0.687285
 21
-0.980947
 31
0.0
  0
LINE
  8
0
  6
CONTINUOUS
 62
     7
  5
29D
 10
-0.687285
 20
-0.980947
 30
0.0
 11
-0.685467
 21
-1.009935
 31
0.0
  0
LINE
  8
0
  6
CONTINUOUS
 62
     7
  5
29E
 10
-0.685467
 20
-1.009935
 30
0.0
 11
-0.686251
 21
-1.0397
 31
0.0
  0
LINE
  8
0
  6
CONTINUOUS
 62
     7
  5
29F
 10
-0.686251
 20
-1.0397
 30
0.0
 11
-0.689775
 21
-1.069678
 31
0.0
  0
LINE
  8
0
  6
CONTINUOUS
 62
     7
  5
2A0
 10
-0.689775
 20
-1.069678
 30
0.0
 11
-0.696049
 21
-1.099329
 31
0.0
  0
LINE
  8
0
  6
CONTINUOUS
 62
     7
  5
2A1
 10
-0.696049
 20
-1.099329
 30
0.0
 11
-0.704969
 21
-1.128165
 31
0.0
  0
LINE
  8
0
  6
CONTINUOUS
 62
     7
  5
2A2
 10
-0.704969
 20
-1.128165
 30
0.0
 11
-0.716312
 21
-1.155704
 31
0.0
  0
LINE
  8
0
  6
CONTINUOUS
 62
     7
  5
2A3
 10
-0.716312
 20
-1.155704
 30
0.0
 11
-0.729725
 21
-1.181489
 31
0.0
  0
LINE
  8
0
  6
CONTINUOUS
 62
     7
  5
2A4
 10
-0.729725
 20
-1.181489
 30
0.0
 11
-0.744979
 21
-1.205464
 31
0.0
  0
LINE
  8
0
  6
CONTINUOUS
 62
     7
  5
2A5
 10
-0.744979
 20
-1.205464
 30
0.0
 11
-0.762519
 21
-1.228381
 31
0.0
  0
LINE
  8
0
  6
CONTINUOUS
 62
     7
  5
2A6
 10
-0.762519
 20
-1.228381
 30
0.0
 11
-0.782272
 21
-1.249964
 31
0.0
  0
LINE
  8
0
  6
CONTINUOUS
 62
     7
  5
2A7
 10
-0.782272
 20
-1.249964
 30
0.0
 11
-0.921008
 21
-1.388701
 31
0.0
  0
LINE
  8
0
  6
CONTINUOUS
 62
     7
  5
2A8
 10
-0.921008
 20
-1.388701
 30
0.0
 11
-0.982267
 21
-1.44996
 31
0.0
  0
LINE
  8
0
  6
CONTINUOUS
 62
     7
  5
2A9
 10
-1.388701
 20
-0.921008
 30
0.0
 11
-1.249964
 21
-0.782272
 31
0.0
  0
LINE
  8
0
  6
CONTINUOUS
 62
     7
  5
2AA
 10
-1.44996
 20
-0.982267
 30
0.0
 11
-1.388701
 21
-0.921008
 31
0.0
  0
ARC
  8
0
  6
CONTINUOUS
 62
     7
  5
2AB
 10
0.0
 20
0.0
 30
0.0
 40
1.751352
 50
214.115458
 51
235.884542
  0
ARC
  8
0
  6
CONTINUOUS
 62
     7
  5
2AC
 10
-1.004985
 20
-1.004985
 30
0.0
 40
0.082677
 50
315.002818
 51
134.997182
  0
LINE
  8
0
  6
CONTINUOUS
 62
     7
  5
2AD
 10
-0.968792
 20
-1.085715
 30
0.0
 11
-0.946521
 21
-1.063444
 31
0.0
  0
ARC
  8
0
  6
CONTINUOUS
 62
     7
  5
2AE
 10
-1.027251
 20
-1.027251
 30
0.0
 40
0.082677
 50
135.002818
 51
314.997182
  0
LINE
  8
0
  6
CONTINUOUS
 62
     7
  5
2AF
 10
-1.063444
 20
-0.946521
 30
0.0
 11
-1.085715
 21
-0.968792
 31
0.0
  0
LINE
  8
0
  6
CONTINUOUS
 62
     7
  5
2B0
 10
0.921008
 20
-1.388701
 30
0.0
 11
0.782272
 21
-1.249964
 31
0.0
  0
LINE
  8
0
  6
CONTINUOUS
 62
     7
  5
2B1
 10
0.782272
 20
-1.249964
 30
0.0
 11
0.762519
 21
-1.228381
 31
0.0
  0
LINE
  8
0
  6
CONTINUOUS
 62
     7
  5
2B2
 10
0.762519
 20
-1.228381
 30
0.0
 11
0.744979
 21
-1.205464
 31
0.0
  0
LINE
  8
0
  6
CONTINUOUS
 62
     7
  5
2B3
 10
0.744979
 20
-1.205464
 30
0.0
 11
0.729725
 21
-1.181489
 31
0.0
  0
LINE
  8
0
  6
CONTINUOUS
 62
     7
  5
2B4
 10
0.729725
 20
-1.181489
 30
0.0
 11
0.716312
 21
-1.155704
 31
0.0
  0
LINE
  8
0
  6
CONTINUOUS
 62
     7
  5
2B5
 10
0.716312
 20
-1.155704
 30
0.0
 11
0.704969
 21
-1.128165
 31
0.0
  0
LINE
  8
0
  6
CONTINUOUS
 62
     7
  5
2B6
 10
0.704969
 20
-1.128165
 30
0.0
 11
0.696049
 21
-1.099329
 31
0.0
  0
LINE
  8
0
  6
CONTINUOUS
 62
     7
  5
2B7
 10
0.696049
 20
-1.099329
 30
0.0
 11
0.689775
 21
-1.069678
 31
0.0
  0
LINE
  8
0
  6
CONTINUOUS
 62
     7
  5
2B8
 10
0.689775
 20
-1.069678
 30
0.0
 11
0.686251
 21
-1.0397
 31
0.0
  0
LINE
  8
0
  6
CONTINUOUS
 62
     7
  5
2B9
 10
0.686251
 20
-1.0397
 30
0.0
 11
0.685467
 21
-1.009935
 31
0.0
  0
LINE
  8
0
  6
CONTINUOUS
 62
     7
  5
2BA
 10
0.685467
 20
-1.009935
 30
0.0
 11
0.687285
 21
-0.980947
 31
0.0
  0
LINE
  8
0
  6
CONTINUOUS
 62
     7
  5
2BB
 10
0.687285
 20
-0.980947
 30
0.0
 11
0.691598
 21
-0.95244
 31
0.0
  0
LINE
  8
0
  6
CONTINUOUS
 62
     7
  5
2BC
 10
0.691598
 20
-0.95244
 30
0.0
 11
0.69863
 21
-0.923545
 31
0.0
  0
LINE
  8
0
  6
CONTINUOUS
 62
     7
  5
2BD
 10
0.69863
 20
-0.923545
 30
0.0
 11
0.708445
 21
-0.894853
 31
0.0
  0
LINE
  8
0
  6
CONTINUOUS
 62
     7
  5
2BE
 10
0.708445
 20
-0.894853
 30
0.0
 11
0.720964
 21
-0.866946
 31
0.0
  0
LINE
  8
0
  6
CONTINUOUS
 62
     7
  5
2BF
 10
0.720964
 20
-0.866946
 30
0.0
 11
0.736001
 21
-0.840326
 31
0.0
  0
LINE
  8
0
  6
CONTINUOUS
 62
     7
  5
2C0
 10
0.736001
 20
-0.840326
 30
0.0
 11
0.75325
 21
-0.815448
 31
0.0
  0
LINE
  8
0
  6
CONTINUOUS
 62
     7
  5
2C1
 10
0.75325
 20
-0.815448
 30
0.0
 11
0.772267
 21
-0.792724
 31
0.0
  0
LINE
  8
0
  6
CONTINUOUS
 62
     7
  5
2C2
 10
0.772267
 20
-0.792724
 30
0.0
 11
0.792724
 21
-0.772267
 31
0.0
  0
LINE
  8
0
  6
CONTINUOUS
 62
     7
  5
2C3
 10
0.792724
 20
-0.772267
 30
0.0
 11
0.815448
 21
-0.75325
 31
0.0
  0
LINE
  8
0
  6
CONTINUOUS
 62
     7
  5
2C4
 10
0.815448
 20
-0.75325
 30
0.0
 11
0.840326
 21
-0.736001
 31
0.0
  0
LINE
  8
0
  6
CONTINUOUS
 62
     7
  5
2C5
 10
0.840326
 20
-0.736001
 30
0.0
 11
0.866946
 21
-0.720964
 31
0.0
  0
LINE
  8
0
  6
CONTINUOUS
 62
     7
  5
2C6
 10
0.866946
 20
-0.720964
 30
0.0
 11
0.894853
 21
-0.708445
 31
0.0
  0
LINE
  8
0
  6
CONTINUOUS
 62
     7
  5
2C7
 10
0.894853
 20
-0.708445
 30
0.0
 11
0.923545
 21
-0.69863
 31
0.0
  0
LINE
  8
0
  6
CONTINUOUS
 62
     7
  5
2C8
 10
0.923545
 20
-0.69863
 30
0.0
 11
0.95244
 21
-0.691598
 31
0.0
  0
LINE
  8
0
  6
CONTINUOUS
 62
     7
  5
2C9
 10
0.95244
 20
-0.691598
 30
0.0
 11
0.980947
 21
-0.687285
 31
0.0
  0
LINE
  8
0
  6
CONTINUOUS
 62
     7
  5
2CA
 10
0.980947
 20
-0.687285
 30
0.0
 11
1.009935
 21
-0.685467
 31
0.0
  0
LINE
  8
0
  6
CONTINUOUS
 62
     7
  5
2CB
 10
1.009935
 20
-0.685467
 30
0.0
 11
1.0397
 21
-0.686251
 31
0.0
  0
LINE
  8
0
  6
CONTINUOUS
 62
     7
  5
2CC
 10
1.0397
 20
-0.686251
 30
0.0
 11
1.069678
 21
-0.689775
 31
0.0
  0
LINE
  8
0
  6
CONTINUOUS
 62
     7
  5
2CD
 10
1.069678
 20
-0.689775
 30
0.0
 11
1.099329
 21
-0.696049
 31
0.0
  0
LINE
  8
0
  6
CONTINUOUS
 62
     7
  5
2CE
 10
1.099329
 20
-0.696049
 30
0.0
 11
1.128165
 21
-0.704969
 31
0.0
  0
LINE
  8
0
  6
CONTINUOUS
 62
     7
  5
2CF
 10
1.128165
 20
-0.704969
 30
0.0
 11
1.155704
 21
-0.716312
 31
0.0
  0
LINE
  8
0
  6
CONTINUOUS
 62
     7
  5
2D0
 10
1.155704
 20
-0.716312
 30
0.0
 11
1.181489
 21
-0.729725
 31
0.0
  0
LINE
  8
0
  6
CONTINUOUS
 62
     7
  5
2D1
 10
1.181489
 20
-0.729725
 30
0.0
 11
1.205464
 21
-0.744979
 31
0.0
  0
LINE
  8
0
  6
CONTINUOUS
 62
     7
  5
2D2
 10
1.205464
 20
-0.744979
 30
0.0
 11
1.228381
 21
-0.762519
 31
0.0
  0
LINE
  8
0
  6
CONTINUOUS
 62
     7
  5
2D3
 10
1.228381
 20
-0.762519
 30
0.0
 11
1.249964
 21
-0.782272
 31
0.0
  0
LINE
  8
0
  6
CONTINUOUS
 62
     7
  5
2D4
 10
1.249964
 20
-0.782272
 30
0.0
 11
1.388701
 21
-0.921008
 31
0.0
  0
LINE
  8
0
  6
CONTINUOUS
 62
     7
  5
2D5
 10
1.388701
 20
0.921008
 30
0.0
 11
1.249964
 21
0.782272
 31
0.0
  0
LINE
  8
0
  6
CONTINUOUS
 62
     7
  5
2D6
 10
1.249964
 20
0.782272
 30
0.0
 11
1.228381
 21
0.762519
 31
0.0
  0
LINE
  8
0
  6
CONTINUOUS
 62
     7
  5
2D7
 10
1.228381
 20
0.762519
 30
0.0
 11
1.205464
 21
0.744979
 31
0.0
  0
LINE
  8
0
  6
CONTINUOUS
 62
     7
  5
2D8
 10
1.205464
 20
0.744979
 30
0.0
 11
1.181489
 21
0.729725
 31
0.0
  0
LINE
  8
0
  6
CONTINUOUS
 62
     7
  5
2D9
 10
1.181489
 20
0.729725
 30
0.0
 11
1.155704
 21
0.716312
 31
0.0
  0
LINE
  8
0
  6
CONTINUOUS
 62
     7
  5
2DA
 10
1.155704
 20
0.716312
 30
0.0
 11
1.128165
 21
0.704969
 31
0.0
  0
LINE
  8
0
  6
CONTINUOUS
 62
     7
  5
2DB
 10
1.128165
 20
0.704969
 30
0.0
 11
1.099329
 21
0.696049
 31
0.0
  0
LINE
  8
0
  6
CONTINUOUS
 62
     7
  5
2DC
 10
1.099329
 20
0.696049
 30
0.0
 11
1.069678
 21
0.689775
 31
0.0
  0
LINE
  8
0
  6
CONTINUOUS
 62
     7
  5
2DD
 10
1.069678
 20
0.689775
 30
0.0
 11
1.0397
 21
0.686251
 31
0.0
  0
LINE
  8
0
  6
CONTINUOUS
 62
     7
  5
2DE
 10
1.0397
 20
0.686251
 30
0.0
 11
1.009935
 21
0.685467
 31
0.0
  0
LINE
  8
0
  6
CONTINUOUS
 62
     7
  5
2DF
 10
1.009935
 20
0.685467
 30
0.0
 11
0.980947
 21
0.687285
 31
0.0
  0
LINE
  8
0
  6
CONTINUOUS
 62
     7
  5
2E0
 10
0.980947
 20
0.687285
 30
0.0
 11
0.95244
 21
0.691598
 31
0.0
  0
LINE
  8
0
  6
CONTINUOUS
 62
     7
  5
2E1
 10
0.95244
 20
0.691598
 30
0.0
 11
0.923545
 21
0.69863
 31
0.0
  0
LINE
  8
0
  6
CONTINUOUS
 62
     7
  5
2E2
 10
0.923545
 20
0.69863
 30
0.0
 11
0.894853
 21
0.708445
 31
0.0
  0
LINE
  8
0
  6
CONTINUOUS
 62
     7
  5
2E3
 10
0.894853
 20
0.708445
 30
0.0
 11
0.866946
 21
0.720964
 31
0.0
  0
LINE
  8
0
  6
CONTINUOUS
 62
     7
  5
2E4
 10
0.866946
 20
0.720964
 30
0.0
 11
0.840326
 21
0.736001
 31
0.0
  0
LINE
  8
0
  6
CONTINUOUS
 62
     7
  5
2E5
 10
0.840326
 20
0.736001
 30
0.0
 11
0.815448
 21
0.75325
 31
0.0
  0
LINE
  8
0
  6
CONTINUOUS
 62
     7
  5
2E6
 10
0.815448
 20
0.75325
 30
0.0
 11
0.792724
 21
0.772267
 31
0.0
  0
LINE
  8
0
  6
CONTINUOUS
 62
     7
  5
2E7
 10
0.792724
 20
0.772267
 30
0.0
 11
0.772267
 21
0.792724
 31
0.0
  0
LINE
  8
0
  6
CONTINUOUS
 62
     7
  5
2E8
 10
0.772267
 20
0.792724
 30
0.0
 11
0.75325
 21
0.815448
 31
0.0
  0
LINE
  8
0
  6
CONTINUOUS
 62
     7
  5
2E9
 10
0.75325
 20
0.815448
 30
0.0
 11
0.736001
 21
0.840326
 31
0.0
  0
LINE
  8
0
  6
CONTINUOUS
 62
     7
  5
2EA
 10
0.736001
 20
0.840326
 30
0.0
 11
0.720964
 21
0.866946
 31
0.0
  0
LINE
  8
0
  6
CONTINUOUS
 62
     7
  5
2EB
 10
0.720964
 20
0.866946
 30
0.0
 11
0.708445
 21
0.894853
 31
0.0
  0
LINE
  8
0
  6
CONTINUOUS
 62
     7
  5
2EC
 10
0.708445
 20
0.894853
 30
0.0
 11
0.69863
 21
0.923545
 31
0.0
  0
LINE
  8
0
  6
CONTINUOUS
 62
     7
  5
2ED
 10
0.69863
 20
0.923545
 30
0.0
 11
0.691598
 21
0.95244
 31
0.0
  0
LINE
  8
0
  6
CONTINUOUS
 62
     7
  5
2EE
 10
0.691598
 20
0.95244
 30
0.0
 11
0.687285
 21
0.980947
 31
0.0
  0
LINE
  8
0
  6
CONTINUOUS
 62
     7
  5
2EF
 10
0.687285
 20
0.980947
 30
0.0
 11
0.685467
 21
1.009935
 31
0.0
  0
LINE
  8
0
  6
CONTINUOUS
 62
     7
  5
2F0
 10
0.685467
 20
1.009935
 30
0.0
 11
0.686251
 21
1.0397
 31
0.0
  0
LINE
  8
0
  6
CONTINUOUS
 62
     7
  5
2F1
 10
0.686251
 20
1.0397
 30
0.0
 11
0.689775
 21
1.069678
 31
0.0
  0
LINE
  8
0
  6
CONTINUOUS
 62
     7
  5
2F2
 10
0.689775
 20
1.069678
 30
0.0
 11
0.696049
 21
1.099329
 31
0.0
  0
LINE
  8
0
  6
CONTINUOUS
 62
     7
  5
2F3
 10
0.696049
 20
1.099329
 30
0.0
 11
0.704969
 21
1.128165
 31
0.0
  0
LINE
  8
0
  6
CONTINUOUS
 62
     7
  5
2F4
 10
0.704969
 20
1.128165
 30
0.0
 11
0.716312
 21
1.155704
 31
0.0
  0
LINE
  8
0
  6
CONTINUOUS
 62
     7
  5
2F5
 10
0.716312
 20
1.155704
 30
0.0
 11
0.729725
 21
1.181489
 31
0.0
  0
LINE
  8
0
  6
CONTINUOUS
 62
     7
  5
2F6
 10
0.729725
 20
1.181489
 30
0.0
 11
0.744979
 21
1.205464
 31
0.0
  0
LINE
  8
0
  6
CONTINUOUS
 62
     7
  5
2F7
 10
0.744979
 20
1.205464
 30
0.0
 11
0.762519
 21
1.228381
 31
0.0
  0
LINE
  8
0
  6
CONTINUOUS
 62
     7
  5
2F8
 10
0.762519
 20
1.228381
 30
0.0
 11
0.782272
 21
1.249964
 31
0.0
  0
LINE
  8
0
  6
CONTINUOUS
 62
     7
  5
2F9
 10
0.782272
 20
1.249964
 30
0.0
 11
0.921008
 21
1.388701
 31
0.0
  0
LINE
  8
0
  6
CONTINUOUS
 62
     7
  5
2FA
 10
-0.921008
 20
1.388701
 30
0.0
 11
-0.782272
 21
1.249964
 31
0.0
  0
LINE
  8
0
  6
CONTINUOUS
 62
     7
  5
2FB
 10
-0.782272
 20
1.249964
 30
0.0
 11
-0.762519
 21
1.228381
 31
0.0
  0
LINE
  8
0
  6
CONTINUOUS
 62
     7
  5
2FC
 10
-0.762519
 20
1.228381
 30
0.0
 11
-0.744979
 21
1.205464
 31
0.0
  0
LINE
  8
0
  6
CONTINUOUS
 62
     7
  5
2FD
 10
-0.744979
 20
1.205464
 30
0.0
 11
-0.729725
 21
1.181489
 31
0.0
  0
LINE
  8
0
  6
CONTINUOUS
 62
     7
  5
2FE
 10
-0.729725
 20
1.181489
 30
0.0
 11
-0.716312
 21
1.155704
 31
0.0
  0
LINE
  8
0
  6
CONTINUOUS
 62
     7
  5
2FF
 10
-0.716312
 20
1.155704
 30
0.0
 11
-0.704969
 21
1.128165
 31
0.0
  0
LINE
  8
0
  6
CONTINUOUS
 62
     7
  5
300
 10
-0.704969
 20
1.128165
 30
0.0
 11
-0.696049
 21
1.099329
 31
0.0
  0
LINE
  8
0
  6
CONTINUOUS
 62
     7
  5
301
 10
-0.696049
 20
1.099329
 30
0.0
 11
-0.689775
 21
1.069678
 31
0.0
  0
LINE
  8
0
  6
CONTINUOUS
 62
     7
  5
302
 10
-0.689775
 20
1.069678
 30
0.0
 11
-0.686251
 21
1.0397
 31
0.0
  0
LINE
  8
0
  6
CONTINUOUS
 62
     7
  5
303
 10
-0.686251
 20
1.0397
 30
0.0
 11
-0.685467
 21
1.009935
 31
0.0
  0
LINE
  8
0
  6
CONTINUOUS
 62
     7
  5
304
 10
-0.685467
 20
1.009935
 30
0.0
 11
-0.687285
 21
0.980947
 31
0.0
  0
LINE
  8
0
  6
CONTINUOUS
 62
     7
  5
305
 10
-0.687285
 20
0.980947
 30
0.0
 11
-0.691598
 21
0.95244
 31
0.0
  0
LINE
  8
0
  6
CONTINUOUS
 62
     7
  5
306
 10
-0.691598
 20
0.95244
 30
0.0
 11
-0.69863
 21
0.923545
 31
0.0
  0
LINE
  8
0
  6
CONTINUOUS
 62
     7
  5
307
 10
-0.69863
 20
0.923545
 30
0.0
 11
-0.708445
 21
0.894853
 31
0.0
  0
LINE
  8
0
  6
CONTINUOUS
 62
     7
  5
308
 10
-0.708445
 20
0.894853
 30
0.0
 11
-0.720964
 21
0.866946
 31
0.0
  0
LINE
  8
0
  6
CONTINUOUS
 62
     7
  5
309
 10
-0.720964
 20
0.866946
 30
0.0
 11
-0.736001
 21
0.840326
 31
0.0
  0
LINE
  8
0
  6
CONTINUOUS
 62
     7
  5
30A
 10
-0.736001
 20
0.840326
 30
0.0
 11
-0.75325
 21
0.815448
 31
0.0
  0
LINE
  8
0
  6
CONTINUOUS
 62
     7
  5
30B
 10
-0.75325
 20
0.815448
 30
0.0
 11
-0.772267
 21
0.792724
 31
0.0
  0
LINE
  8
0
  6
CONTINUOUS
 62
     7
  5
30C
 10
-0.772267
 20
0.792724
 30
0.0
 11
-0.792724
 21
0.772267
 31
0.0
  0
LINE
  8
0
  6
CONTINUOUS
 62
     7
  5
30D
 10
-0.792724
 20
0.772267
 30
0.0
 11
-0.815448
 21
0.75325
 31
0.0
  0
LINE
  8
0
  6
CONTINUOUS
 62
     7
  5
30E
 10
-0.815448
 20
0.75325
 30
0.0
 11
-0.840326
 21
0.736001
 31
0.0
  0
LINE
  8
0
  6
CONTINUOUS
 62
     7
  5
30F
 10
-0.840326
 20
0.736001
 30
0.0
 11
-0.866946
 21
0.720964
 31
0.0
  0
LINE
  8
0
  6
CONTINUOUS
 62
     7
  5
310
 10
-0.866946
 20
0.720964
 30
0.0
 11
-0.894853
 21
0.708445
 31
0.0
  0
LINE
  8
0
  6
CONTINUOUS
 62
     7
  5
311
 10
-0.894853
 20
0.708445
 30
0.0
 11
-0.923545
 21
0.69863
 31
0.0
  0
LINE
  8
0
  6
CONTINUOUS
 62
     7
  5
312
 10
-0.923545
 20
0.69863
 30
0.0
 11
-0.95244
 21
0.691598
 31
0.0
  0
LINE
  8
0
  6
CONTINUOUS
 62
     7
  5
313
 10
-0.95244
 20
0.691598
 30
0.0
 11
-0.980947
 21
0.687285
 31
0.0
  0
LINE
  8
0
  6
CONTINUOUS
 62
     7
  5
314
 10
-0.980947
 20
0.687285
 30
0.0
 11
-1.009935
 21
0.685467
 31
0.0
  0
LINE
  8
0
  6
CONTINUOUS
 62
     7
  5
315
 10
-1.009935
 20
0.685467
 30
0.0
 11
-1.0397
 21
0.686251
 31
0.0
  0
LINE
  8
0
  6
CONTINUOUS
 62
     7
  5
316
 10
-1.0397
 20
0.686251
 30
0.0
 11
-1.069678
 21
0.689775
 31
0.0
  0
LINE
  8
0
  6
CONTINUOUS
 62
     7
  5
317
 10
-1.069678
 20
0.689775
 30
0.0
 11
-1.099329
 21
0.696049
 31
0.0
  0
LINE
  8
0
  6
CONTINUOUS
 62
     7
  5
318
 10
-1.099329
 20
0.696049
 30
0.0
 11
-1.128165
 21
0.704969
 31
0.0
  0
LINE
  8
0
  6
CONTINUOUS
 62
     7
  5
319
 10
-1.128165
 20
0.704969
 30
0.0
 11
-1.155704
 21
0.716312
 31
0.0
  0
LINE
  8
0
  6
CONTINUOUS
 62
     7
  5
31A
 10
-1.155704
 20
0.716312
 30
0.0
 11
-1.181489
 21
0.729725
 31
0.0
  0
LINE
  8
0
  6
CONTINUOUS
 62
     7
  5
31B
 10
-1.181489
 20
0.729725
 30
0.0
 11
-1.205464
 21
0.744979
 31
0.0
  0
LINE
  8
0
  6
CONTINUOUS
 62
     7
  5
31C
 10
-1.205464
 20
0.744979
 30
0.0
 11
-1.228381
 21
0.762519
 31
0.0
  0
LINE
  8
0
  6
CONTINUOUS
 62
     7
  5
31D
 10
-1.228381
 20
0.762519
 30
0.0
 11
-1.249964
 21
0.782272
 31
0.0
  0
LINE
  8
0
  6
CONTINUOUS
 62
     7
  5
31E
 10
-1.249964
 20
0.782272
 30
0.0
 11
-1.388701
 21
0.921008
 31
0.0
  0
LINE
  8
0
  6
CONTINUOUS
 62
     7
  5
31F
 10
-1.388701
 20
0.921008
 30
0.0
 11
-1.44996
 21
0.982267
 31
0.0
  0
ARC
  8
0
  6
CONTINUOUS
 62
     7
  5
320
 10
0.0
 20
0.0
 30
0.0
 40
1.751352
 50
124.115458
 51
145.884542
  0
LINE
  8
0
  6
CONTINUOUS
 62
     7
  5
321
 10
-0.982267
 20
1.44996
 30
0.0
 11
-0.921008
 21
1.388701
 31
0.0
  0
LINE
  8
0
  6
CONTINUOUS
 62
     7
  5
322
 10
0.921008
 20
1.388701
 30
0.0
 11
0.982267
 21
1.44996
 31
0.0
  0
ARC
  8
0
  6
CONTINUOUS
 62
     7
  5
323
 10
0.0
 20
0.0
 30
0.0
 40
1.751352
 50
34.115458
 51
55.884542
  0
LINE
  8
0
  6
CONTINUOUS
 62
     7
  5
324
 10
1.44996
 20
0.982267
 30
0.0
 11
1.388701
 21
0.921008
 31
0.0
  0
LINE
  8
0
  6
CONTINUOUS
 62
     7
  5
325
 10
1.388701
 20
-0.921008
 30
0.0
 11
1.44996
 21
-0.982267
 31
0.0
  0
ARC
  8
0
  6
CONTINUOUS
 62
     7
  5
326
 10
0.0
 20
0.0
 30
0.0
 40
1.751352
 50
304.115458
 51
325.884542
  0
LINE
  8
0
  6
CONTINUOUS
 62
     7
  5
327
 10
0.982267
 20
-1.44996
 30
0.0
 11
0.921008
 21
-1.388701
 31
0.0
  0
ARC
  8
0
  6
CONTINUOUS
 62
     7
  5
328
 10
-1.027251
 20
1.004985
 30
0.0
 40
0.082677
 50
135.002818
 51
314.997182
  0
LINE
  8
0
  6
CONTINUOUS
 62
     7
  5
329
 10
-1.063444
 20
1.085715
 30
0.0
 11
-1.085715
 21
1.063444
 31
0.0
  0
ARC
  8
0
  6
CONTINUOUS
 62
     7
  5
32A
 10
-1.004985
 20
1.027251
 30
0.0
 40
0.082677
 50
315.002818
 51
134.997182
  0
LINE
  8
0
  6
CONTINUOUS
 62
     7
  5
32B
 10
-0.968792
 20
0.946521
 30
0.0
 11
-0.946521
 21
0.968792
 31
0.0
  0
ARC
  8
0
  6
CONTINUOUS
 62
     7
  5
32C
 10
1.004985
 20
1.027251
 30
0.0
 40
0.082677
 50
45.002818
 51
224.997182
  0
LINE
  8
0
  6
CONTINUOUS
 62
     7
  5
32D
 10
1.085715
 20
1.063444
 30
0.0
 11
1.063444
 21
1.085715
 31
0.0
  0
ARC
  8
0
  6
CONTINUOUS
 62
     7
  5
32E
 10
1.027251
 20
1.004985
 30
0.0
 40
0.082677
 50
225.002818
 51
44.997182
  0
LINE
  8
0
  6
CONTINUOUS
 62
     7
  5
32F
 10
0.946521
 20
0.968792
 30
0.0
 11
0.968792
 21
0.946521
 31
0.0
  0
ARC
  8
0
  6
CONTINUOUS
 62
     7
  5
330
 10
1.004985
 20
-1.004985
 30
0.0
 40
0.082677
 50
45.002818
 51
224.997182
  0
LINE
  8
0
  6
CONTINUOUS
 62
     7
  5
331
 10
1.085715
 20
-0.968792
 30
0.0
 11
1.063444
 21
-0.946521
 31
0.0
  0
ARC
  8
0
  6
CONTINUOUS
 62
     7
  5
332
 10
1.027251
 20
-1.027251
 30
0.0
 40
0.082677
 50
225.002818
 51
44.997182
  0
LINE
  8
0
  6
CONTINUOUS
 62
     7
  5
333
 10
0.946521
 20
-1.063444
 30
0.0
 11
0.968792
 21
-1.085715
 31
0.0
  0
CIRCLE
  8
0
  6
CONTINUOUS
 62
     7
  5
334
 10
0.0
 20
0.0
 30
0.0
 40
0.688976
  0
CIRCLE
  8
0
  6
CONTINUOUS
 62
     7
  5
335
 10
0.0
 20
0.0
 30
0.0
 40
1.771654
  0
LINE
  8
0
  6
CONTINUOUS
 62
     7
  5
336
 10
-0.353331
 20
-0.630006
 30
0.0
 11
-0.353331
 21
-0.816929
 31
0.0
  0
LINE
  8
0
  6
CONTINUOUS
 62
     7
  5
337
 10
0.353331
 20
-0.816929
 30
0.0
 11
0.353331
 21
-0.630006
 31
0.0
  0
LINE
  8
0
  6
CONTINUOUS
 62
     3
  5
338
 10
-1.336187
 20
-1.336187
 30
0.0
 11
1.336187
 21
1.336187
 31
0.0
  0
LINE
  8
0
  6
CONTINUOUS
 62
     3
  5
339
 10
-1.336187
 20
1.336187
 30
0.0
 11
1.336187
 21
-1.336187
 31
0.0
  0
LINE
  8
0
  6
CONTINUOUS
 62
     3
  5
33A
 10
-2.007654
 20
0.0
 30
0.0
 11
2.007654
 21
0.0
 31
0.0
  0
LINE
  8
0
  6
CONTINUOUS
 62
     3
  5
33B
 10
0.0
 20
-2.007654
 30
0.0
 11
0.0
 21
2.007654
 31
0.0
  0
CIRCLE
  8
0
  6
CONTINUOUS
 62
     3
  5
33C
 10
0.0
 20
0.0
 30
0.0
 40
1.437008
  0
ENDSEC
  0
EOF
