999
DXF file: C:\Users\sesa63760\Dev\_Creo\CAD\MCADID0004523_3D-CAD\drw0001_1.dxf
999
Pro/ENGINEER 2019471 by Parametric Technology Corporation
  0
SECTION
  2
HEADER
  9
$ACADVER
  1
AC1024
  9
$DWGCODEPAGE
  3
ANSI_1252
  9
$EXTMAX
 10
88.4033352231
 20
125.0275741012
 30
0.0
  9
$EXTMIN
 10
0.0
 20
0.0
 30
0.0
  9
$LIMMIN
 10
0.0
 20
0.0
  9
$LIMMAX
 10
88.4033352231
 20
125.0275741012
  9
$VIEWCTR
 10
44.2016676115
 20
62.5137870506
  9
$VIEWSIZE
 40
125.0275741012
  9
$CLAYER
  8
0
  9
$LTSCALE
 40
8.149945571
  9
$CELTYPE
  6
BYLAYER
  9
$DIMSCALE
 40
1.0
  9
$DIMASZ
 40
1.0524206574
  9
$DIMEXO
 40
1.0
  9
$DIMDLI
 40
5.6308714854
  9
$DIMEXE
 40
1.0
  9
$DIMCEN
 40
1.3336274571
  9
$DIMLFAC
 40
1.0
  9
$DIMBLK
  1
_FILLED
  9
$DIMALT
 70
0
  9
$DIMALTF
 40
0.0393700787
  9
$DIMTXT
 40
1.4733889204
  9
$DIMTOL
 70
1
  9
$DIMLIM
 70
0
  9
$DIMTFAC
 40
1.0
  9
$DIMTP
 40
0.01
  9
$DIMTM
 40
0.01
  9
$DIMGAP
 40
0.625
  9
$DIMDSEP
 70
46
  9
$AUNITS
 70
0
  9
$PDMODE
 70
3
  9
$PDSIZE
 40
0.3125
  9
$HANDSEED
  5
2B3
  9
$TILEMODE
 70
1
  9
$MEASUREMENT
 70
1
  9
$INSUNITS
 70
4
  0
ENDSEC
  0
SECTION
  2
CLASSES
  0
CLASS
  1
ACDBDICTIONARYWDFLT
  2
AcDbDictionaryWithDefault
  3
AutoCAD 2000
 90
0
 91
1
280
0
281
0
  0
CLASS
  1
ACDBPLACEHOLDER
  2
AcDbPlaceHolder
  3
AutoCAD 2000
 90
0
 91
1
280
0
281
0
  0
CLASS
  1
LAYOUT
  2
AcDbLayout
  3
AutoCAD 2000
 90
0
 91
0
280
0
281
0
  0
ENDSEC
  0
SECTION
  2
TABLES
  0
TABLE
  2
VPORT
  5
8
100
AcDbSymbolTable
 70
2
  0
VPORT
  5
1F4
100
AcDbSymbolTableRecord
100
AcDbViewportTableRecord
  2
*ACTIVE
 70
0
 10
0.0
 20
0.0
 11
1.0
 21
1.0
 12
44.2016676115
 22
62.5137870506
 13
0.0
 23
0.0
 14
1.0
 24
1.0
 15
0.0
 25
0.0
 16
0.0
 26
0.0
 36
1.0
 17
0.0
 27
0.0
 37
0.0
 40
125.0275741012
 41
0.7070707071
 42
50.0
 43
0.0
 44
0.0
 50
0.0
 51
0.0
 71
0
 72
100
 73
1
 74
1
 75
0
 76
0
 77
0
 78
0
  0
ENDTAB
  0
TABLE
  2
LTYPE
  5
5
100
AcDbSymbolTable
 70
6
  0
LTYPE
  5
14
100
AcDbSymbolTableRecord
100
AcDbLinetypeTableRecord
  2
BYBLOCK
 70
0
  3

 72
65
 73
0
 40
0.0
  0
LTYPE
  5
15
100
AcDbSymbolTableRecord
100
AcDbLinetypeTableRecord
  2
BYLAYER
 70
0
  3

 72
65
 73
0
 40
0.0
  0
LTYPE
  5
16
100
AcDbSymbolTableRecord
100
AcDbLinetypeTableRecord
  2
CONTINUOUS
 70
64
  3
Solid line
 72
65
 73
0
 40
0.0
  0
LTYPE
  5
1F5
100
AcDbSymbolTableRecord
100
AcDbLinetypeTableRecord
  2
CENTER
 70
64
  3
____ _ ____ _ ____ _ ____ _ ____ _ ____ _ ____
 72
65
 73
4
 40
0.6
 49
0.375
 74
0
 49
-0.075
 74
0
 49
0.075
 74
0
 49
-0.075
 74
0
  0
LTYPE
  5
1F6
100
AcDbSymbolTableRecord
100
AcDbLinetypeTableRecord
  2
HIDDEN
 70
64
  3
- - - - - - - - - - - - - - - - - - - -
 72
65
 73
2
 40
0.2
 49
0.1
 74
0
 49
-0.1
 74
0
  0
LTYPE
  5
1F7
100
AcDbSymbolTableRecord
100
AcDbLinetypeTableRecord
  2
PHANTOM
 70
64
  3
_____ _ _ _____ _ _ _____ _ _ _____
 72
65
 73
6
 40
0.8
 49
0.45
 74
0
 49
-0.05
 74
0
 49
0.1
 74
0
 49
-0.05
 74
0
 49
0.1
 74
0
 49
-0.05
 74
0
  0
LTYPE
  5
1F8
100
AcDbSymbolTableRecord
100
AcDbLinetypeTableRecord
  2
DOT
 70
64
  3
. . . . . . . . . . . . . . . . . . . .
 72
65
 73
2
 40
0.2
 49
0.1
 74
0
 49
-0.1
 74
0
  0
LTYPE
  5
1F9
100
AcDbSymbolTableRecord
100
AcDbLinetypeTableRecord
  2
DASHED
 70
64
  3
- - - - - - - - - - - - - - - - - - - -
 72
65
 73
2
 40
0.2
 49
0.1
 74
0
 49
-0.1
 74
0
  0
ENDTAB
  0
TABLE
  2
LAYER
  5
2
100
AcDbSymbolTable
 70
36
  0
LAYER
  5
10
100
AcDbSymbolTableRecord
100
AcDbLayerTableRecord
  2
0
 70
0
 62
7
  6
CONTINUOUS
370
-3
390
F
  0
LAYER
  5
1FA
100
AcDbSymbolTableRecord
100
AcDbLayerTableRecord
  2
DEFAULT_1
 70
0
 62
7
  6
CENTER
370
-3
390
F
  0
LAYER
  5
1FB
100
AcDbSymbolTableRecord
100
AcDbLayerTableRecord
  2
DEFAULT_2
 70
0
 62
7
  6
HIDDEN
370
-3
390
F
  0
LAYER
  5
1FC
100
AcDbSymbolTableRecord
100
AcDbLayerTableRecord
  2
DEFAULT_3
 70
0
 62
7
  6
PHANTOM
370
-3
390
F
  0
LAYER
  5
1FD
100
AcDbSymbolTableRecord
100
AcDbLayerTableRecord
  2
00_COMPONENTS
 70
0
 62
7
  6
CONTINUOUS
370
-3
390
F
  0
LAYER
  5
1FE
100
AcDbSymbolTableRecord
100
AcDbLayerTableRecord
  2
01_1_DEFAULT_DATUMS
 70
0
 62
7
  6
CONTINUOUS
370
-3
390
F
  0
LAYER
  5
1FF
100
AcDbSymbolTableRecord
100
AcDbLayerTableRecord
  2
01_PLANES
 70
0
 62
7
  6
CONTINUOUS
370
-3
390
F
  0
LAYER
  5
200
100
AcDbSymbolTableRecord
100
AcDbLayerTableRecord
  2
02_COORD_SYS
 70
0
 62
7
  6
CONTINUOUS
370
-3
390
F
  0
LAYER
  5
201
100
AcDbSymbolTableRecord
100
AcDbLayerTableRecord
  2
03_AXES
 70
0
 62
7
  6
CONTINUOUS
370
-3
390
F
  0
LAYER
  5
202
100
AcDbSymbolTableRecord
100
AcDbLayerTableRecord
  2
04_POINTS
 70
0
 62
7
  6
CONTINUOUS
370
-3
390
F
  0
LAYER
  5
203
100
AcDbSymbolTableRecord
100
AcDbLayerTableRecord
  2
05_CURVES
 70
0
 62
7
  6
CONTINUOUS
370
-3
390
F
  0
LAYER
  5
204
100
AcDbSymbolTableRecord
100
AcDbLayerTableRecord
  2
06_SURFS
 70
0
 62
7
  6
CONTINUOUS
370
-3
390
F
  0
LAYER
  5
205
100
AcDbSymbolTableRecord
100
AcDbLayerTableRecord
  2
07_COSMETICS
 70
0
 62
7
  6
CONTINUOUS
370
-3
390
F
  0
LAYER
  5
206
100
AcDbSymbolTableRecord
100
AcDbLayerTableRecord
  2
10_NOTES
 70
0
 62
7
  6
CONTINUOUS
370
-3
390
F
  0
LAYER
  5
207
100
AcDbSymbolTableRecord
100
AcDbLayerTableRecord
  2
11_NOTES_PUB
 70
0
 62
7
  6
CONTINUOUS
370
-3
390
F
  0
LAYER
  5
208
100
AcDbSymbolTableRecord
100
AcDbLayerTableRecord
  2
13_REF_GTOL
 70
0
 62
7
  6
CONTINUOUS
370
-3
390
F
  0
LAYER
  5
209
100
AcDbSymbolTableRecord
100
AcDbLayerTableRecord
  2
16_MISC
 70
0
 62
7
  6
CONTINUOUS
370
-3
390
F
  0
LAYER
  5
20A
100
AcDbSymbolTableRecord
100
AcDbLayerTableRecord
  2
17_NO_PRINT
 70
0
 62
7
  6
CONTINUOUS
370
-3
390
F
  0
LAYER
  5
20B
100
AcDbSymbolTableRecord
100
AcDbLayerTableRecord
  2
18_DATUM_CAMS_JOINTS
 70
0
 62
7
  6
CONTINUOUS
370
-3
390
F
  0
LAYER
  5
20C
100
AcDbSymbolTableRecord
100
AcDbLayerTableRecord
  2
19_DATUM_FUNCTIONAL
 70
0
 62
7
  6
CONTINUOUS
370
-3
390
F
  0
LAYER
  5
20D
100
AcDbSymbolTableRecord
100
AcDbLayerTableRecord
  2
20_DATUM_KINEMATIC_SCHEME
 70
0
 62
7
  6
CONTINUOUS
370
-3
390
F
  0
ENDTAB
  0
TABLE
  2
STYLE
  5
3
100
AcDbSymbolTable
 70
1
  0
STYLE
  5
11
100
AcDbSymbolTableRecord
100
AcDbTextStyleTableRecord
  2
STANDARD
 70
0
 40
0.0
 41
1.0
 50
0.0
 71
0
 42
0.2
  3
ARIAL.TTF
  4

  0
STYLE
  5
20E
100
AcDbSymbolTableRecord
100
AcDbTextStyleTableRecord
  2
TEXTSTYLE_1
 70
0
 40
0.0
 41
0.8
 50
0.0
 71
0
 42
0.2
  3
gdt
  4

  0
ENDTAB
  0
TABLE
  2
VIEW
  5
6
100
AcDbSymbolTable
 70
0
  0
ENDTAB
  0
TABLE
  2
UCS
  5
7
100
AcDbSymbolTable
 70
0
  0
ENDTAB
  0
TABLE
  2
APPID
  5
9
100
AcDbSymbolTable
 70
1
  0
APPID
  5
20F
100
AcDbSymbolTableRecord
100
AcDbRegAppTableRecord
  2
ACAD
 70
0
  0
ENDTAB
  0
TABLE
  2
BLOCK_RECORD
  5
1
100
AcDbSymbolTable
 70
0
  0
BLOCK_RECORD
  5
210
100
AcDbSymbolTableRecord
100
AcDbBlockTableRecord
  2
*Model_Space
  0
BLOCK_RECORD
  5
211
100
AcDbSymbolTableRecord
100
AcDbBlockTableRecord
  2
*Paper_Space
  0
BLOCK_RECORD
  5
212
100
AcDbSymbolTableRecord
100
AcDbBlockTableRecord
  2
_FILLED
  0
ENDTAB
  0
TABLE
  2
DIMSTYLE
  5
A
100
AcDbSymbolTable
 70
1
100
AcDbDimStyleTable
 71
0
  0
DIMSTYLE
105
213
100
AcDbSymbolTableRecord
100
AcDbDimStyleTableRecord
  2
STANDARD
 70
0
  3

  4

 40
1.0
 41
1.0524206574
 42
1.0
 43
0.38
 44
1.0
 45
0.0
 46
0.0
 47
0.01
 48
0.01
140
1.4733889204
141
0.09
142
0.0
143
25.4
144
1.0
145
0.0
146
1.0
147
0.625
 71
1
 72
0
 73
0
 74
0
 75
0
 76
0
 77
1
 78
8
 79
2
170
0
171
1
172
0
173
0
174
0
175
0
176
0
177
0
178
0
270
2
179
2
271
2
272
2
273
2
274
2
275
0
280
0
281
0
282
0
283
1
284
8
285
0
286
0
287
3
288
0
340
11
278
46
341
212
342
212
343
212
344
212
  0
ENDTAB
  0
ENDSEC
  0
SECTION
  2
BLOCKS
  0
BLOCK
  5
20
100
AcDbEntity
  8
0
100
AcDbBlockBegin
  2
*Model_Space
 70
0
 10
0.0
 20
0.0
 30
0.0
  3
*Model_Space
  1

  0
ENDBLK
  5
21
100
AcDbEntity
  8
0
100
AcDbBlockEnd
  0
BLOCK
  5
1C
100
AcDbEntity
  8
0
100
AcDbBlockBegin
  2
*Paper_Space
 70
0
 10
0.0
 20
0.0
 30
0.0
  3
*Paper_Space
  1

  0
ENDBLK
  5
1D
100
AcDbEntity
  8
0
100
AcDbBlockEnd
  0
BLOCK
  5
214
100
AcDbEntity
  8
0
100
AcDbBlockBegin
  2
_FILLED
 70
64
 10
0.0
 20
0.0
  3
_FILLED
  1

  0
SOLID
  5
215
100
AcDbEntity
  8
0
  6
BYBLOCK
 62
0
100
AcDbTrace
 10
0.0
 20
0.0
 11
-1.0
 21
0.25
 12
-1.0
 22
-0.25
 13
-1.0
 23
-0.25
  0
ENDBLK
  5
216
100
AcDbEntity
  8
0
  6
BYBLOCK
 62
0
100
AcDbBlockEnd
  0
ENDSEC
  0
SECTION
  2
ENTITIES
  0
LINE
  5
217
100
AcDbEntity
  8
0
100
AcDbLine
 62
7
  6
BYLAYER
 10
29.0807639301
 20
93.2669635971
 11
30.8485235231
 21
94.2875739818
  0
LINE
  5
218
100
AcDbEntity
  8
0
100
AcDbLine
 62
7
  6
BYLAYER
 10
35.0621726641
 20
93.8718229774
 11
33.2944130711
 21
92.8512125927
  0
LINE
  5
219
100
AcDbEntity
  8
0
100
AcDbLine
 62
7
  6
BYLAYER
 10
16.563382419
 20
66.4064594901
 11
16.3613257302
 21
66.2154552184
  0
LINE
  5
21A
100
AcDbEntity
  8
0
100
AcDbLine
 62
7
  6
BYLAYER
 10
44.7178670819
 20
84.840602673
 11
42.9501074889
 21
83.8199922884
  0
LINE
  5
21B
100
AcDbEntity
  8
0
100
AcDbLine
 62
7
  6
BYLAYER
 10
43.4664159381
 20
83.087152079
 11
30.7282200081
 21
75.732540957
  0
LINE
  5
21C
100
AcDbEntity
  8
0
100
AcDbLine
 62
7
  6
BYLAYER
 10
16.563382419
 20
66.4064594901
 11
29.5125481671
 21
73.8826191939
  0
LINE
  5
21D
100
AcDbEntity
  8
0
100
AcDbLine
 62
7
  6
BYLAYER
 10
45.9530552196
 20
83.0790068382
 11
44.1852956266
 21
82.0583964536
  0
LINE
  5
21E
100
AcDbEntity
  8
0
100
AcDbLine
 62
7
  6
BYLAYER
 10
44.8775151037
 20
80.8512673241
 11
46.6452746968
 21
81.8718777088
  0
LINE
  5
21F
100
AcDbEntity
  8
0
100
AcDbLine
 62
7
  6
BYLAYER
 10
29.5125481671
 20
73.8826191939
 11
29.4977419085
 21
73.8740784494
  0
LINE
  5
220
100
AcDbEntity
  8
0
100
AcDbLine
 62
7
  6
BYLAYER
 10
56.7847424354
 20
44.418375951
 11
55.370534761
 21
44.5447034239
  0
LINE
  5
221
100
AcDbEntity
  8
0
100
AcDbLine
 62
7
  6
BYLAYER
 10
49.3305884752
 20
40.3313153755
 11
65.4350124654
 21
31.0336321913
  0
LINE
  5
222
100
AcDbEntity
  8
0
100
AcDbLine
 62
7
  6
BYLAYER
 10
48.0878795254
 20
43.0780524839
 11
64.1899951123
 21
33.7817020268
  0
LINE
  5
223
100
AcDbEntity
  8
0
100
AcDbLine
 62
7
  6
BYLAYER
 10
47.6177679295
 20
79.0917993737
 11
45.8500083365
 21
78.071188989
  0
LINE
  5
224
100
AcDbEntity
  8
0
100
AcDbLine
 62
7
  6
BYLAYER
 10
46.00609844
 20
77.7105867701
 11
31.9833171731
 21
69.6142987531
  0
LINE
  5
225
100
AcDbEntity
  8
0
100
AcDbLine
 62
7
  6
BYLAYER
 10
56.7847424354
 20
48.1896390735
 11
58.1989501099
 21
48.0633116006
  0
LINE
  5
226
100
AcDbEntity
  8
0
100
AcDbLine
 62
7
  6
BYLAYER
 10
65.9577547053
 20
34.8476215177
 11
66.0323502005
 21
34.8045547628
  0
LINE
  5
227
100
AcDbEntity
  8
0
100
AcDbLine
 62
7
  6
BYLAYER
 10
68.1478773711
 20
33.7268150204
 11
65.9577547053
 21
34.9912543256
  0
LINE
  5
228
100
AcDbEntity
  8
0
100
AcDbLine
 62
7
  6
BYLAYER
 10
54.4830010591
 20
42.7254389187
 11
51.3010072959
 21
44.562522314
  0
LINE
  5
229
100
AcDbEntity
  8
0
100
AcDbLine
 62
7
  6
BYLAYER
 10
50.4804240856
 20
47.0569900475
 11
46.548269644
 21
49.3271691145
  0
LINE
  5
22A
100
AcDbEntity
  8
0
100
AcDbLine
 62
7
  6
BYLAYER
 10
55.370534761
 20
45.2348506613
 11
56.7847424354
 21
44.418375951
  0
LINE
  5
22B
100
AcDbEntity
  8
0
100
AcDbLine
 62
7
  6
BYLAYER
 10
46.4659536135
 20
49.3843613411
 11
46.548269644
 21
49.3271691146
  0
LINE
  5
22C
100
AcDbEntity
  8
0
100
AcDbLine
 62
7
  6
BYLAYER
 10
30.9213012
 20
73.441059133
 11
31.8099990451
 21
70.263220074
  0
LINE
  5
22D
100
AcDbEntity
  8
0
100
AcDbLine
 62
7
  6
BYLAYER
 10
30.7282200081
 20
75.732540957
 11
30.7338527211
 21
75.7018740305
  0
LINE
  5
22E
100
AcDbEntity
  8
0
100
AcDbLine
 62
7
  6
BYLAYER
 10
56.431175797
 20
47.1982819256
 11
58.1989501099
 21
46.1776800393
  0
LINE
  5
22F
100
AcDbEntity
  8
0
100
AcDbLine
 62
7
  6
BYLAYER
 10
29.7394469681
 20
78.2413379717
 11
30.7282200081
 21
75.732540957
  0
LINE
  5
230
100
AcDbEntity
  8
0
100
AcDbLine
 62
7
  6
BYLAYER
 10
67.5649681105
 20
46.3847270651
 11
64.552590657
 21
47.7787831536
  0
LINE
  5
231
100
AcDbEntity
  8
0
100
AcDbLine
 62
7
  6
BYLAYER
 10
52.9595575667
 20
51.3991640844
 11
48.8408706943
 21
53.7770352643
  0
LINE
  5
232
100
AcDbEntity
  8
0
100
AcDbLine
 62
7
  6
BYLAYER
 10
58.7329289492
 20
50.0866964831
 11
55.550935186
 21
51.9237798784
  0
LINE
  5
233
100
AcDbEntity
  8
0
100
AcDbLine
 62
7
  6
BYLAYER
 10
75.4752456643
 20
41.2848127279
 11
67.5649681105
 21
46.3847270651
  0
LINE
  5
234
100
AcDbEntity
  8
0
100
AcDbLine
 62
7
  6
BYLAYER
 10
48.0878795254
 20
43.2543198163
 11
48.0878795254
 21
43.0780524839
  0
LINE
  5
235
100
AcDbEntity
  8
0
100
AcDbLine
 62
7
  6
BYLAYER
 10
45.8500083365
 20
78.071188989
 11
44.8775151037
 21
80.8512673241
  0
LINE
  5
236
100
AcDbEntity
  8
0
100
AcDbLine
 62
7
  6
BYLAYER
 10
48.8951837441
 20
53.7456783198
 11
57.0129999783
 21
58.4326357108
  0
LINE
  5
237
100
AcDbEntity
  8
0
100
AcDbLine
 62
7
  6
BYLAYER
 10
46.6452746968
 20
81.8718777088
 11
47.6177679295
 21
79.0917993737
  0
LINE
  5
238
100
AcDbEntity
  8
0
100
AcDbLine
 62
7
  6
BYLAYER
 10
55.370534761
 20
46.4303349852
 11
55.370534761
 21
44.5447034239
  0
LINE
  5
239
100
AcDbEntity
  8
0
100
AcDbLine
 62
7
  6
BYLAYER
 10
56.431175797
 20
47.7497947397
 11
56.431175797
 21
47.1982819256
  0
LINE
  5
23A
100
AcDbEntity
  8
0
100
AcDbLine
 62
7
  6
BYLAYER
 10
58.1989501099
 20
46.1776800393
 11
58.1989501099
 21
48.0633116006
  0
LINE
  5
23B
100
AcDbEntity
  8
0
100
AcDbLine
 62
7
  6
BYLAYER
 10
60.3918804101
 20
53.5405530778
 11
56.5713072948
 21
51.334681094
  0
LINE
  5
23C
100
AcDbEntity
  8
0
100
AcDbLine
 62
7
  6
BYLAYER
 10
49.8213656148
 20
47.4374890249
 11
46.644995555
 21
45.6035584827
  0
LINE
  5
23D
100
AcDbEntity
  8
0
100
AcDbLine
 62
7
  6
BYLAYER
 10
36.8900844926
 20
41.119922907
 11
48.8269287636
 21
48.0116144203
  0
LINE
  5
23E
100
AcDbEntity
  8
0
100
AcDbLine
 62
7
  6
BYLAYER
 10
40.4154729313
 20
76.8047498454
 11
39.785968442
 21
76.8333758626
  0
LINE
  5
23F
100
AcDbEntity
  8
0
100
AcDbLine
 62
7
  6
BYLAYER
 10
41.6796461884
 20
76.6165338001
 11
39.7859374624
 21
76.8333469224
  0
LINE
  5
240
100
AcDbEntity
  8
0
100
AcDbLine
 62
7
  6
BYLAYER
 10
40.4154752511
 20
76.8047425601
 11
41.6796461884
 21
76.6165338001
  0
LINE
  5
241
100
AcDbEntity
  8
0
100
AcDbLine
 62
7
  6
BYLAYER
 10
55.370534761
 20
46.4303349852
 11
56.7847424354
 21
48.1896390735
  0
LINE
  5
242
100
AcDbEntity
  8
0
100
AcDbLine
 62
7
  6
BYLAYER
 10
55.370534761
 20
45.8788221711
 11
56.431175797
 21
47.1982819256
  0
LINE
  5
243
100
AcDbEntity
  8
0
100
AcDbLine
 62
7
  6
BYLAYER
 10
64.1899951123
 20
33.7817020268
 11
64.1899951123
 21
38.9977453397
  0
LINE
  5
244
100
AcDbEntity
  8
0
100
AcDbLine
 62
7
  6
BYLAYER
 10
65.9577547053
 20
40.0183557243
 11
65.9577547053
 21
34.7614872906
  0
LINE
  5
245
100
AcDbEntity
  8
0
100
AcDbLine
 62
7
  6
BYLAYER
 10
66.7956899383
 20
33.5082754006
 11
66.7956899383
 21
30.7676833609
  0
LINE
  5
246
100
AcDbEntity
  8
0
100
AcDbLine
 62
7
  6
BYLAYER
 10
58.1989501099
 20
46.1776800393
 11
56.7847424354
 21
44.418375951
  0
LINE
  5
247
100
AcDbEntity
  8
0
100
AcDbLine
 62
7
  6
BYLAYER
 10
69.3058671541
 20
34.3953767426
 11
69.3058671541
 21
31.8385130038
  0
LINE
  5
248
100
AcDbEntity
  8
0
100
AcDbLine
 62
7
  6
BYLAYER
 10
64.5763924701
 20
47.7060714284
 11
62.8086328771
 21
46.6854610437
  0
LINE
  5
249
100
AcDbEntity
  8
0
100
AcDbLine
 62
7
  6
BYLAYER
 10
74.8605808123
 20
33.2955211485
 11
74.8605808123
 21
30.7386574097
  0
LINE
  5
24A
100
AcDbEntity
  8
0
100
AcDbLine
 62
7
  6
BYLAYER
 10
64.1899951123
 20
38.9977453397
 11
65.9577547053
 21
40.0183557243
  0
LINE
  5
24B
100
AcDbEntity
  8
0
100
AcDbLine
 62
7
  6
BYLAYER
 10
79.5225231071
 20
35.2850538398
 11
79.5206223454
 21
35.3554804355
  0
LINE
  5
24C
100
AcDbEntity
  8
0
100
AcDbLine
 62
7
  6
BYLAYER
 10
79.5226869749
 20
32.7281900349
 11
79.5226869749
 21
35.2850537737
  0
LINE
  5
24D
100
AcDbEntity
  8
0
100
AcDbLine
 62
7
  6
BYLAYER
 10
65.9577547053
 20
34.7614872906
 11
66.0323502005
 21
34.8045547628
  0
LINE
  5
24E
100
AcDbEntity
  8
0
100
AcDbLine
 62
7
  6
BYLAYER
 10
68.1478773711
 20
33.7268150204
 11
69.3058671541
 21
34.3953767426
  0
LINE
  5
24F
100
AcDbEntity
  8
0
100
AcDbLine
 62
7
  6
BYLAYER
 10
69.3058671541
 20
31.8385130038
 11
68.430718906
 21
31.3332489432
  0
ARC
  5
250
100
AcDbEntity
  8
0
100
AcDbCircle
 62
7
  6
BYLAYER
 10
332.4499975109
 20
219.5250265766
 40
334.5641585809
100
AcDbArc
 50
211.3218475769
 51
211.7939923017
  0
ARC
  5
251
100
AcDbEntity
  8
0
100
AcDbCircle
 62
7
  6
BYLAYER
 10
330.7198196619
 20
218.5736573259
 40
333.8149014435
100
AcDbArc
 50
206.5022784032
 51
209.8567096634
  0
ARC
  5
252
100
AcDbEntity
  8
0
100
AcDbCircle
 62
7
  6
BYLAYER
 10
28.6955874681
 20
66.6166753281
 40
27.8078051721
100
AcDbArc
 50
327.8509774939
 51
333.2422560155
  0
ARC
  5
253
100
AcDbEntity
  8
0
100
AcDbCircle
 62
7
  6
BYLAYER
 10
27.0372041628
 20
62.6587863256
 40
24.4546805525
100
AcDbArc
 50
253.2287815928
 51
255.2092525978
  0
ARC
  5
254
100
AcDbEntity
  8
0
100
AcDbCircle
 62
7
  6
BYLAYER
 10
25.5589003366
 20
57.0516054763
 40
18.6559285854
100
AcDbArc
 50
255.2024417426
 51
255.7779462426
  0
ARC
  5
255
100
AcDbEntity
  8
0
100
AcDbCircle
 62
7
  6
BYLAYER
 10
21.710429384
 20
47.9183366282
 40
8.8760551762
100
AcDbArc
 50
256.7617198869
 51
264.1653924226
  0
ARC
  5
256
100
AcDbEntity
  8
0
100
AcDbCircle
 62
7
  6
BYLAYER
 10
19.099844191
 20
52.3624285763
 40
8.8154548532
100
AcDbArc
 50
154.5449474693
 51
163.2775137759
  0
ARC
  5
257
100
AcDbEntity
  8
0
100
AcDbCircle
 62
7
  6
BYLAYER
 10
21.6826575672
 20
47.6724051755
 40
8.6285749691
100
AcDbArc
 50
264.1828379244
 51
265.468111562
  0
ARC
  5
258
100
AcDbEntity
  8
0
100
AcDbCircle
 62
7
  6
BYLAYER
 10
48.2371860174
 20
86.9966039055
 40
6.167986765
100
AcDbArc
 50
210.9985216952
 51
219.3332229437
  0
ARC
  5
259
100
AcDbEntity
  8
0
100
AcDbCircle
 62
7
  6
BYLAYER
 10
55.6069699767
 20
48.0392392754
 40
4.079410381
100
AcDbArc
 50
358.5448011757
 51
359.9972617786
  0
ARC
  5
25A
100
AcDbEntity
  8
0
100
AcDbCircle
 62
7
  6
BYLAYER
 10
33.7549606898
 20
91.1660752885
 40
2.3484863848
100
AcDbArc
 50
180.0003735474
 51
180.3598480893
  0
ARC
  5
25B
100
AcDbEntity
  8
0
100
AcDbCircle
 62
7
  6
BYLAYER
 10
62.0393496948
 20
42.1763484225
 40
2.348486384
100
AcDbArc
 50
180.0003735473
 51
180.3598480893
  0
ARC
  5
25C
100
AcDbEntity
  8
0
100
AcDbCircle
 62
7
  6
BYLAYER
 10
46.2982425124
 20
47.6683812972
 40
1.7241754779
100
AcDbArc
 50
84.4158217484
 51
84.959593118
  0
ARC
  5
25D
100
AcDbEntity
  8
0
100
AcDbCircle
 62
7
  6
BYLAYER
 10
67.1568756836
 20
34.4509781975
 40
1.0103074417
100
AcDbArc
 50
240.0277294824
 51
249.310619796
  0
ARC
  5
25E
100
AcDbEntity
  8
0
100
AcDbCircle
 62
7
  6
BYLAYER
 10
67.1540774748
 20
34.444966024
 40
1.0037015283
100
AcDbArc
 50
234.4833627993
 51
239.9946450405
  0
SPLINE
  5
25F
100
AcDbEntity
  8
0
100
AcDbSpline
 62
7
  6
BYLAYER
 70
0
 71
3
 72
24
 73
20
 74
0
 42
0.0000001
 43
0.0000001
 44
0.0000000001
 40
0.0
 40
0.0
 40
0.0
 40
0.0
 40
0.0628522952
 40
0.1290502134
 40
0.1980119878
 40
0.2689728883
 40
0.341042034
 40
0.4132727075
 40
0.4847068983
 40
0.5544311783
 40
0.6216300136
 40
0.6856442026
 40
0.746032981
 40
0.8026385557
 40
0.855638883
 40
0.9055795302
 40
0.9533115144
 40
0.9767101229
 40
1.0
 40
1.0
 40
1.0
 40
1.0
 10
59.6850646983
 20
47.9356415053
 30
0.0
 10
59.6806203733
 20
47.7597202083
 30
0.0
 10
59.6488714274
 20
47.3988459326
 30
0.0
 10
59.541299129
 20
46.854079406
 30
0.0
 10
59.3750831256
 20
46.300538254
 30
0.0
 10
59.1537819134
 20
45.7489788822
 30
0.0
 10
58.8819165025
 20
45.2102694876
 30
0.0
 10
58.5650197512
 20
44.6952088805
 30
0.0
 10
58.2094282722
 20
44.2141686305
 30
0.0
 10
57.8221432223
 20
43.776826835
 30
0.0
 10
57.4105674022
 20
43.3919403115
 30
0.0
 10
56.9822314664
 20
43.0672011133
 30
0.0
 10
56.5444925122
 20
42.8092256491
 30
0.0
 10
56.1043490739
 20
42.6238073918
 30
0.0
 10
55.6685251574
 20
42.5163151712
 30
0.0
 10
55.2446344646
 20
42.4921938457
 30
0.0
 10
54.9066800205
 20
42.5462763729
 30
0.0
 10
54.656880305
 20
42.6344458908
 30
0.0
 10
54.5394734409
 20
42.6928353114
 30
0.0
 10
54.4830010591
 20
42.7254389187
 30
0.0
  0
SPLINE
  5
260
100
AcDbEntity
  8
0
100
AcDbSpline
 62
7
  6
BYLAYER
 70
0
 71
3
 72
15
 73
11
 74
0
 42
0.0000001
 43
0.0000001
 44
0.0000000001
 40
0.0
 40
0.0
 40
0.0
 40
0.0
 40
0.1129472996
 40
0.2270742955
 40
0.3438327336
 40
0.4642989409
 40
0.5894878053
 40
0.7202016546
 40
0.8570257782
 40
1.0
 40
1.0
 40
1.0
 40
1.0
 10
58.7329289492
 20
50.0866964831
 30
0.0
 10
58.8100371621
 20
50.0421790427
 30
0.0
 10
58.9577552382
 20
49.9393122698
 30
0.0
 10
59.1522126906
 20
49.748871708
 30
0.0
 10
59.3178973934
 20
49.5255744441
 30
0.0
 10
59.4534264695
 20
49.2730390106
 30
0.0
 10
59.5584252595
 20
48.9947265629
 30
0.0
 10
59.6329413214
 20
48.6935727752
 30
0.0
 10
59.6771002133
 20
48.3724686113
 30
0.0
 10
59.686380353
 20
48.1517509399
 30
0.0
 10
59.686380353
 20
48.0390443164
 30
0.0
  0
SPLINE
  5
261
100
AcDbEntity
  8
0
100
AcDbSpline
 62
7
  6
BYLAYER
 70
0
 71
3
 72
15
 73
11
 74
0
 42
0.0000001
 43
0.0000001
 44
0.0000000001
 40
0.0
 40
0.0
 40
0.0
 40
0.0
 40
0.1485636976
 40
0.2895073798
 40
0.4227261637
 40
0.5486370963
 40
0.6679995554
 40
0.7819364481
 40
0.8919850572
 40
1.0
 40
1.0
 40
1.0
 40
1.0
 10
53.425971241
 20
51.713286369
 30
0.0
 10
53.5218088986
 20
51.7686179362
 30
0.0
 10
53.713165148
 20
51.8687769326
 30
0.0
 10
54.0050340932
 20
51.988262568
 30
0.0
 10
54.2917268188
 20
52.0718397
 30
0.0
 10
54.5704927398
 20
52.1185852689
 30
0.0
 10
54.83875491
 20
52.127942341
 30
0.0
 10
55.0939336795
 20
52.0994643553
 30
0.0
 10
55.3333128795
 20
52.0332869019
 30
0.0
 10
55.4812486051
 20
51.9639976311
 30
0.0
 10
55.5509313886
 20
51.9237732266
 30
0.0
  0
SPLINE
  5
262
100
AcDbEntity
  8
0
100
AcDbSpline
 62
7
  6
BYLAYER
 70
0
 71
3
 72
25
 73
21
 74
0
 42
0.0000001
 43
0.0000001
 44
0.0000000001
 40
0.0
 40
0.0
 40
0.0
 40
0.0
 40
0.0213324064
 40
0.0428933207
 40
0.0648988089
 40
0.0875441196
 40
0.1353196721
 40
0.1872207611
 40
0.2436583509
 40
0.3046060299
 40
0.3696935526
 40
0.4382906293
 40
0.5095769156
 40
0.5826010064
 40
0.6563327468
 40
0.7297088106
 40
0.8016850135
 40
0.871275656
 40
0.9376188323
 40
1.0
 40
1.0
 40
1.0
 40
1.0
 10
51.3010110934
 20
44.5625289658
 30
0.0
 10
51.248793541
 20
44.5926715612
 30
0.0
 10
51.1475726116
 20
44.6600969369
 30
0.0
 10
51.0086580147
 20
44.7805713314
 30
0.0
 10
50.8830199475
 20
44.9198883334
 30
0.0
 10
50.731560919
 20
45.1333523554
 30
0.0
 10
50.5799159605
 20
45.4470004755
 30
0.0
 10
50.4643319928
 20
45.8749306257
 30
0.0
 10
50.4128193774
 20
46.3522937433
 30
0.0
 10
50.4259798454
 20
46.8691560939
 30
0.0
 10
50.5032261061
 20
47.4148907125
 30
0.0
 10
50.6428392395
 20
47.9780826665
 30
0.0
 10
50.8418243604
 20
48.5468520708
 30
0.0
 10
51.0959423382
 20
49.1091233911
 30
0.0
 10
51.3997778488
 20
49.6529112664
 30
0.0
 10
51.7468428432
 20
50.1666255452
 30
0.0
 10
52.1297440464
 20
50.6392891461
 30
0.0
 10
52.5403632016
 20
51.0609052033
 30
0.0
 10
52.9699392028
 20
51.4224072453
 30
0.0
 10
53.2732807458
 20
51.6251309967
 30
0.0
 10
53.425971241
 20
51.713286369
 30
0.0
  0
SPLINE
  5
263
100
AcDbEntity
  8
0
100
AcDbSpline
 62
7
  6
BYLAYER
 70
0
 71
3
 72
17
 73
13
 74
0
 42
0.0000001
 43
0.0000001
 44
0.0000000001
 40
0.0
 40
0.0
 40
0.0
 40
0.0
 40
0.0558472557
 40
0.1142235933
 40
0.2373689114
 40
0.3669971429
 40
0.4999983984
 40
0.6329998769
 40
0.7626287597
 40
0.8857751038
 40
0.9441520659
 40
1.0
 40
1.0
 40
1.0
 40
1.0
 10
56.6079650041
 20
49.8762029737
 30
0.0
 10
56.5072995398
 20
49.8180840877
 30
0.0
 10
56.3064970157
 20
49.6902168015
 30
0.0
 10
55.9111439677
 20
49.3933100012
 30
0.0
 10
55.436681271
 20
48.9493826187
 30
0.0
 10
54.9215283325
 20
48.3311565277
 30
0.0
 10
54.4695064884
 20
47.6407417962
 30
0.0
 10
54.0976037197
 20
46.9040690057
 30
0.0
 10
53.8197824648
 20
46.1488155856
 30
0.0
 10
53.6725619469
 20
45.5159501648
 30
0.0
 10
53.6131092136
 20
45.0251061641
 30
0.0
 10
53.602773696
 20
44.7872697512
 30
0.0
 10
53.602773696
 20
44.6710300469
 30
0.0
  0
SPLINE
  5
264
100
AcDbEntity
  8
0
100
AcDbSpline
 62
7
  6
BYLAYER
 70
0
 71
3
 72
15
 73
11
 74
0
 42
0.0000001
 43
0.0000001
 44
0.0000000001
 40
0.0
 40
0.0
 40
0.0
 40
0.0
 40
0.1485730788
 40
0.2895094781
 40
0.4227258942
 40
0.5486397716
 40
0.6680015705
 40
0.7819391103
 40
0.8919871696
 40
1.0
 40
1.0
 40
1.0
 40
1.0
 10
53.602773696
 20
44.6710300469
 30
0.0
 10
53.602773696
 20
44.5603549483
 30
0.0
 10
53.6117065719
 20
44.3445453664
 30
0.0
 10
53.6541730488
 20
44.0320251039
 30
0.0
 10
53.7251387854
 20
43.7419464052
 30
0.0
 10
53.8240400854
 20
43.4771428391
 30
0.0
 10
53.9500795378
 20
43.2401348574
 30
0.0
 10
54.1023304501
 20
43.0333677152
 30
0.0
 10
54.2793530887
 20
42.8591597755
 30
0.0
 10
54.4133194388
 20
42.7656687065
 30
0.0
 10
54.4830010591
 20
42.7254389187
 30
0.0
  0
SPLINE
  5
265
100
AcDbEntity
  8
0
100
AcDbSpline
 62
7
  6
BYLAYER
 70
0
 71
3
 72
23
 73
19
 74
0
 42
0.0000001
 43
0.0000001
 44
0.0000000001
 40
0.0
 40
0.0
 40
0.0
 40
0.0
 40
0.0742870986
 40
0.1447561664
 40
0.2113648501
 40
0.2743220751
 40
0.3340032729
 40
0.3909722664
 40
0.4459964509
 40
0.5000029171
 40
0.5540092483
 40
0.6090330408
 40
0.6660014192
 40
0.7256818268
 40
0.7886381393
 40
0.8552458389
 40
0.9257138968
 40
1.0
 40
1.0
 40
1.0
 40
1.0
 10
59.6131577843
 20
47.9369841277
 30
0.0
 10
59.6131577843
 20
48.0411475544
 30
0.0
 10
59.6047501178
 20
48.2442602396
 30
0.0
 10
59.5647828934
 20
48.5383935432
 30
0.0
 10
59.4979923749
 20
48.8114056055
 30
0.0
 10
59.4049121657
 20
49.0606283885
 30
0.0
 10
59.2862866522
 20
49.2836940947
 30
0.0
 10
59.1430089747
 20
49.4782890908
 30
0.0
 10
58.9763591555
 20
49.6422757506
 30
0.0
 10
58.7879923522
 20
49.7737568325
 30
0.0
 10
58.5799459153
 20
49.8711516944
 30
0.0
 10
58.3546073617
 20
49.9334861595
 30
0.0
 10
58.1144473278
 20
49.9602753555
 30
0.0
 10
57.8619570713
 20
49.9514795097
 30
0.0
 10
57.5995868263
 20
49.9074819281
 30
0.0
 10
57.3297593399
 20
49.8288218311
 30
0.0
 10
57.0550519742
 20
49.7163711032
 30
0.0
 10
56.874949535
 20
49.6220979631
 30
0.0
 10
56.7847424354
 20
49.5700171808
 30
0.0
  0
SPLINE
  5
266
100
AcDbEntity
  8
0
100
AcDbSpline
 62
7
  6
BYLAYER
 70
0
 71
3
 72
33
 73
29
 74
0
 42
0.0000001
 43
0.0000001
 44
0.0000000001
 40
0.0
 40
0.0
 40
0.0
 40
0.0
 40
0.0309889717
 40
0.0603884838
 40
0.0881766338
 40
0.114440414
 40
0.1393382112
 40
0.1631042252
 40
0.1860590905
 40
0.2085896602
 40
0.2311201884
 40
0.2540753357
 40
0.2778417975
 40
0.3027383713
 40
0.329004008
 40
0.3567925973
 40
0.3861811728
 40
0.4171784982
 40
0.4497334654
 40
0.4837479563
 40
0.5555217489
 40
0.6310709676
 40
0.7085872174
 40
0.7861029186
 40
0.8616533215
 40
0.9334264063
 40
0.9674519261
 40
1.0
 40
1.0
 40
1.0
 40
1.0
 10
53.9563270866
 20
44.6710308968
 30
0.0
 10
53.9563270866
 20
44.5668738456
 30
0.0
 10
53.9647389037
 20
44.3637630457
 30
0.0
 10
54.0046982063
 20
44.0696285212
 30
0.0
 10
54.0714910442
 20
43.7966115358
 30
0.0
 10
54.1645735084
 20
43.5473894843
 30
0.0
 10
54.2831932144
 20
43.3243218601
 30
0.0
 10
54.4264778288
 20
43.1297325865
 30
0.0
 10
54.593117222
 20
42.9657335946
 30
0.0
 10
54.7814966881
 20
42.8342656278
 30
0.0
 10
54.9895414215
 20
42.7368619823
 30
0.0
 10
55.2148848341
 20
42.674520012
 30
0.0
 10
55.4550477527
 20
42.6477566886
 30
0.0
 10
55.7075437329
 20
42.6565213999
 30
0.0
 10
55.9699199453
 20
42.7005502082
 30
0.0
 10
56.2397205237
 20
42.7792065319
 30
0.0
 10
56.5144546772
 20
42.8916346493
 30
0.0
 10
56.7915612008
 20
43.0367266523
 30
0.0
 10
57.0684953686
 20
43.2130372894
 30
0.0
 10
57.4405865997
 20
43.4925264928
 30
0.0
 10
57.8871313845
 20
43.9102867117
 30
0.0
 10
58.37197679
 20
44.4921625622
 30
0.0
 10
58.7974017912
 20
45.1419592396
 30
0.0
 10
59.1474305083
 20
45.8352940776
 30
0.0
 10
59.4089084958
 20
46.5461188067
 30
0.0
 10
59.5474787967
 20
47.1417630289
 30
0.0
 10
59.6034253102
 20
47.6037388464
 30
0.0
 10
59.6131577843
 20
47.8275867773
 30
0.0
 10
59.6131577843
 20
47.9369841277
 30
0.0
  0
SPLINE
  5
267
100
AcDbEntity
  8
0
100
AcDbSpline
 62
7
  6
BYLAYER
 70
0
 71
3
 72
15
 73
11
 74
0
 42
0.0000001
 43
0.0000001
 44
0.0000000001
 40
0.0
 40
0.0
 40
0.0
 40
0.0
 40
0.1141581814
 40
0.2373247482
 40
0.3669749128
 40
0.4999983967
 40
0.6330221035
 40
0.7626729195
 40
0.8858405125
 40
1.0
 40
1.0
 40
1.0
 40
1.0
 10
56.7847424354
 20
49.5700171808
 30
0.0
 10
56.5911081288
 20
49.458223029
 30
0.0
 10
56.2086574285
 20
49.1901321667
 30
0.0
 10
55.6824372444
 20
48.697791167
 30
0.0
 10
55.1974852853
 20
48.1158324087
 30
0.0
 10
54.7720812832
 20
47.4660504372
 30
0.0
 10
54.4220584183
 20
46.7727459296
 30
0.0
 10
54.160545002
 20
46.061781283
 30
0.0
 10
53.9972757395
 20
45.3598846719
 30
0.0
 10
53.9563270866
 20
44.8946227594
 30
0.0
 10
53.9563270866
 20
44.6710308968
 30
0.0
  0
SPLINE
  5
268
100
AcDbEntity
  8
0
100
AcDbSpline
 62
7
  6
BYLAYER
 70
0
 71
3
 72
15
 73
11
 74
0
 42
0.0000001
 43
0.0000001
 44
0.0000000001
 40
0.0
 40
0.0
 40
0.0
 40
0.0
 40
0.1080135834
 40
0.2180622801
 40
0.3320002473
 40
0.4513622059
 40
0.5772759524
 40
0.7104919664
 40
0.8514277313
 40
1.0
 40
1.0
 40
1.0
 40
1.0
 10
58.7329289492
 20
50.086696483
 30
0.0
 10
58.6632496098
 20
50.126924954
 30
0.0
 10
58.5153046255
 20
50.1961928818
 30
0.0
 10
58.2759323005
 20
50.2623899886
 30
0.0
 10
58.0207503247
 20
50.2908567814
 30
0.0
 10
57.752486044
 20
50.281505566
 30
0.0
 10
57.4737201977
 20
50.2347564156
 30
0.0
 10
57.1870339992
 20
50.1511789048
 30
0.0
 10
56.89516296
 20
50.0317015463
 30
0.0
 10
56.703808266
 20
49.9315377764
 30
0.0
 10
56.6079650041
 20
49.8762029737
 30
0.0
  0
SPLINE
  5
269
100
AcDbEntity
  8
0
100
AcDbSpline
 62
7
  6
BYLAYER
 70
0
 71
3
 72
9
 73
5
 74
0
 42
0.0000001
 43
0.0000001
 44
0.0000000001
 40
0.0
 40
0.0
 40
0.0
 40
0.0
 40
0.5050116959
 40
1.0
 40
1.0
 40
1.0
 40
1.0
 10
16.3594185181
 20
66.2145823654
 30
0.0
 10
15.1305508896
 20
64.7326842866
 30
0.0
 10
12.9846693074
 20
61.5466984766
 30
0.0
 10
11.540515802
 20
57.9824981832
 30
0.0
 10
11.0331417038
 20
56.1650682905
 30
0.0
  0
SPLINE
  5
26A
100
AcDbEntity
  8
0
100
AcDbSpline
 62
7
  6
BYLAYER
 70
0
 71
3
 72
12
 73
8
 74
0
 42
0.0000001
 43
0.0000001
 44
0.0000000001
 40
0.0
 40
0.0
 40
0.0
 40
0.0
 40
0.2438739553
 40
0.4921490368
 40
0.7447324753
 40
0.8722829306
 40
1.0
 40
1.0
 40
1.0
 40
1.0
 10
28.3857230444
 20
38.2281464563
 30
0.0
 10
27.7788441366
 20
38.210551492
 30
0.0
 10
26.5527555523
 20
38.2113826786
 30
0.0
 10
24.7011156392
 20
38.3247102723
 30
0.0
 10
23.1475694884
 20
38.5206508667
 30
0.0
 10
21.9036872559
 20
38.7484914622
 30
0.0
 10
21.2837111722
 20
38.889339094
 30
0.0
 10
20.9755021461
 20
38.9674651204
 30
0.0
  0
SPLINE
  5
26B
100
AcDbEntity
  8
0
100
AcDbSpline
 62
7
  6
BYLAYER
 70
0
 71
3
 72
12
 73
8
 74
0
 42
0.0000001
 43
0.0000001
 44
0.0000000001
 40
0.0
 40
0.0
 40
0.0
 40
0.0
 40
0.1163629476
 40
0.2352176511
 40
0.480663636
 40
0.7362762212
 40
1.0
 40
1.0
 40
1.0
 40
1.0
 10
39.7859628676
 20
76.833372193
 30
0.0
 10
39.3670611363
 20
76.8476355016
 30
0.0
 10
38.5183456551
 20
76.8338625514
 30
0.0
 10
36.7950734123
 20
76.6481753523
 30
0.0
 10
34.6128934486
 20
76.1327964346
 30
0.0
 10
32.0312931825
 20
75.1565946446
 30
0.0
 10
30.3510448692
 20
74.3290699357
 30
0.0
 10
29.5125481671
 20
73.8826191939
 30
0.0
  0
SPLINE
  5
26C
100
AcDbEntity
  8
0
100
AcDbSpline
 62
7
  6
BYLAYER
 70
0
 71
3
 72
16
 73
12
 74
0
 42
0.0000001
 43
0.0000001
 44
0.0000000001
 40
0.0
 40
0.0
 40
0.0
 40
0.0
 40
0.1232765302
 40
0.2488845771
 40
0.3764595659
 40
0.5045414565
 40
0.6314065371
 40
0.7559944783
 40
0.8784541782
 40
0.9392800502
 40
1.0
 40
1.0
 40
1.0
 40
1.0
 10
10.244038869
 20
52.0105070366
 30
0.0
 10
10.244038869
 20
51.3144683484
 30
0.0
 10
10.3776393533
 20
49.906785783
 30
0.0
 10
10.927130068
 20
47.8451262139
 30
0.0
 10
11.7890257506
 20
45.864060663
 30
0.0
 10
12.9284090331
 20
44.0206787041
 30
0.0
 10
14.3118547098
 20
42.3736505967
 30
0.0
 10
15.9104261759
 20
40.9808615365
 30
0.0
 10
17.4092385903
 20
40.0782937892
 30
0.0
 10
18.6840859399
 20
39.5506932537
 30
0.0
 10
19.344005988
 20
39.3563578842
 30
0.0
 10
19.6778013802
 20
39.2781526667
 30
0.0
  0
SPLINE
  5
26D
100
AcDbEntity
  8
0
100
AcDbSpline
 62
7
  6
BYLAYER
 70
0
 71
3
 72
9
 73
5
 74
0
 42
0.0000001
 43
0.0000001
 44
0.0000000001
 40
0.0
 40
0.0
 40
0.0
 40
0.0
 40
0.4989805266
 40
1.0
 40
1.0
 40
1.0
 40
1.0
 10
10.6571980622
 20
54.8989558504
 30
0.0
 10
10.5166116576
 20
54.4330809638
 30
0.0
 10
10.3089445585
 20
53.4757011755
 30
0.0
 10
10.244038869
 20
52.4991205543
 30
0.0
 10
10.244038869
 20
52.0105070366
 30
0.0
  0
SPLINE
  5
26E
100
AcDbEntity
  8
0
100
AcDbSpline
 62
7
  6
BYLAYER
 70
0
 71
3
 72
11
 73
7
 74
0
 42
0.0000001
 43
0.0000001
 44
0.0000000001
 40
0.0
 40
0.0
 40
0.0
 40
0.0
 40
0.2606908988
 40
0.5152403701
 40
0.7619037587
 40
1.0
 40
1.0
 40
1.0
 40
1.0
 10
36.8900844926
 20
41.119922907
 30
0.0
 10
36.1969638362
 20
40.750876457
 30
0.0
 10
34.8073889913
 20
40.0570893401
 30
0.0
 10
32.6806300547
 20
39.1870784342
 30
0.0
 10
30.5436315755
 20
38.5465845848
 30
0.0
 10
29.0995548667
 20
38.2977487686
 30
0.0
 10
28.3857545443
 20
38.2281320755
 30
0.0
  0
SPLINE
  5
26F
100
AcDbEntity
  8
0
100
AcDbSpline
 62
7
  6
BYLAYER
 70
0
 71
3
 72
11
 73
7
 74
0
 42
0.0000001
 43
0.0000001
 44
0.0000000001
 40
0.0
 40
0.0
 40
0.0
 40
0.0
 40
0.2996076212
 40
0.56433989
 40
0.7953210326
 40
1.0
 40
1.0
 40
1.0
 40
1.0
 10
46.1072719608
 20
50.4273047327
 30
0.0
 10
46.1072719608
 20
50.3139127524
 30
0.0
 10
46.1201481851
 20
50.0999112892
 30
0.0
 10
46.185820965
 20
49.8044850622
 30
0.0
 10
46.2967035161
 20
49.5611074414
 30
0.0
 10
46.4059542088
 20
49.4333595004
 30
0.0
 10
46.4659536135
 20
49.3843613411
 30
0.0
  0
SPLINE
  5
270
100
AcDbEntity
  8
0
100
AcDbSpline
 62
7
  6
BYLAYER
 70
0
 71
3
 72
13
 73
9
 74
0
 42
0.0000001
 43
0.0000001
 44
0.0000000001
 40
0.0
 40
0.0
 40
0.0
 40
0.0
 40
0.2370084658
 40
0.3668156984
 40
0.5000011073
 40
0.6331863631
 40
0.7629931478
 40
1.0
 40
1.0
 40
1.0
 40
1.0
 10
19.3077893994
 20
45.3076970366
 30
0.0
 10
19.3066723163
 20
45.8999866208
 30
0.0
 10
19.1447040011
 20
46.8188300334
 30
0.0
 10
18.7129114622
 20
47.9922500344
 30
0.0
 10
18.2657083562
 20
48.8782960258
 30
0.0
 10
17.7219682281
 20
49.7086048298
 30
0.0
 10
16.9216512962
 20
50.6692493314
 30
0.0
 10
16.2068941305
 20
51.2689330935
 30
0.0
 10
15.6945148847
 20
51.5660373364
 30
0.0
  0
SPLINE
  5
271
100
AcDbEntity
  8
0
100
AcDbSpline
 62
7
  6
BYLAYER
 70
0
 71
3
 72
23
 73
19
 74
0
 42
0.0000001
 43
0.0000001
 44
0.0000000001
 40
0.0
 40
0.0
 40
0.0
 40
0.0
 40
0.0742384769
 40
0.1447458129
 40
0.211370057
 40
0.2743195177
 40
0.3339949033
 40
0.3909666903
 40
0.4459910097
 40
0.4999980439
 40
0.5540051687
 40
0.6090297521
 40
0.6660019531
 40
0.7256778714
 40
0.7886279468
 40
0.8552528413
 40
0.9257608295
 40
1.0
 40
1.0
 40
1.0
 40
1.0
 10
15.6945148847
 20
51.5660373364
 30
0.0
 10
15.5792255629
 20
51.6323079131
 30
0.0
 10
15.3491214223
 20
51.752599611
 30
0.0
 10
14.9983515093
 20
51.8966901463
 30
0.0
 10
14.6535638476
 20
51.9972287521
 30
0.0
 10
14.3183680334
 20
52.0533551439
 30
0.0
 10
13.9958376719
 20
52.0644930706
 30
0.0
 10
13.6890294029
 20
52.0303781707
 30
0.0
 10
13.4011669909
 20
51.950697808
 30
0.0
 10
13.1353796668
 20
51.8263018189
 30
0.0
 10
12.8947597407
 20
51.6583149517
 30
0.0
 10
12.681827334
 20
51.4488529568
 30
0.0
 10
12.4988829456
 20
51.2002009646
 30
0.0
 10
12.3472677216
 20
50.9153071225
 30
0.0
 10
12.2282810222
 20
50.596950811
 30
0.0
 10
12.1429603002
 20
50.2480821286
 30
0.0
 10
12.0923651337
 20
49.872257113
 30
0.0
 10
12.0814914765
 20
49.6128326925
 30
0.0
 10
12.0812403699
 20
49.4798526773
 30
0.0
  0
SPLINE
  5
272
100
AcDbEntity
  8
0
100
AcDbSpline
 62
7
  6
BYLAYER
 70
0
 71
3
 72
13
 73
9
 74
0
 42
0.0000001
 43
0.0000001
 44
0.0000000001
 40
0.0
 40
0.0
 40
0.0
 40
0.0
 40
0.2370084658
 40
0.3668156984
 40
0.5000011073
 40
0.6331863631
 40
0.7629931478
 40
1.0
 40
1.0
 40
1.0
 40
1.0
 10
12.0812403699
 20
49.4798526773
 30
0.0
 10
12.082357453
 20
48.8875630931
 30
0.0
 10
12.2443257682
 20
47.9687196806
 30
0.0
 10
12.6761183071
 20
46.7952996796
 30
0.0
 10
13.1233214131
 20
45.9092536881
 30
0.0
 10
13.6670615412
 20
45.0789448842
 30
0.0
 10
14.4673784731
 20
44.1183003825
 30
0.0
 10
15.1821356388
 20
43.5186166205
 30
0.0
 10
15.6945148847
 20
43.2215123776
 30
0.0
  0
SPLINE
  5
273
100
AcDbEntity
  8
0
100
AcDbSpline
 62
7
  6
BYLAYER
 70
0
 71
3
 72
11
 73
7
 74
0
 42
0.0000001
 43
0.0000001
 44
0.0000000001
 40
0.0
 40
0.0
 40
0.0
 40
0.0
 40
0.2165311277
 40
0.4494826859
 40
0.7076147724
 40
1.0
 40
1.0
 40
1.0
 40
1.0
 10
46.449725588
 20
49.3858893632
 30
0.0
 10
46.397600679
 20
49.390484635
 30
0.0
 10
46.2888208358
 20
49.3948097412
 30
0.0
 10
46.117877568
 20
49.3793591982
 30
0.0
 10
45.93391009
 20
49.3305049966
 30
0.0
 10
45.8130627108
 20
49.2728773556
 30
0.0
 10
45.7518709686
 20
49.2375484976
 30
0.0
  0
SPLINE
  5
274
100
AcDbEntity
  8
0
100
AcDbSpline
 62
7
  6
BYLAYER
 70
0
 71
3
 72
22
 73
18
 74
0
 42
0.0000001
 43
0.0000001
 44
0.0000000001
 40
0.0
 40
0.0
 40
0.0
 40
0.0
 40
0.1246784726
 40
0.2496115574
 40
0.3748756749
 40
0.5005208598
 40
0.5635010243
 40
0.6265819192
 40
0.6897598641
 40
0.7530243572
 40
0.8163444113
 40
0.8479974562
 40
0.8796039556
 40
0.9110777282
 40
0.9421919945
 40
0.9723178197
 40
1.0
 40
1.0
 40
1.0
 40
1.0
 10
36.9048885395
 20
41.1284623816
 30
0.0
 10
37.3394618716
 20
41.3793623272
 30
0.0
 10
38.1927044057
 20
41.9113825216
 30
0.0
 10
39.418342302
 20
42.7930281352
 30
0.0
 10
40.5882520399
 20
43.753488369
 30
0.0
 10
41.5144936812
 20
44.6137732351
 30
0.0
 10
42.2266228761
 20
45.3344447257
 30
0.0
 10
42.7471217692
 20
45.8906127958
 30
0.0
 10
43.2541807777
 20
46.4605625915
 30
0.0
 10
43.7491373378
 20
47.0422923872
 30
0.0
 10
44.1536393712
 20
47.5342249535
 30
0.0
 10
44.4757492207
 20
47.9289210508
 30
0.0
 10
44.7178752063
 20
48.223460724
 30
0.0
 10
44.9624487811
 20
48.5131435411
 30
0.0
 10
45.2119781282
 20
48.7908016541
 30
0.0
 10
45.4679930634
 20
49.0412767239
 30
0.0
 10
45.6553832428
 20
49.1818416157
 30
0.0
 10
45.7518709686
 20
49.2375484976
 30
0.0
  0
SPLINE
  5
275
100
AcDbEntity
  8
0
100
AcDbSpline
 62
7
  6
BYLAYER
 70
0
 71
3
 72
23
 73
19
 74
0
 42
0.0000001
 43
0.0000001
 44
0.0000000001
 40
0.0
 40
0.0
 40
0.0
 40
0.0
 40
0.0742384769
 40
0.1447458129
 40
0.211370057
 40
0.2743195177
 40
0.3339949033
 40
0.3909666903
 40
0.4459910097
 40
0.4999980439
 40
0.5540051687
 40
0.6090297521
 40
0.6660019531
 40
0.7256778714
 40
0.7886279468
 40
0.8552528413
 40
0.9257608295
 40
1.0
 40
1.0
 40
1.0
 40
1.0
 10
15.6945148847
 20
43.2215123776
 30
0.0
 10
15.8098042064
 20
43.1552418009
 30
0.0
 10
16.039908347
 20
43.034950103
 30
0.0
 10
16.39067826
 20
42.8908595677
 30
0.0
 10
16.7354659217
 20
42.7903209619
 30
0.0
 10
17.0706617359
 20
42.7341945701
 30
0.0
 10
17.3931920974
 20
42.7230566433
 30
0.0
 10
17.7000003664
 20
42.7571715433
 30
0.0
 10
17.9878627784
 20
42.836851906
 30
0.0
 10
18.2536501025
 20
42.961247895
 30
0.0
 10
18.4942700286
 20
43.1292347623
 30
0.0
 10
18.7072024353
 20
43.3386967571
 30
0.0
 10
18.8901468237
 20
43.5873487494
 30
0.0
 10
19.0417620477
 20
43.8722425915
 30
0.0
 10
19.1607487471
 20
44.1905989029
 30
0.0
 10
19.2460694691
 20
44.5394675853
 30
0.0
 10
19.2966646356
 20
44.915292601
 30
0.0
 10
19.3075382928
 20
45.1747170215
 30
0.0
 10
19.3077893994
 20
45.3076970366
 30
0.0
  0
SPLINE
  5
276
100
AcDbEntity
  8
0
100
AcDbSpline
 62
7
  6
BYLAYER
 70
0
 71
3
 72
19
 73
15
 74
0
 42
0.0000001
 43
0.0000001
 44
0.0000000001
 40
0.0
 40
0.0
 40
0.0
 40
0.0
 40
0.1516422266
 40
0.2914845589
 40
0.4201365314
 40
0.4808884026
 40
0.5396583626
 40
0.5968883468
 40
0.6530895721
 40
0.7088231317
 40
0.7646743015
 40
0.8212213697
 40
0.8790094024
 40
1.0
 40
1.0
 40
1.0
 40
1.0
 10
25.5317458297
 20
44.4098607038
 30
0.0
 10
25.5317458297
 20
44.0057124469
 30
0.0
 10
25.4848853836
 20
43.2274855934
 30
0.0
 10
25.2551229886
 20
42.1272111347
 30
0.0
 10
24.9283530375
 20
41.3064980186
 30
0.0
 10
24.5906707611
 20
40.7364586795
 30
0.0
 10
24.3069990096
 20
40.3590919963
 30
0.0
 10
23.9896435975
 20
40.0260513153
 30
0.0
 10
23.6402249954
 20
39.7393151477
 30
0.0
 10
23.2607409205
 20
39.5005136856
 30
0.0
 10
22.8533263728
 20
39.3111662438
 30
0.0
 10
22.4203243396
 20
39.1721766951
 30
0.0
 10
21.8033553082
 20
39.0532803522
 30
0.0
 10
21.3220972892
 20
39.0453612075
 30
0.0
 10
21.0006484008
 20
39.0708426958
 30
0.0
  0
SPLINE
  5
277
100
AcDbEntity
  8
0
100
AcDbSpline
 62
7
  6
BYLAYER
 70
0
 71
3
 72
28
 73
24
 74
0
 42
0.0000001
 43
0.0000001
 44
0.0000000001
 40
0.0
 40
0.0
 40
0.0
 40
0.0
 40
0.0244747448
 40
0.04798103
 40
0.0707564042
 40
0.0930825494
 40
0.1152719399
 40
0.1376465238
 40
0.1605148058
 40
0.1841532596
 40
0.2345175767
 40
0.2616220245
 40
0.2900904053
 40
0.3511204613
 40
0.4173910532
 40
0.4881416923
 40
0.5622715846
 40
0.6384550149
 40
0.715240304
 40
0.7911398536
 40
0.8647196027
 40
0.9346871511
 40
1.0
 40
1.0
 40
1.0
 40
1.0
 10
11.1399806574
 20
56.1509665976
 30
0.0
 10
11.2227379873
 20
56.3246606736
 30
0.0
 10
11.4045247464
 20
56.6563978296
 30
0.0
 10
11.7325305725
 20
57.1075548601
 30
0.0
 10
12.1074253659
 20
57.4978028321
 30
0.0
 10
12.5265810721
 20
57.8236150142
 30
0.0
 10
12.9865641724
 20
58.0824067839
 30
0.0
 10
13.4836733334
 20
58.2718538822
 30
0.0
 10
14.0137912419
 20
58.3907930325
 30
0.0
 10
14.774494961
 20
58.4556978938
 30
0.0
 10
15.5731248134
 20
58.3700243861
 30
0.0
 10
16.378799717
 20
58.1564171147
 30
0.0
 10
17.2400691934
 20
57.8388378073
 30
0.0
 10
18.3289774648
 20
57.2667461604
 30
0.0
 10
19.5947240065
 20
56.352970004
 30
0.0
 10
20.8149099055
 20
55.2221172056
 30
0.0
 10
21.9550776609
 20
53.906395251
 30
0.0
 10
22.9830196126
 20
52.4431499389
 30
0.0
 10
23.8693889999
 20
50.8741336488
 30
0.0
 10
24.5888861394
 20
49.244199013
 30
0.0
 10
25.1209616737
 20
47.5996582546
 30
0.0
 10
25.4504584156
 20
45.9876273061
 30
0.0
 10
25.5317458297
 20
44.9233002573
 30
0.0
 10
25.5317458297
 20
44.4098607038
 30
0.0
  0
SPLINE
  5
278
100
AcDbEntity
  8
0
100
AcDbSpline
 62
7
  6
BYLAYER
 70
0
 71
3
 72
11
 73
7
 74
0
 42
0.0000001
 43
0.0000001
 44
0.0000000001
 40
0.0
 40
0.0
 40
0.0
 40
0.0
 40
0.2303985186
 40
0.4758734714
 40
0.733582427
 40
1.0
 40
1.0
 40
1.0
 40
1.0
 10
27.3823765245
 20
88.2070320485
 30
0.0
 10
27.3823765245
 20
87.4152207341
 30
0.0
 10
27.4941550633
 20
85.778643494
 30
0.0
 10
27.9524204493
 20
83.2949431587
 30
0.0
 10
28.696140008
 20
80.7524476181
 30
0.0
 10
29.3634125225
 20
79.0761541185
 30
0.0
 10
29.7394469681
 20
78.2413379717
 30
0.0
  0
SPLINE
  5
279
100
AcDbEntity
  8
0
100
AcDbSpline
 62
7
  6
BYLAYER
 70
0
 71
3
 72
9
 73
5
 74
0
 42
0.0000001
 43
0.0000001
 44
0.0000000001
 40
0.0
 40
0.0
 40
0.0
 40
0.0
 40
0.4814702055
 40
1.0
 40
1.0
 40
1.0
 40
1.0
 10
27.8435041429
 20
91.8969814444
 30
0.0
 10
27.6848329975
 20
91.3202702714
 30
0.0
 10
27.4514221938
 20
90.0949719698
 30
0.0
 10
27.3823765245
 20
88.8512126771
 30
0.0
 10
27.3823765245
 20
88.2070320485
 30
0.0
  0
SPLINE
  5
27A
100
AcDbEntity
  8
0
100
AcDbSpline
 62
7
  6
BYLAYER
 70
0
 71
3
 72
11
 73
7
 74
0
 42
0.0000001
 43
0.0000001
 44
0.0000000001
 40
0.0
 40
0.0
 40
0.0
 40
0.0
 40
0.2897474624
 40
0.5490810727
 40
0.782222784
 40
1.0
 40
1.0
 40
1.0
 40
1.0
 10
33.1742633377
 20
88.10424582
 30
0.0
 10
33.1742633377
 20
87.9775556564
 30
0.0
 10
33.1550856636
 20
87.7366545893
 30
0.0
 10
33.0574904147
 20
87.405673081
 30
0.0
 10
32.893233821
 20
87.1371237972
 30
0.0
 10
32.7389487719
 20
87.0073900943
 30
0.0
 10
32.6564762983
 20
86.9597933138
 30
0.0
  0
SPLINE
  5
27B
100
AcDbEntity
  8
0
100
AcDbSpline
 62
7
  6
BYLAYER
 70
0
 71
3
 72
9
 73
5
 74
0
 42
0.0000001
 43
0.0000001
 44
0.0000000001
 40
0.0
 40
0.0
 40
0.0
 40
0.0
 40
0.2521508563
 40
1.0
 40
1.0
 40
1.0
 40
1.0
 10
44.7178670819
 20
84.840602673
 30
0.0
 10
44.7567710703
 20
84.7760333143
 30
0.0
 10
44.915590503
 20
84.5227238159
 30
0.0
 10
45.0923593235
 20
84.2806089521
 30
0.0
 10
45.2341755312
 20
84.1077624637
 30
0.0
  0
SPLINE
  5
27C
100
AcDbEntity
  8
0
100
AcDbSpline
 62
7
  6
BYLAYER
 70
0
 71
3
 72
11
 73
7
 74
0
 42
0.0000001
 43
0.0000001
 44
0.0000000001
 40
0.0
 40
0.0
 40
0.0
 40
0.0
 40
0.2355281635
 40
0.4818229233
 40
0.7372765563
 40
1.0
 40
1.0
 40
1.0
 40
1.0
 10
35.0621726641
 20
93.8718229774
 30
0.0
 10
35.9308213682
 20
93.296603151
 30
0.0
 10
37.6534220798
 20
92.0361137915
 30
0.0
 10
40.1194392396
 20
89.8970181824
 30
0.0
 10
42.4995734932
 20
87.490702584
 30
0.0
 10
43.9921139442
 20
85.7482590582
 30
0.0
 10
44.7178670819
 20
84.840602673
 30
0.0
  0
SPLINE
  5
27D
100
AcDbEntity
  8
0
100
AcDbSpline
 62
7
  6
BYLAYER
 70
0
 71
3
 72
18
 73
14
 74
0
 42
0.0000001
 43
0.0000001
 44
0.0000000001
 40
0.0
 40
0.0
 40
0.0
 40
0.0
 40
0.0428466405
 40
0.0874634445
 40
0.1352822772
 40
0.1872337967
 40
0.2437238743
 40
0.3047277575
 40
0.4383596053
 40
0.5826643492
 40
0.7297858751
 40
0.871338297
 40
1.0
 40
1.0
 40
1.0
 40
1.0
 10
30.1565017515
 20
91.2899020987
 30
0.0
 10
30.2181391885
 20
91.3254744955
 30
0.0
 10
30.3539848811
 20
91.3819724492
 30
0.0
 10
30.5782565174
 20
91.4147907137
 30
0.0
 10
30.8190857847
 20
91.39711776
 30
0.0
 10
31.0711193672
 20
91.3301237855
 30
0.0
 10
31.3294439193
 20
91.2159813507
 30
0.0
 10
31.6860540942
 20
90.9977377799
 30
0.0
 10
32.1108574457
 20
90.6215020566
 30
0.0
 10
32.5474296219
 20
90.0625816112
 30
0.0
 10
32.8913415132
 20
89.4269785613
 30
0.0
 10
33.1144793912
 20
88.7672734602
 30
0.0
 10
33.1742633377
 20
88.3179454492
 30
0.0
 10
33.1742633377
 20
88.10424582
 30
0.0
  0
SPLINE
  5
27E
100
AcDbEntity
  8
0
100
AcDbSpline
 62
7
  6
BYLAYER
 70
0
 71
3
 72
14
 73
10
 74
0
 42
0.0000001
 43
0.0000001
 44
0.0000000001
 40
0.0
 40
0.0
 40
0.0
 40
0.0
 40
0.1130901454
 40
0.2345224039
 40
0.3621173997
 40
0.4934331098
 40
0.7556165659
 40
0.8813132474
 40
1.0
 40
1.0
 40
1.0
 40
1.0
 10
31.406520623
 20
91.151325637
 30
0.0
 10
31.4073238424
 20
91.0233044213
 30
0.0
 10
31.430237371
 20
90.7577265571
 30
0.0
 10
31.5183041241
 20
90.3564292022
 30
0.0
 10
31.6588135725
 20
89.9484093544
 30
0.0
 10
31.9095869412
 20
89.4136561764
 30
0.0
 10
32.2400434754
 20
88.9212216917
 30
0.0
 10
32.6335020384
 20
88.502803704
 30
0.0
 10
32.8465307992
 20
88.3247932332
 30
0.0
 10
32.9554993454
 20
88.2461910834
 30
0.0
  0
SPLINE
  5
27F
100
AcDbEntity
  8
0
100
AcDbSpline
 62
7
  6
BYLAYER
 70
0
 71
3
 72
9
 73
5
 74
0
 42
0.0000001
 43
0.0000001
 44
0.0000000001
 40
0.0
 40
0.0
 40
0.0
 40
0.0
 40
0.2553460842
 40
1.0
 40
1.0
 40
1.0
 40
1.0
 10
32.9554993454
 20
88.2461910834
 30
0.0
 10
32.9732518608
 20
88.2333856829
 30
0.0
 10
33.0433616308
 20
88.184057428
 30
0.0
 10
33.1158379754
 20
88.1380697271
 30
0.0
 10
33.1710703151
 20
88.1060671173
 30
0.0
  0
SPLINE
  5
280
100
AcDbEntity
  8
0
100
AcDbSpline
 62
7
  6
BYLAYER
 70
0
 71
3
 72
18
 73
14
 74
0
 42
0.0000001
 43
0.0000001
 44
0.0000000001
 40
0.0
 40
0.0
 40
0.0
 40
0.0
 40
0.0428466405
 40
0.0874634445
 40
0.1352822772
 40
0.1872337967
 40
0.2437238743
 40
0.3047277575
 40
0.4383596053
 40
0.5826643492
 40
0.7297858751
 40
0.871338297
 40
1.0
 40
1.0
 40
1.0
 40
1.0
 10
58.4408907573
 20
42.3001752327
 30
0.0
 10
58.5025281944
 20
42.3357476295
 30
0.0
 10
58.638373887
 20
42.3922455832
 30
0.0
 10
58.8626455232
 20
42.4250638477
 30
0.0
 10
59.1034747906
 20
42.407390894
 30
0.0
 10
59.3555083731
 20
42.3403969195
 30
0.0
 10
59.6138329252
 20
42.2262544847
 30
0.0
 10
59.9704431001
 20
42.0080109139
 30
0.0
 10
60.3952464516
 20
41.6317751906
 30
0.0
 10
60.8318186278
 20
41.0728547452
 30
0.0
 10
61.1757305191
 20
40.4372516953
 30
0.0
 10
61.398868397
 20
39.7775465942
 30
0.0
 10
61.4586523436
 20
39.3282185832
 30
0.0
 10
61.4586523436
 20
39.114518954
 30
0.0
  0
SPLINE
  5
281
100
AcDbEntity
  8
0
100
AcDbSpline
 62
7
  6
BYLAYER
 70
0
 71
3
 72
11
 73
7
 74
0
 42
0.0000001
 43
0.0000001
 44
0.0000000001
 40
0.0
 40
0.0
 40
0.0
 40
0.0
 40
0.2177789088
 40
0.4509220468
 40
0.7102586646
 40
1.0
 40
1.0
 40
1.0
 40
1.0
 10
77.3936429069
 20
36.2824290039
 30
0.0
 10
77.3936595174
 20
36.1872101113
 30
0.0
 10
77.3584461219
 20
35.9887348372
 30
0.0
 10
77.208006849
 20
35.7122187799
 30
0.0
 10
76.9701720886
 20
35.4622205217
 30
0.0
 10
76.771142664
 20
35.3251682461
 30
0.0
 10
76.6614319472
 20
35.2618271123
 30
0.0
  0
SPLINE
  5
282
100
AcDbEntity
  8
0
100
AcDbSpline
 62
7
  6
BYLAYER
 70
0
 71
3
 72
9
 73
5
 74
0
 42
0.0000001
 43
0.0000001
 44
0.0000000001
 40
0.0
 40
0.0
 40
0.0
 40
0.0
 40
0.5002303541
 40
1.0
 40
1.0
 40
1.0
 40
1.0
 10
47.6633876315
 20
78.9867502502
 30
0.0
 10
49.8551131852
 20
75.8848048971
 30
0.0
 10
53.9362925385
 20
69.4666456039
 30
0.0
 10
57.3892817564
 20
62.6897244522
 30
0.0
 10
58.9444736931
 20
59.2284321799
 30
0.0
  0
SPLINE
  5
283
100
AcDbEntity
  8
0
100
AcDbSpline
 62
7
  6
BYLAYER
 70
0
 71
3
 72
11
 73
7
 74
0
 42
0.0000001
 43
0.0000001
 44
0.0000000001
 40
0.0
 40
0.0
 40
0.0
 40
0.0
 40
0.2460800602
 40
0.4998850958
 40
0.7537685442
 40
1.0
 40
1.0
 40
1.0
 40
1.0
 10
75.9377543553
 20
35.0370101213
 30
0.0
 10
75.771135101
 20
35.0812275128
 30
0.0
 10
75.4259361793
 20
35.1469741645
 30
0.0
 10
74.8976406844
 20
35.1798061691
 30
0.0
 10
74.3691831049
 20
35.1479197356
 30
0.0
 10
74.0236979892
 20
35.0828390792
 30
0.0
 10
73.8568823643
 20
35.038949697
 30
0.0
  0
SPLINE
  5
284
100
AcDbEntity
  8
0
100
AcDbSpline
 62
7
  6
BYLAYER
 70
0
 71
3
 72
11
 73
7
 74
0
 42
0.0000001
 43
0.0000001
 44
0.0000000001
 40
0.0
 40
0.0
 40
0.0
 40
0.0
 40
0.2897474624
 40
0.5490810727
 40
0.782222784
 40
1.0
 40
1.0
 40
1.0
 40
1.0
 10
61.4586523436
 20
39.114518954
 30
0.0
 10
61.4586523436
 20
38.9878287904
 30
0.0
 10
61.4394746695
 20
38.7469277233
 30
0.0
 10
61.3418794206
 20
38.415946215
 30
0.0
 10
61.1776228268
 20
38.1473969312
 30
0.0
 10
61.0233377778
 20
38.0176632283
 30
0.0
 10
60.9408653042
 20
37.9700664478
 30
0.0
  0
SPLINE
  5
285
100
AcDbEntity
  8
0
100
AcDbSpline
 62
7
  6
BYLAYER
 70
0
 71
3
 72
9
 73
5
 74
0
 42
0.0000001
 43
0.0000001
 44
0.0000000001
 40
0.0
 40
0.0
 40
0.0
 40
0.0
 40
0.2520900206
 40
1.0
 40
1.0
 40
1.0
 40
1.0
 10
62.1596400031
 20
54.5611634624
 30
0.0
 10
62.3817886969
 20
53.9921427995
 30
0.0
 10
63.2444581327
 20
51.7277390413
 30
0.0
 10
64.0323249852
 20
49.4347605846
 30
0.0
 10
64.5763924701
 20
47.7060714284
 30
0.0
  0
SPLINE
  5
286
100
AcDbEntity
  8
0
100
AcDbSpline
 62
7
  6
BYLAYER
 70
0
 71
3
 72
12
 73
8
 74
0
 42
0.0000001
 43
0.0000001
 44
0.0000000001
 40
0.0
 40
0.0
 40
0.0
 40
0.0
 40
0.1081570369
 40
0.2184093341
 40
0.4513875157
 40
0.710440568
 40
1.0
 40
1.0
 40
1.0
 40
1.0
 10
79.5226768526
 20
32.728190089
 30
0.0
 10
79.5226608398
 20
32.6599537468
 30
0.0
 10
79.5107685859
 20
32.5218795711
 30
0.0
 10
79.4391242152
 20
32.2450830946
 30
0.0
 10
79.2549560697
 20
31.9057385466
 30
0.0
 10
78.9121205059
 20
31.5456280031
 30
0.0
 10
78.6251357746
 20
31.3479762043
 30
0.0
 10
78.4669272189
 20
31.2566349974
 30
0.0
  0
SPLINE
  5
287
100
AcDbEntity
  8
0
100
AcDbSpline
 62
7
  6
BYLAYER
 70
0
 71
3
 72
10
 73
6
 74
0
 42
0.0000001
 43
0.0000001
 44
0.0000000001
 40
0.0
 40
0.0
 40
0.0
 40
0.0
 40
0.2397565364
 40
0.4839817415
 40
1.0
 40
1.0
 40
1.0
 40
1.0
 10
65.4350238766
 20
31.0336519283
 30
0.0
 10
65.532645494
 20
30.9772773789
 30
0.0
 10
65.7398820247
 20
30.8800966352
 30
0.0
 10
66.1943369586
 20
30.7533284794
 30
0.0
 10
66.5583977807
 20
30.7422662167
 30
0.0
 10
66.7999325967
 20
30.7652339163
 30
0.0
  0
SPLINE
  5
288
100
AcDbEntity
  8
0
100
AcDbSpline
 62
7
  6
BYLAYER
 70
0
 71
3
 72
9
 73
5
 74
0
 42
0.0000001
 43
0.0000001
 44
0.0000000001
 40
0.0
 40
0.0
 40
0.0
 40
0.0
 40
0.5152175881
 40
1.0
 40
1.0
 40
1.0
 40
1.0
 10
64.5763924701
 20
47.7060714284
 30
0.0
 10
64.9594177432
 20
46.4180640718
 30
0.0
 10
65.5751559484
 20
43.8778213097
 30
0.0
 10
65.8919282404
 20
41.2810149208
 30
0.0
 10
65.9577547053
 20
40.0183557243
 30
0.0
  0
SPLINE
  5
289
100
AcDbEntity
  8
0
100
AcDbSpline
 62
7
  6
BYLAYER
 70
0
 71
3
 72
11
 73
7
 74
0
 42
0.0000001
 43
0.0000001
 44
0.0000000001
 40
0.0
 40
0.0
 40
0.0
 40
0.0
 40
0.2319930481
 40
0.4718607919
 40
0.7263802618
 40
1.0
 40
1.0
 40
1.0
 40
1.0
 10
49.330596192
 20
40.3313287293
 30
0.0
 10
49.1969321903
 20
40.4085243442
 30
0.0
 10
48.9425766054
 20
40.5980814525
 30
0.0
 10
48.6272393748
 20
40.9690452519
 30
0.0
 10
48.3804084737
 20
41.4199215295
 30
0.0
 10
48.2679084651
 20
41.754728387
 30
0.0
 10
48.2226354957
 20
41.9310593462
 30
0.0
  0
SPLINE
  5
28A
100
AcDbEntity
  8
0
100
AcDbSpline
 62
7
  6
BYLAYER
 70
0
 71
3
 72
14
 73
10
 74
0
 42
0.0000001
 43
0.0000001
 44
0.0000000001
 40
0.0
 40
0.0
 40
0.0
 40
0.0
 40
0.1130901454
 40
0.2345224039
 40
0.3621173997
 40
0.4934331098
 40
0.7556165659
 40
0.8813132474
 40
1.0
 40
1.0
 40
1.0
 40
1.0
 10
59.6909096289
 20
42.161598771
 30
0.0
 10
59.6917128483
 20
42.0335775553
 30
0.0
 10
59.7146263769
 20
41.7679996911
 30
0.0
 10
59.80269313
 20
41.3667023362
 30
0.0
 10
59.9432025784
 20
40.9586824884
 30
0.0
 10
60.193975947
 20
40.4239293104
 30
0.0
 10
60.5244324813
 20
39.9314948257
 30
0.0
 10
60.9178910443
 20
39.513076838
 30
0.0
 10
61.1309198051
 20
39.3350663672
 30
0.0
 10
61.2398883513
 20
39.2564642174
 30
0.0
  0
SPLINE
  5
28B
100
AcDbEntity
  8
0
100
AcDbSpline
 62
7
  6
BYLAYER
 70
0
 71
3
 72
9
 73
5
 74
0
 42
0.0000001
 43
0.0000001
 44
0.0000000001
 40
0.0
 40
0.0
 40
0.0
 40
0.0
 40
0.2553460842
 40
1.0
 40
1.0
 40
1.0
 40
1.0
 10
61.2398883513
 20
39.2564642174
 30
0.0
 10
61.2576408667
 20
39.2436588169
 30
0.0
 10
61.3277506367
 20
39.194330562
 30
0.0
 10
61.4002269813
 20
39.1483428611
 30
0.0
 10
61.455459321
 20
39.1163402513
 30
0.0
  0
SPLINE
  5
28C
100
AcDbEntity
  8
0
100
AcDbSpline
 62
7
  6
BYLAYER
 70
0
 71
3
 72
9
 73
5
 74
0
 42
0.0000001
 43
0.0000001
 44
0.0000000001
 40
0.0
 40
0.0
 40
0.0
 40
0.0
 40
0.237175329
 40
1.0
 40
1.0
 40
1.0
 40
1.0
 10
48.2226004703
 20
41.9310795677
 30
0.0
 10
48.1998607291
 20
42.0196472149
 30
0.0
 10
48.1177205836
 20
42.3965804273
 30
0.0
 10
48.0878795254
 20
42.7839540283
 30
0.0
 10
48.0878795254
 20
43.0780524839
 30
0.0
  0
SPLINE
  5
28D
100
AcDbEntity
  8
0
100
AcDbSpline
 62
7
  6
BYLAYER
 70
0
 71
3
 72
11
 73
7
 74
0
 42
0.0000001
 43
0.0000001
 44
0.0000000001
 40
0.0
 40
0.0
 40
0.0
 40
0.0
 40
0.2211948933
 40
0.4572702807
 40
0.7157200424
 40
1.0
 40
1.0
 40
1.0
 40
1.0
 10
66.5686443535
 20
33.6293592622
 30
0.0
 10
66.4886290671
 20
33.6864631498
 30
0.0
 10
66.3402230765
 20
33.8298863928
 30
0.0
 10
66.1764093952
 20
34.1060840542
 30
0.0
 10
66.0698933612
 20
34.4378720932
 30
0.0
 10
66.0391782974
 20
34.6784014491
 30
0.0
 10
66.0323502005
 20
34.8045547628
 30
0.0
  0
SPLINE
  5
28E
100
AcDbEntity
  8
0
100
AcDbSpline
 62
7
  6
BYLAYER
 70
0
 71
3
 72
14
 73
10
 74
0
 42
0.0000001
 43
0.0000001
 44
0.0000000001
 40
0.0
 40
0.0
 40
0.0
 40
0.0
 40
0.1080656678
 40
0.2181647802
 40
0.3321478948
 40
0.4515515662
 40
0.5774990791
 40
0.7107509601
 40
1.0
 40
1.0
 40
1.0
 40
1.0
 10
30.8485336705
 20
94.2875563898
 30
0.0
 10
30.9867203716
 20
94.3673222384
 30
0.0
 10
31.2800713751
 20
94.5047489071
 30
0.0
 10
31.754735414
 20
94.6360734041
 30
0.0
 10
32.2607230634
 20
94.692683152
 30
0.0
 10
32.7926307876
 20
94.6743248062
 30
0.0
 10
33.3454348027
 20
94.5818670977
 30
0.0
 10
34.1242612434
 20
94.355150701
 30
0.0
 10
34.6922140876
 20
94.0851730323
 30
0.0
 10
35.0621726641
 20
93.8718229774
 30
0.0
  0
SPLINE
  5
28F
100
AcDbEntity
  8
0
100
AcDbSpline
 62
7
  6
BYLAYER
 70
0
 71
3
 72
11
 73
7
 74
0
 42
0.0000001
 43
0.0000001
 44
0.0000000001
 40
0.0
 40
0.0
 40
0.0
 40
0.0
 40
0.2404133859
 40
0.4848616547
 40
0.7371061328
 40
1.0
 40
1.0
 40
1.0
 40
1.0
 10
29.0807740775
 20
93.2669460051
 30
0.0
 10
28.9508614736
 20
93.1919562339
 30
0.0
 10
28.7006143293
 20
93.0192797115
 30
0.0
 10
28.3666775405
 20
92.7004892309
 30
0.0
 10
28.0758501397
 20
92.3242226483
 30
0.0
 10
27.9158809231
 20
92.0441788429
 30
0.0
 10
27.8435041429
 20
91.8969814444
 30
0.0
  0
SPLINE
  5
290
100
AcDbEntity
  8
0
100
AcDbSpline
 62
7
  6
BYLAYER
 70
0
 71
3
 72
9
 73
5
 74
0
 42
0.0000001
 43
0.0000001
 44
0.0000000001
 40
0.0
 40
0.0
 40
0.0
 40
0.0
 40
0.4719631811
 40
1.0
 40
1.0
 40
1.0
 40
1.0
 10
66.7956899383
 20
30.7676833609
 30
0.0
 10
67.0681817728
 20
30.7935947831
 30
0.0
 10
67.6386452715
 20
30.9294406187
 30
0.0
 10
68.1655054652
 20
31.1801288057
 30
0.0
 10
68.430718906
 20
31.3332489432
 30
0.0
  0
SPLINE
  5
291
100
AcDbEntity
  8
0
100
AcDbSpline
 62
7
  6
BYLAYER
 70
0
 71
3
 72
12
 73
8
 74
0
 42
0.0000001
 43
0.0000001
 44
0.0000000001
 40
0.0
 40
0.0
 40
0.0
 40
0.0
 40
0.1116139048
 40
0.2257087633
 40
0.4642101151
 40
0.7212924484
 40
1.0
 40
1.0
 40
1.0
 40
1.0
 10
79.5206223454
 20
35.3554804355
 30
0.0
 10
79.4764988282
 20
35.6252649468
 30
0.0
 10
79.3540799854
 20
36.1659487244
 30
0.0
 10
78.9761780277
 20
37.2404567253
 30
0.0
 10
78.2464020556
 20
38.5569844359
 30
0.0
 10
77.0212806218
 20
40.016478724
 30
0.0
 10
76.0214569668
 20
40.8753930282
 30
0.0
 10
75.4752456643
 20
41.2848127279
 30
0.0
  0
SPLINE
  5
292
100
AcDbEntity
  8
0
100
AcDbSpline
 62
7
  6
BYLAYER
 70
0
 71
3
 72
18
 73
14
 74
0
 42
0.0000001
 43
0.0000001
 44
0.0000000001
 40
0.0
 40
0.0
 40
0.0
 40
0.0
 40
0.1286602033
 40
0.2702078384
 40
0.4173251267
 40
0.5616310017
 40
0.6952666481
 40
0.756272316
 40
0.8127629495
 40
0.8647150963
 40
0.9125344821
 40
0.9571518912
 40
1.0
 40
1.0
 40
1.0
 40
1.0
 10
76.6614319472
 20
35.2618271123
 30
0.0
 10
76.4763645966
 20
35.1549790654
 30
0.0
 10
76.0573528599
 20
34.9820943808
 30
0.0
 10
75.3744809663
 20
34.8454852792
 30
0.0
 10
74.6520910162
 20
34.8255115209
 30
0.0
 10
73.9497619601
 20
34.9241186013
 30
0.0
 10
73.4115193437
 20
35.1038889127
 30
0.0
 10
73.0441919012
 20
35.3035893541
 30
0.0
 10
72.8161747548
 20
35.4702354708
 30
0.0
 10
72.6321284872
 20
35.654998473
 30
0.0
 10
72.496401584
 20
35.8547258695
 30
0.0
 10
72.4126849931
 20
36.0653632153
 30
0.0
 10
72.3936847766
 20
36.2112607992
 30
0.0
 10
72.3936723617
 20
36.2824289933
 30
0.0
  0
SPLINE
  5
293
100
AcDbEntity
  8
0
100
AcDbSpline
 62
7
  6
BYLAYER
 70
0
 71
3
 72
9
 73
5
 74
0
 42
0.0000001
 43
0.0000001
 44
0.0000000001
 40
0.0
 40
0.0
 40
0.0
 40
0.0
 40
0.5082166084
 40
1.0
 40
1.0
 40
1.0
 40
1.0
 10
74.8605808123
 20
30.7386574097
 30
0.0
 10
73.9055902686
 20
30.8395365056
 30
0.0
 10
72.0341036812
 20
31.1197363261
 30
0.0
 10
70.1958236221
 20
31.5711415709
 30
0.0
 10
69.3058671541
 20
31.8385130038
 30
0.0
  0
SPLINE
  5
294
100
AcDbEntity
  8
0
100
AcDbSpline
 62
7
  6
BYLAYER
 70
0
 71
3
 72
11
 73
7
 74
0
 42
0.0000001
 43
0.0000001
 44
0.0000000001
 40
0.0
 40
0.0
 40
0.0
 40
0.0
 40
0.2282024904
 40
0.4783828009
 40
0.7398083727
 40
1.0
 40
1.0
 40
1.0
 40
1.0
 10
78.4669272189
 20
31.2566349974
 30
0.0
 10
78.2226911849
 20
31.1156260991
 30
0.0
 10
77.6739713414
 20
30.8822996996
 30
0.0
 10
76.7779794405
 20
30.6817831331
 30
0.0
 10
75.8222673702
 20
30.6229932642
 30
0.0
 10
75.1772021515
 20
30.6825619289
 30
0.0
 10
74.8605808123
 20
30.7386574097
 30
0.0
  0
SPLINE
  5
295
100
AcDbEntity
  8
0
100
AcDbSpline
 62
7
  6
BYLAYER
 70
0
 71
3
 72
18
 73
14
 74
0
 42
0.0000001
 43
0.0000001
 44
0.0000000001
 40
0.0
 40
0.0
 40
0.0
 40
0.0
 40
0.0428466405
 40
0.0874634445
 40
0.1352822772
 40
0.1872337967
 40
0.2437238743
 40
0.3047277575
 40
0.4383596053
 40
0.5826643492
 40
0.7297858751
 40
0.871338297
 40
1.0
 40
1.0
 40
1.0
 40
1.0
 10
32.6564762983
 20
86.9597933138
 30
0.0
 10
32.5948388613
 20
86.924220917
 30
0.0
 10
32.4589931686
 20
86.8677229633
 30
0.0
 10
32.2347215324
 20
86.8349046988
 30
0.0
 10
31.993892265
 20
86.8525776525
 30
0.0
 10
31.7418586826
 20
86.919571627
 30
0.0
 10
31.4835341304
 20
87.0337140618
 30
0.0
 10
31.1269239556
 20
87.2519576326
 30
0.0
 10
30.7021206041
 20
87.6281933559
 30
0.0
 10
30.2655484278
 20
88.1871138013
 30
0.0
 10
29.9216365365
 20
88.8227168512
 30
0.0
 10
29.6984986586
 20
89.4824219523
 30
0.0
 10
29.638714712
 20
89.9317499634
 30
0.0
 10
29.638714712
 20
90.1454495926
 30
0.0
  0
SPLINE
  5
296
100
AcDbEntity
  8
0
100
AcDbSpline
 62
7
  6
BYLAYER
 70
0
 71
3
 72
11
 73
7
 74
0
 42
0.0000001
 43
0.0000001
 44
0.0000000001
 40
0.0
 40
0.0
 40
0.0
 40
0.0
 40
0.2177789088
 40
0.4509220468
 40
0.7102586646
 40
1.0
 40
1.0
 40
1.0
 40
1.0
 10
72.3936723617
 20
36.2824289933
 30
0.0
 10
72.3936557513
 20
36.3776478859
 30
0.0
 10
72.4288691468
 20
36.57612316
 30
0.0
 10
72.5793084196
 20
36.8526392173
 30
0.0
 10
72.81714318
 20
37.1026374755
 30
0.0
 10
73.0161726047
 20
37.2396897511
 30
0.0
 10
73.1258833214
 20
37.3030308849
 30
0.0
  0
SPLINE
  5
297
100
AcDbEntity
  8
0
100
AcDbSpline
 62
7
  6
BYLAYER
 70
0
 71
3
 72
14
 73
10
 74
0
 42
0.0000001
 43
0.0000001
 44
0.0000000001
 40
0.0
 40
0.0
 40
0.0
 40
0.0
 40
0.2892490399
 40
0.4225009209
 40
0.5484484338
 40
0.6678521052
 40
0.7818352198
 40
0.8919343322
 40
1.0
 40
1.0
 40
1.0
 40
1.0
 10
33.2944130711
 20
92.8512125927
 30
0.0
 10
32.9244544946
 20
93.0645626476
 30
0.0
 10
32.3565016504
 20
93.3345403163
 30
0.0
 10
31.5776752097
 20
93.561256713
 30
0.0
 10
31.0248711946
 20
93.6537144215
 30
0.0
 10
30.4929634704
 20
93.6720727673
 30
0.0
 10
29.986975821
 20
93.6154630195
 30
0.0
 10
29.5123117821
 20
93.4841385224
 30
0.0
 10
29.2189607786
 20
93.3467118537
 30
0.0
 10
29.0807740775
 20
93.2669460051
 30
0.0
  0
SPLINE
  5
298
100
AcDbEntity
  8
0
100
AcDbSpline
 62
7
  6
BYLAYER
 70
0
 71
3
 72
11
 73
7
 74
0
 42
0.0000001
 43
0.0000001
 44
0.0000000001
 40
0.0
 40
0.0
 40
0.0
 40
0.0
 40
0.2627234437
 40
0.5181770767
 40
0.7644718365
 40
1.0
 40
1.0
 40
1.0
 40
1.0
 10
42.9501074889
 20
83.8199922884
 30
0.0
 10
42.2243543512
 20
84.7276486736
 30
0.0
 10
40.7318139002
 20
86.4700921993
 30
0.0
 10
38.3516796465
 20
88.8764077977
 30
0.0
 10
35.8856624868
 20
91.0155034068
 30
0.0
 10
34.1630617751
 20
92.2759927663
 30
0.0
 10
33.2944130711
 20
92.8512125927
 30
0.0
  0
SPLINE
  5
299
100
AcDbEntity
  8
0
100
AcDbSpline
 62
7
  6
BYLAYER
 70
0
 71
3
 72
9
 73
5
 74
0
 42
0.0000001
 43
0.0000001
 44
0.0000000001
 40
0.0
 40
0.0
 40
0.0
 40
0.0
 40
0.5221771085
 40
1.0
 40
1.0
 40
1.0
 40
1.0
 10
64.1899951123
 20
33.7817020268
 30
0.0
 10
64.1899951123
 20
33.533788065
 30
0.0
 10
64.2209159532
 20
33.0582119014
 30
0.0
 10
64.3280554149
 20
32.592678029
 30
0.0
 10
64.4009699055
 20
32.3778593066
 30
0.0
  0
SPLINE
  5
29A
100
AcDbEntity
  8
0
100
AcDbSpline
 62
7
  6
BYLAYER
 70
0
 71
3
 72
9
 73
5
 74
0
 42
0.0000001
 43
0.0000001
 44
0.0000000001
 40
0.0
 40
0.0
 40
0.0
 40
0.0
 40
0.4997754473
 40
1.0
 40
1.0
 40
1.0
 40
1.0
 10
57.0129999783
 20
58.4326357108
 30
0.0
 10
55.4875800581
 20
61.805980647
 30
0.0
 10
52.1113867824
 20
68.4133369738
 30
0.0
 10
48.1371729843
 20
74.6791633724
 30
0.0
 10
46.00609844
 20
77.7105867701
 30
0.0
  0
SPLINE
  5
29B
100
AcDbEntity
  8
0
100
AcDbSpline
 62
7
  6
BYLAYER
 70
0
 71
3
 72
11
 73
7
 74
0
 42
0.0000001
 43
0.0000001
 44
0.0000000001
 40
0.0
 40
0.0
 40
0.0
 40
0.0
 40
0.2693236088
 40
0.5228552689
 40
0.7645491722
 40
1.0
 40
1.0
 40
1.0
 40
1.0
 10
64.4033133343
 20
32.3765063579
 30
0.0
 10
64.4532023254
 20
32.2295247466
 30
0.0
 10
64.5701800351
 20
31.9503336727
 30
0.0
 10
64.8056886789
 20
31.5753353583
 30
0.0
 10
65.092866825
 20
31.2639303722
 30
0.0
 10
65.3175143764
 20
31.1015113359
 30
0.0
 10
65.4350238766
 20
31.0336519283
 30
0.0
  0
SPLINE
  5
29C
100
AcDbEntity
  8
0
100
AcDbSpline
 62
7
  6
BYLAYER
 70
0
 71
3
 72
11
 73
7
 74
0
 42
0.0000001
 43
0.0000001
 44
0.0000000001
 40
0.0
 40
0.0
 40
0.0
 40
0.0
 40
0.2861513945
 40
0.5458917
 40
0.7816211217
 40
1.0
 40
1.0
 40
1.0
 40
1.0
 10
68.1478773711
 20
33.7268150204
 30
0.0
 10
68.0312426114
 20
33.6594763125
 30
0.0
 10
67.7990542702
 20
33.5465145057
 30
0.0
 10
67.442743015
 20
33.4459539477
 30
0.0
 10
67.1042219845
 20
33.4269112704
 30
0.0
 10
66.8918335462
 20
33.4719398162
 30
0.0
 10
66.7956899383
 20
33.5082754006
 30
0.0
  0
SPLINE
  5
29D
100
AcDbEntity
  8
0
100
AcDbSpline
 62
7
  6
BYLAYER
 70
0
 71
3
 72
9
 73
5
 74
0
 42
0.0000001
 43
0.0000001
 44
0.0000000001
 40
0.0
 40
0.0
 40
0.0
 40
0.0
 40
0.2478272109
 40
1.0
 40
1.0
 40
1.0
 40
1.0
 10
62.8086328771
 20
46.6854610437
 30
0.0
 10
62.6283506323
 20
47.258279619
 30
0.0
 10
61.8809294018
 20
49.5633186401
 30
0.0
 10
61.0547166606
 20
51.8427374555
 30
0.0
 10
60.3918804101
 20
53.5405530778
 30
0.0
  0
SPLINE
  5
29E
100
AcDbEntity
  8
0
100
AcDbSpline
 62
7
  6
BYLAYER
 70
0
 71
3
 72
9
 73
5
 74
0
 42
0.0000001
 43
0.0000001
 44
0.0000000001
 40
0.0
 40
0.0
 40
0.0
 40
0.0
 40
0.4847824119
 40
1.0
 40
1.0
 40
1.0
 40
1.0
 10
64.1899951123
 20
38.9977453397
 30
0.0
 10
64.1241686474
 20
40.2604045361
 30
0.0
 10
63.8073963554
 20
42.857210925
 30
0.0
 10
63.1916581502
 20
45.3974536871
 30
0.0
 10
62.8086328771
 20
46.6854610437
 30
0.0
  0
SPLINE
  5
29F
100
AcDbEntity
  8
0
100
AcDbSpline
 62
7
  6
BYLAYER
 70
0
 71
3
 72
12
 73
8
 74
0
 42
0.0000001
 43
0.0000001
 44
0.0000000001
 40
0.0
 40
0.0
 40
0.0
 40
0.0
 40
0.289559432
 40
0.5486124843
 40
0.7815906659
 40
0.8918429631
 40
1.0
 40
1.0
 40
1.0
 40
1.0
 10
78.4669272189
 20
33.8134987362
 30
0.0
 10
78.6251357746
 20
33.9048399431
 30
0.0
 10
78.9121205059
 20
34.1024917419
 30
0.0
 10
79.2549560697
 20
34.4626022854
 30
0.0
 10
79.4391242152
 20
34.8019468334
 30
0.0
 10
79.5107685859
 20
35.0787433099
 30
0.0
 10
79.5226608398
 20
35.2168174856
 30
0.0
 10
79.5226768526
 20
35.2850538278
 30
0.0
  0
SPLINE
  5
2A0
100
AcDbEntity
  8
0
100
AcDbSpline
 62
7
  6
BYLAYER
 70
0
 71
3
 72
11
 73
7
 74
0
 42
0.0000001
 43
0.0000001
 44
0.0000000001
 40
0.0
 40
0.0
 40
0.0
 40
0.0
 40
0.2601916849
 40
0.5216172717
 40
0.7717975623
 40
1.0
 40
1.0
 40
1.0
 40
1.0
 10
74.8605808123
 20
33.2955211485
 30
0.0
 10
75.1772022216
 20
33.2394256553
 30
0.0
 10
75.8222675326
 20
33.1798569937
 30
0.0
 10
76.7779796662
 20
33.2386469033
 30
0.0
 10
77.6739714891
 20
33.4391634925
 30
0.0
 10
78.2226912412
 20
33.6724898704
 30
0.0
 10
78.4669272189
 20
33.8134987362
 30
0.0
  0
SPLINE
  5
2A1
100
AcDbEntity
  8
0
100
AcDbSpline
 62
7
  6
BYLAYER
 70
0
 71
3
 72
9
 73
5
 74
0
 42
0.0000001
 43
0.0000001
 44
0.0000000001
 40
0.0
 40
0.0
 40
0.0
 40
0.0
 40
0.4917833916
 40
1.0
 40
1.0
 40
1.0
 40
1.0
 10
69.3058671541
 20
34.3953767426
 30
0.0
 10
70.1958236221
 20
34.1280053097
 30
0.0
 10
72.0341036812
 20
33.6766000649
 30
0.0
 10
73.9055902686
 20
33.3964002444
 30
0.0
 10
74.8605808123
 20
33.2955211485
 30
0.0
  0
SPLINE
  5
2A2
100
AcDbEntity
  8
0
100
AcDbSpline
 62
7
  6
BYLAYER
 70
0
 71
3
 72
18
 73
14
 74
0
 42
0.0000001
 43
0.0000001
 44
0.0000000001
 40
0.0
 40
0.0
 40
0.0
 40
0.0
 40
0.1286602033
 40
0.2702078384
 40
0.4173251267
 40
0.5616310017
 40
0.6952666481
 40
0.756272316
 40
0.8127629495
 40
0.8647150963
 40
0.9125344821
 40
0.9571518912
 40
1.0
 40
1.0
 40
1.0
 40
1.0
 10
73.1258833214
 20
37.3030308849
 30
0.0
 10
73.3109506721
 20
37.4098789318
 30
0.0
 10
73.7299624088
 20
37.5827636164
 30
0.0
 10
74.4128343024
 20
37.719372718
 30
0.0
 10
75.1352242525
 20
37.7393464763
 30
0.0
 10
75.8375533086
 20
37.6407393959
 30
0.0
 10
76.3757959249
 20
37.4609690845
 30
0.0
 10
76.7431233675
 20
37.2612686431
 30
0.0
 10
76.9711405138
 20
37.0946225264
 30
0.0
 10
77.1551867814
 20
36.9098595242
 30
0.0
 10
77.2909136846
 20
36.7101321277
 30
0.0
 10
77.3746302755
 20
36.4994947819
 30
0.0
 10
77.393630492
 20
36.353597198
 30
0.0
 10
77.3936429069
 20
36.2824290039
 30
0.0
  0
SPLINE
  5
2A3
100
AcDbEntity
  8
0
100
AcDbSpline
 62
7
  6
BYLAYER
 70
0
 71
3
 72
11
 73
7
 74
0
 42
0.0000001
 43
0.0000001
 44
0.0000000001
 40
0.0
 40
0.0
 40
0.0
 40
0.0
 40
0.2897474624
 40
0.5490810727
 40
0.782222784
 40
1.0
 40
1.0
 40
1.0
 40
1.0
 10
29.638714712
 20
90.1454495926
 30
0.0
 10
29.638714712
 20
90.2721397561
 30
0.0
 10
29.6578923861
 20
90.5130408232
 30
0.0
 10
29.755487635
 20
90.8440223315
 30
0.0
 10
29.9197442288
 20
91.1125716153
 30
0.0
 10
30.0740292778
 20
91.2423053182
 30
0.0
 10
30.1565017515
 20
91.2899020987
 30
0.0
  0
SPLINE
  5
2A4
100
AcDbEntity
  8
0
100
AcDbSpline
 62
7
  6
BYLAYER
 70
0
 71
3
 72
11
 73
7
 74
0
 42
0.0000001
 43
0.0000001
 44
0.0000000001
 40
0.0
 40
0.0
 40
0.0
 40
0.0
 40
0.2897474624
 40
0.5490810727
 40
0.782222784
 40
1.0
 40
1.0
 40
1.0
 40
1.0
 10
57.9231037179
 20
41.1557227266
 30
0.0
 10
57.9231037179
 20
41.2824128901
 30
0.0
 10
57.942281392
 20
41.5233139572
 30
0.0
 10
58.0398766409
 20
41.8542954655
 30
0.0
 10
58.2041332347
 20
42.1228447493
 30
0.0
 10
58.3584182837
 20
42.2525784522
 30
0.0
 10
58.4408907573
 20
42.3001752327
 30
0.0
  0
SPLINE
  5
2A5
100
AcDbEntity
  8
0
100
AcDbSpline
 62
7
  6
BYLAYER
 70
0
 71
3
 72
18
 73
14
 74
0
 42
0.0000001
 43
0.0000001
 44
0.0000000001
 40
0.0
 40
0.0
 40
0.0
 40
0.0
 40
0.0428466405
 40
0.0874634445
 40
0.1352822772
 40
0.1872337967
 40
0.2437238743
 40
0.3047277575
 40
0.4383596053
 40
0.5826643492
 40
0.7297858751
 40
0.871338297
 40
1.0
 40
1.0
 40
1.0
 40
1.0
 10
60.9408653042
 20
37.9700664478
 30
0.0
 10
60.8792278672
 20
37.934494051
 30
0.0
 10
60.7433821745
 20
37.8779960973
 30
0.0
 10
60.5191105383
 20
37.8451778328
 30
0.0
 10
60.2782812709
 20
37.8628507865
 30
0.0
 10
60.0262476885
 20
37.929844761
 30
0.0
 10
59.7679231363
 20
38.0439871958
 30
0.0
 10
59.4113129614
 20
38.2622307666
 30
0.0
 10
58.9865096099
 20
38.6384664899
 30
0.0
 10
58.5499374337
 20
39.1973869353
 30
0.0
 10
58.2060255424
 20
39.8329899852
 30
0.0
 10
57.9828876645
 20
40.4926950863
 30
0.0
 10
57.9231037179
 20
40.9420230974
 30
0.0
 10
57.9231037179
 20
41.1557227266
 30
0.0
  0
ELLIPSE
  5
2A6
100
AcDbEntity
  8
0
100
AcDbEllipse
 62
7
  6
BYLAYER
 10
134.7890519582
 20
105.4215942114
 30
0.0
 11
-45.6930830943
 21
194.2256105931
 31
0.0
 40
0.5435235703
 41
-4.6590316095
 42
-4.6556617288
  0
ELLIPSE
  5
2A7
100
AcDbEntity
  8
0
100
AcDbEllipse
 62
7
  6
BYLAYER
 10
59.0780719997
 20
67.74055878
 30
0.0
 11
-11.3361118813
 21
48.1859201173
 31
0.0
 40
0.5435235703
 41
1.2789892606
 42
1.304563521
  0
ELLIPSE
  5
2A8
100
AcDbEntity
  8
0
100
AcDbEllipse
 62
7
  6
BYLAYER
 10
17.1307639201
 20
48.8761630625
 30
0.0
 11
-16.252486478
 21
69.0837408219
 31
0.0
 40
0.5435235703
 41
-1.250892228
 42
-1.2492188222
  0
ELLIPSE
  5
2A9
100
AcDbEntity
  8
0
100
AcDbEllipse
 62
7
  6
BYLAYER
 10
45.7013820196
 20
81.5004689176
 30
0.0
 11
-0.4242717078
 21
1.8034333849
 31
0.0
 40
0.5435235703
 41
-1.4922440183
 42
-0.6463569555
  0
ELLIPSE
  5
2AA
100
AcDbEntity
  8
0
100
AcDbEllipse
 62
7
  6
BYLAYER
 10
46.6799146271
 20
86.11084581
 30
0.0
 11
-0.869239699
 21
3.6948395654
 31
0.0
 40
0.5435235703
 41
-4.271798934
 42
-3.8886761765
  0
ELLIPSE
  5
2AB
100
AcDbEntity
  8
0
100
AcDbEllipse
 62
7
  6
BYLAYER
 10
138.1162658518
 20
107.342550582
 30
0.0
 11
145.3572961368
 21
-136.684728359
 31
0.0
 40
0.5435267568
 41
-1.6982472218
 42
-1.693107118
  0
ELLIPSE
  5
2AC
100
AcDbEntity
  8
0
100
AcDbEllipse
 62
7
  6
BYLAYER
 10
16.9281106075
 20
48.7591618163
 30
0.0
 11
51.7018622942
 21
-48.6171330312
 31
0.0
 40
0.5435267568
 41
1.1502075937
 42
1.2342351753
  0
ELLIPSE
  5
2AD
100
AcDbEntity
  8
0
100
AcDbEllipse
 62
7
  6
BYLAYER
 10
15.3630043271
 20
47.8555526778
 30
0.0
 11
-16.252486478
 21
69.0837408219
 31
0.0
 40
0.5435235703
 41
-1.2549575381
 42
-1.2492188222
  0
ELLIPSE
  5
2AE
100
AcDbEntity
  8
0
100
AcDbEllipse
 62
7
  6
BYLAYER
 10
43.9336224266
 20
80.4798585329
 30
0.0
 11
-0.4242717078
 21
1.8034333849
 31
0.0
 40
0.5435235703
 41
-1.4922440183
 42
-0.6463569555
  0
ELLIPSE
  5
2AF
100
AcDbEntity
  8
0
100
AcDbEllipse
 62
7
  6
BYLAYER
 10
15.1603510144
 20
47.7385514316
 30
0.0
 11
51.7018622942
 21
-48.6171330312
 31
0.0
 40
0.5435267568
 41
1.1502075937
 42
1.2383117095
  0
ELLIPSE
  5
2B0
100
AcDbEntity
  8
0
100
AcDbEllipse
 62
7
  6
BYLAYER
 10
44.9121550341
 20
85.0902354253
 30
0.0
 11
-0.869239699
 21
3.6948395654
 31
0.0
 40
0.5435235703
 41
-4.271798934
 42
-3.8886761765
  0
ENDSEC
  0
SECTION
  2
OBJECTS
  0
DICTIONARY
  5
C
100
AcDbDictionary
280
0
281
1
  3
ACAD_GROUP
350
D
  3
ACAD_MLINESTYLE
350
17
  3
ACAD_LAYOUT
350
1A
  3
ACAD_PLOTSETTINGS
350
19
  3
ACAD_PLOTSTYLENAME
350
E
  0
DICTIONARY
  5
D
102
{ACAD_REACTORS
330
C
102
}
100
AcDbDictionary
280
0
281
1
  0
ACDBDICTIONARYWDFLT
  5
E
102
{ACAD_REACTORS
330
C
102
}
100
AcDbDictionary
281
1
  3
Normal
350
F
100
AcDbDictionaryWithDefault
340
F
  0
DICTIONARY
  5
17
102
{ACAD_REACTORS
330
C
102
}
100
AcDbDictionary
280
0
281
1
  3
Standard
350
18
  0
DICTIONARY
  5
19
102
{ACAD_REACTORS
330
C
102
}
100
AcDbDictionary
281
1
  0
DICTIONARY
  5
1A
102
{ACAD_REACTORS
330
C
102
}
100
AcDbDictionary
281
1
  3
Model
350
2B1
  3
Layout1
350
2B2
  0
ACDBPLACEHOLDER
  5
F
102
{ACAD_REACTORS
330
E
102
}
  0
MLINESTYLE
  5
18
102
{ACAD_REACTORS
330
17
102
}
100
AcDbMlineStyle
  2
STANDARD
 70
0
  3

 62
256
 51
90.0
 52
90.0
 71
2
 49
0.5
 62
256
  6
BYLAYER
 49
-0.5
 62
256
  6
BYLAYER
  0
LAYOUT
  5
2B1
102
{ACAD_REACTORS
330
1A
102
}
100
AcDbPlotSettings
  1

  2
none_device
  4

  6

 40
0.0
 41
0.0
 42
0.0
 43
0.0
 44
210.0
 45
297.0
 46
0.0
 47
0.0
 48
0.0
 49
0.0
140
0.0
141
0.0
142
1.0
143
1.0
 70
1024
 72
1
 73
0
 74
0
  7

 75
0
147
1.0
148
0.0
149
0.0
100
AcDbLayout
  1
Model
 70
0
 71
0
 10
0.0
 20
0.0
 11
210.0
 21
297.0
 12
0.0
 22
0.0
 32
0.0
 14
0.0
 24
0.0
 34
0.0
 15
0.0
 25
0.0
 35
0.0
146
0.0
 13
0.0
 23
0.0
 33
0.0
 16
1.0
 26
0.0
 36
0.0
 17
0.0
 27
1.0
 37
0.0
 76
0
330
210
345
0
346
0
  0
LAYOUT
  5
2B2
102
{ACAD_REACTORS
330
1A
102
}
100
AcDbPlotSettings
  1

  2
none_device
  4

  6

 40
0.0
 41
0.0
 42
0.0
 43
0.0
 44
210.0
 45
297.0
 46
0.0
 47
0.0
 48
0.0
 49
0.0
140
0.0
141
0.0
142
1.0
143
1.0
 70
0
 72
1
 73
0
 74
0
  7

 75
0
147
1.0
148
0.0
149
0.0
100
AcDbLayout
  1
Layout1
 70
0
 71
1
 10
0.0
 20
0.0
 11
210.0
 21
297.0
 12
0.0
 22
0.0
 32
0.0
 14
0.0
 24
0.0
 34
0.0
 15
0.0
 25
0.0
 35
0.0
146
0.0
 13
0.0
 23
0.0
 33
0.0
 16
1.0
 26
0.0
 36
0.0
 17
0.0
 27
1.0
 37
0.0
 76
0
330
211
345
0
346
0
  0
ENDSEC
  0
EOF
