999
DXF file: C:\Users\sesa63760\Dev\_Creo\CAD\MCADID0005850_3D-CAD\mcadid0005850_3d-simplified_7.dxf
999
Pro/ENGINEER 2019471 by Parametric Technology Corporation
  0
SECTION
  2
HEADER
  9
$ACADVER
  1
AC1024
  9
$DWGCODEPAGE
  3
ANSI_1252
  9
$EXTMAX
 10
59.3356565657
 20
83.9175714286
 30
0.0
  9
$EXTMIN
 10
0.0
 20
0.0
 30
0.0
  9
$LIMMIN
 10
0.0
 20
0.0
  9
$LIMMAX
 10
59.3356565657
 20
83.9175714286
  9
$VIEWCTR
 10
29.6678282828
 20
41.9587857143
  9
$VIEWSIZE
 40
83.9175714286
  9
$CLAYER
  8
0
  9
$LTSCALE
 40
5.4701824339
  9
$CELTYPE
  6
BYLAYER
  9
$DIMSCALE
 40
1.0
  9
$DIMASZ
 40
0.7063768639
  9
$DIMEXO
 40
1.0
  9
$DIMDLI
 40
3.7793987725
  9
$DIMEXE
 40
1.0
  9
$DIMCEN
 40
0.8951207619
  9
$DIMLFAC
 40
1.0
  9
$DIMBLK
  1
_FILLED
  9
$DIMALT
 70
0
  9
$DIMALTF
 40
0.0393700787
  9
$DIMTXT
 40
0.9889276094
  9
$DIMTOL
 70
1
  9
$DIMLIM
 70
0
  9
$DIMTFAC
 40
1.0
  9
$DIMTP
 40
0.01
  9
$DIMTM
 40
0.01
  9
$DIMGAP
 40
0.625
  9
$DIMDSEP
 70
46
  9
$AUNITS
 70
0
  9
$PDMODE
 70
3
  9
$PDSIZE
 40
0.3125
  9
$HANDSEED
  5
33B
  9
$TILEMODE
 70
1
  9
$MEASUREMENT
 70
1
  9
$INSUNITS
 70
4
  0
ENDSEC
  0
SECTION
  2
CLASSES
  0
CLASS
  1
ACDBDICTIONARYWDFLT
  2
AcDbDictionaryWithDefault
  3
AutoCAD 2000
 90
0
 91
1
280
0
281
0
  0
CLASS
  1
ACDBPLACEHOLDER
  2
AcDbPlaceHolder
  3
AutoCAD 2000
 90
0
 91
1
280
0
281
0
  0
CLASS
  1
LAYOUT
  2
AcDbLayout
  3
AutoCAD 2000
 90
0
 91
0
280
0
281
0
  0
ENDSEC
  0
SECTION
  2
TABLES
  0
TABLE
  2
VPORT
  5
8
100
AcDbSymbolTable
 70
2
  0
VPORT
  5
1F4
100
AcDbSymbolTableRecord
100
AcDbViewportTableRecord
  2
*ACTIVE
 70
0
 10
0.0
 20
0.0
 11
1.0
 21
1.0
 12
29.6678282828
 22
41.9587857143
 13
0.0
 23
0.0
 14
1.0
 24
1.0
 15
0.0
 25
0.0
 16
0.0
 26
0.0
 36
1.0
 17
0.0
 27
0.0
 37
0.0
 40
83.9175714286
 41
0.7070707071
 42
50.0
 43
0.0
 44
0.0
 50
0.0
 51
0.0
 71
0
 72
100
 73
1
 74
1
 75
0
 76
0
 77
0
 78
0
  0
ENDTAB
  0
TABLE
  2
LTYPE
  5
5
100
AcDbSymbolTable
 70
6
  0
LTYPE
  5
14
100
AcDbSymbolTableRecord
100
AcDbLinetypeTableRecord
  2
BYBLOCK
 70
0
  3

 72
65
 73
0
 40
0.0
  0
LTYPE
  5
15
100
AcDbSymbolTableRecord
100
AcDbLinetypeTableRecord
  2
BYLAYER
 70
0
  3

 72
65
 73
0
 40
0.0
  0
LTYPE
  5
16
100
AcDbSymbolTableRecord
100
AcDbLinetypeTableRecord
  2
CONTINUOUS
 70
64
  3
Solid line
 72
65
 73
0
 40
0.0
  0
LTYPE
  5
1F5
100
AcDbSymbolTableRecord
100
AcDbLinetypeTableRecord
  2
CENTER
 70
64
  3
____ _ ____ _ ____ _ ____ _ ____ _ ____ _ ____
 72
65
 73
4
 40
0.6
 49
0.375
 74
0
 49
-0.075
 74
0
 49
0.075
 74
0
 49
-0.075
 74
0
  0
LTYPE
  5
1F6
100
AcDbSymbolTableRecord
100
AcDbLinetypeTableRecord
  2
HIDDEN
 70
64
  3
- - - - - - - - - - - - - - - - - - - -
 72
65
 73
2
 40
0.2
 49
0.1
 74
0
 49
-0.1
 74
0
  0
LTYPE
  5
1F7
100
AcDbSymbolTableRecord
100
AcDbLinetypeTableRecord
  2
PHANTOM
 70
64
  3
_____ _ _ _____ _ _ _____ _ _ _____
 72
65
 73
6
 40
0.8
 49
0.45
 74
0
 49
-0.05
 74
0
 49
0.1
 74
0
 49
-0.05
 74
0
 49
0.1
 74
0
 49
-0.05
 74
0
  0
LTYPE
  5
1F8
100
AcDbSymbolTableRecord
100
AcDbLinetypeTableRecord
  2
DOT
 70
64
  3
. . . . . . . . . . . . . . . . . . . .
 72
65
 73
2
 40
0.2
 49
0.1
 74
0
 49
-0.1
 74
0
  0
LTYPE
  5
1F9
100
AcDbSymbolTableRecord
100
AcDbLinetypeTableRecord
  2
DASHED
 70
64
  3
- - - - - - - - - - - - - - - - - - - -
 72
65
 73
2
 40
0.2
 49
0.1
 74
0
 49
-0.1
 74
0
  0
ENDTAB
  0
TABLE
  2
LAYER
  5
2
100
AcDbSymbolTable
 70
36
  0
LAYER
  5
10
100
AcDbSymbolTableRecord
100
AcDbLayerTableRecord
  2
0
 70
0
 62
7
  6
CONTINUOUS
370
-3
390
F
  0
LAYER
  5
1FA
100
AcDbSymbolTableRecord
100
AcDbLayerTableRecord
  2
DEFAULT_1
 70
0
 62
7
  6
CENTER
370
-3
390
F
  0
LAYER
  5
1FB
100
AcDbSymbolTableRecord
100
AcDbLayerTableRecord
  2
DEFAULT_2
 70
0
 62
7
  6
HIDDEN
370
-3
390
F
  0
LAYER
  5
1FC
100
AcDbSymbolTableRecord
100
AcDbLayerTableRecord
  2
DEFAULT_3
 70
0
 62
7
  6
PHANTOM
370
-3
390
F
  0
LAYER
  5
1FD
100
AcDbSymbolTableRecord
100
AcDbLayerTableRecord
  2
00_COMPONENTS
 70
0
 62
7
  6
CONTINUOUS
370
-3
390
F
  0
LAYER
  5
1FE
100
AcDbSymbolTableRecord
100
AcDbLayerTableRecord
  2
01_1_DEFAULT_DATUMS
 70
0
 62
7
  6
CONTINUOUS
370
-3
390
F
  0
LAYER
  5
1FF
100
AcDbSymbolTableRecord
100
AcDbLayerTableRecord
  2
01_PLANES
 70
0
 62
7
  6
CONTINUOUS
370
-3
390
F
  0
LAYER
  5
200
100
AcDbSymbolTableRecord
100
AcDbLayerTableRecord
  2
02_COORD_SYS
 70
0
 62
7
  6
CONTINUOUS
370
-3
390
F
  0
LAYER
  5
201
100
AcDbSymbolTableRecord
100
AcDbLayerTableRecord
  2
03_AXES
 70
0
 62
7
  6
CONTINUOUS
370
-3
390
F
  0
LAYER
  5
202
100
AcDbSymbolTableRecord
100
AcDbLayerTableRecord
  2
04_POINTS
 70
0
 62
7
  6
CONTINUOUS
370
-3
390
F
  0
LAYER
  5
203
100
AcDbSymbolTableRecord
100
AcDbLayerTableRecord
  2
05_CURVES
 70
0
 62
7
  6
CONTINUOUS
370
-3
390
F
  0
LAYER
  5
204
100
AcDbSymbolTableRecord
100
AcDbLayerTableRecord
  2
06_SURFS
 70
0
 62
7
  6
CONTINUOUS
370
-3
390
F
  0
LAYER
  5
205
100
AcDbSymbolTableRecord
100
AcDbLayerTableRecord
  2
07_COSMETICS
 70
0
 62
7
  6
CONTINUOUS
370
-3
390
F
  0
LAYER
  5
206
100
AcDbSymbolTableRecord
100
AcDbLayerTableRecord
  2
10_NOTES
 70
0
 62
7
  6
CONTINUOUS
370
-3
390
F
  0
LAYER
  5
207
100
AcDbSymbolTableRecord
100
AcDbLayerTableRecord
  2
11_NOTES_PUB
 70
0
 62
7
  6
CONTINUOUS
370
-3
390
F
  0
LAYER
  5
208
100
AcDbSymbolTableRecord
100
AcDbLayerTableRecord
  2
13_REF_GTOL
 70
0
 62
7
  6
CONTINUOUS
370
-3
390
F
  0
LAYER
  5
209
100
AcDbSymbolTableRecord
100
AcDbLayerTableRecord
  2
16_MISC
 70
0
 62
7
  6
CONTINUOUS
370
-3
390
F
  0
LAYER
  5
20A
100
AcDbSymbolTableRecord
100
AcDbLayerTableRecord
  2
17_NO_PRINT
 70
0
 62
7
  6
CONTINUOUS
370
-3
390
F
  0
LAYER
  5
20B
100
AcDbSymbolTableRecord
100
AcDbLayerTableRecord
  2
18_DATUM_CAMS_JOINTS
 70
0
 62
7
  6
CONTINUOUS
370
-3
390
F
  0
LAYER
  5
20C
100
AcDbSymbolTableRecord
100
AcDbLayerTableRecord
  2
19_DATUM_FUNCTIONAL
 70
0
 62
7
  6
CONTINUOUS
370
-3
390
F
  0
LAYER
  5
20D
100
AcDbSymbolTableRecord
100
AcDbLayerTableRecord
  2
20_DATUM_KINEMATIC_SCHEME
 70
0
 62
7
  6
CONTINUOUS
370
-3
390
F
  0
ENDTAB
  0
TABLE
  2
STYLE
  5
3
100
AcDbSymbolTable
 70
1
  0
STYLE
  5
11
100
AcDbSymbolTableRecord
100
AcDbTextStyleTableRecord
  2
STANDARD
 70
0
 40
0.0
 41
1.0
 50
0.0
 71
0
 42
0.2
  3
ARIAL.TTF
  4

  0
STYLE
  5
20E
100
AcDbSymbolTableRecord
100
AcDbTextStyleTableRecord
  2
TEXTSTYLE_1
 70
0
 40
0.0
 41
0.8
 50
0.0
 71
0
 42
0.2
  3
gdt
  4

  0
ENDTAB
  0
TABLE
  2
VIEW
  5
6
100
AcDbSymbolTable
 70
0
  0
ENDTAB
  0
TABLE
  2
UCS
  5
7
100
AcDbSymbolTable
 70
0
  0
ENDTAB
  0
TABLE
  2
APPID
  5
9
100
AcDbSymbolTable
 70
1
  0
APPID
  5
20F
100
AcDbSymbolTableRecord
100
AcDbRegAppTableRecord
  2
ACAD
 70
0
  0
ENDTAB
  0
TABLE
  2
BLOCK_RECORD
  5
1
100
AcDbSymbolTable
 70
0
  0
BLOCK_RECORD
  5
210
100
AcDbSymbolTableRecord
100
AcDbBlockTableRecord
  2
*Model_Space
  0
BLOCK_RECORD
  5
211
100
AcDbSymbolTableRecord
100
AcDbBlockTableRecord
  2
*Paper_Space
  0
BLOCK_RECORD
  5
212
100
AcDbSymbolTableRecord
100
AcDbBlockTableRecord
  2
_FILLED
  0
ENDTAB
  0
TABLE
  2
DIMSTYLE
  5
A
100
AcDbSymbolTable
 70
1
100
AcDbDimStyleTable
 71
0
  0
DIMSTYLE
105
213
100
AcDbSymbolTableRecord
100
AcDbDimStyleTableRecord
  2
STANDARD
 70
0
  3

  4

 40
1.0
 41
0.7063768639
 42
1.0
 43
0.38
 44
1.0
 45
0.0
 46
0.0
 47
0.01
 48
0.01
140
0.9889276094
141
0.09
142
0.0
143
25.4
144
1.0
145
0.0
146
1.0
147
0.625
 71
1
 72
0
 73
0
 74
0
 75
0
 76
0
 77
1
 78
8
 79
2
170
0
171
1
172
0
173
0
174
0
175
0
176
0
177
0
178
0
270
2
179
2
271
2
272
2
273
2
274
2
275
0
280
0
281
0
282
0
283
1
284
8
285
0
286
0
287
3
288
0
340
11
278
46
341
212
342
212
343
212
344
212
  0
ENDTAB
  0
ENDSEC
  0
SECTION
  2
BLOCKS
  0
BLOCK
  5
20
100
AcDbEntity
  8
0
100
AcDbBlockBegin
  2
*Model_Space
 70
0
 10
0.0
 20
0.0
 30
0.0
  3
*Model_Space
  1

  0
ENDBLK
  5
21
100
AcDbEntity
  8
0
100
AcDbBlockEnd
  0
BLOCK
  5
1C
100
AcDbEntity
  8
0
100
AcDbBlockBegin
  2
*Paper_Space
 70
0
 10
0.0
 20
0.0
 30
0.0
  3
*Paper_Space
  1

  0
ENDBLK
  5
1D
100
AcDbEntity
  8
0
100
AcDbBlockEnd
  0
BLOCK
  5
214
100
AcDbEntity
  8
0
100
AcDbBlockBegin
  2
_FILLED
 70
64
 10
0.0
 20
0.0
  3
_FILLED
  1

  0
SOLID
  5
215
100
AcDbEntity
  8
0
  6
BYBLOCK
 62
0
100
AcDbTrace
 10
0.0
 20
0.0
 11
-1.0
 21
0.25
 12
-1.0
 22
-0.25
 13
-1.0
 23
-0.25
  0
ENDBLK
  5
216
100
AcDbEntity
  8
0
  6
BYBLOCK
 62
0
100
AcDbBlockEnd
  0
ENDSEC
  0
SECTION
  2
ENTITIES
  0
LINE
  5
217
100
AcDbEntity
  8
0
100
AcDbLine
 62
7
  6
BYLAYER
 10
34.8912812574
 20
6.2142142857
 11
24.6497674211
 21
6.2142142857
  0
LINE
  5
218
100
AcDbEntity
  8
0
100
AcDbLine
 62
7
  6
BYLAYER
 10
35.1205243393
 20
7.5142142857
 11
24.4205243393
 21
7.5142142857
  0
LINE
  5
219
100
AcDbEntity
  8
0
100
AcDbLine
 62
7
  6
BYLAYER
 10
24.4205243393
 20
8.1642142857
 11
35.1205243393
 21
8.1642142857
  0
LINE
  5
21A
100
AcDbEntity
  8
0
100
AcDbLine
 62
7
  6
BYLAYER
 10
35.7705243393
 20
8.8142142857
 11
23.7705243393
 21
8.8142142857
  0
LINE
  5
21B
100
AcDbEntity
  8
0
100
AcDbLine
 62
7
  6
BYLAYER
 10
20.9705243393
 20
77.7142142857
 11
20.7705243393
 21
77.5142142857
  0
LINE
  5
21C
100
AcDbEntity
  8
0
100
AcDbLine
 62
7
  6
BYLAYER
 10
23.7705243393
 20
14.3142142857
 11
35.7705243393
 21
14.3142142857
  0
LINE
  5
21D
100
AcDbEntity
  8
0
100
AcDbLine
 62
7
  6
BYLAYER
 10
24.4205243393
 20
8.1642142857
 11
23.7705243393
 21
8.8142142857
  0
LINE
  5
21E
100
AcDbEntity
  8
0
100
AcDbLine
 62
7
  6
BYLAYER
 10
35.1205243393
 20
14.9642142857
 11
24.4205243393
 21
14.9642142857
  0
LINE
  5
21F
100
AcDbEntity
  8
0
100
AcDbLine
 62
7
  6
BYLAYER
 10
24.4205243393
 20
17.2142142857
 11
24.2705255448
 21
17.2142142857
  0
LINE
  5
220
100
AcDbEntity
  8
0
100
AcDbLine
 62
7
  6
BYLAYER
 10
24.4205243393
 20
18.2142142857
 11
24.2705255445
 21
18.2142142857
  0
LINE
  5
221
100
AcDbEntity
  8
0
100
AcDbLine
 62
7
  6
BYLAYER
 10
37.270498389
 20
19.9142142857
 11
22.2705502895
 21
19.9142142857
  0
LINE
  5
222
100
AcDbEntity
  8
0
100
AcDbLine
 62
7
  6
BYLAYER
 10
37.4705243393
 20
20.1142142857
 11
22.0705243393
 21
20.1142142857
  0
LINE
  5
223
100
AcDbEntity
  8
0
100
AcDbLine
 62
7
  6
BYLAYER
 10
29.7705243393
 20
67.9142142857
 11
29.2705243393
 21
67.4142142857
  0
LINE
  5
224
100
AcDbEntity
  8
0
100
AcDbLine
 62
7
  6
BYLAYER
 10
22.0705243393
 20
22.9142142857
 11
37.4704955674
 21
22.9142142857
  0
LINE
  5
225
100
AcDbEntity
  8
0
100
AcDbLine
 62
7
  6
BYLAYER
 10
37.4704990519
 20
23.0142142857
 11
22.0705496266
 21
23.0142142857
  0
LINE
  5
226
100
AcDbEntity
  8
0
100
AcDbLine
 62
7
  6
BYLAYER
 10
18.9655243392
 20
64.1142142857
 11
19.0191141777
 21
64.3142142857
  0
LINE
  5
227
100
AcDbEntity
  8
0
100
AcDbLine
 62
7
  6
BYLAYER
 10
29.7705243393
 20
64.3142142857
 11
30.2705243393
 21
64.8142142857
  0
LINE
  5
228
100
AcDbEntity
  8
0
100
AcDbLine
 62
7
  6
BYLAYER
 10
22.0705243393
 20
26.3142142857
 11
37.4705243393
 21
26.3142142857
  0
LINE
  5
229
100
AcDbEntity
  8
0
100
AcDbLine
 62
7
  6
BYLAYER
 10
22.0705243393
 20
26.3142142857
 11
20.7705243393
 21
27.6142142857
  0
LINE
  5
22A
100
AcDbEntity
  8
0
100
AcDbLine
 62
7
  6
BYLAYER
 10
35.1205243393
 20
14.9642142857
 11
35.7705243393
 21
14.3142142857
  0
LINE
  5
22B
100
AcDbEntity
  8
0
100
AcDbLine
 62
7
  6
BYLAYER
 10
38.7705243393
 20
27.6142142857
 11
20.7705243393
 21
27.6142142857
  0
LINE
  5
22C
100
AcDbEntity
  8
0
100
AcDbLine
 62
7
  6
BYLAYER
 10
17.7705243393
 20
71.1142142864
 11
17.7705243393
 21
68.114214285
  0
LINE
  5
22D
100
AcDbEntity
  8
0
100
AcDbLine
 62
7
  6
BYLAYER
 10
17.7705243393
 20
61.114214285
 11
17.7705243393
 21
64.1142142865
  0
LINE
  5
22E
100
AcDbEntity
  8
0
100
AcDbLine
 62
7
  6
BYLAYER
 10
18.2035372193
 20
70.6819332981
 11
18.2035370435
 21
68.5464952903
  0
LINE
  5
22F
100
AcDbEntity
  8
0
100
AcDbLine
 62
7
  6
BYLAYER
 10
18.2035371612
 20
61.5464952733
 11
18.2035370416
 21
63.6819332812
  0
LINE
  5
230
100
AcDbEntity
  8
0
100
AcDbLine
 62
7
  6
BYLAYER
 10
24.6497494142
 20
6.2142142857
 11
24.4205243393
 21
7.5142142857
  0
LINE
  5
231
100
AcDbEntity
  8
0
100
AcDbLine
 62
7
  6
BYLAYER
 10
20.7705243393
 20
77.5142142857
 11
20.7705243393
 21
71.1142142857
  0
LINE
  5
232
100
AcDbEntity
  8
0
100
AcDbLine
 62
7
  6
BYLAYER
 10
20.7705243393
 20
67.4993498882
 11
20.7705243393
 21
64.7290742458
  0
LINE
  5
233
100
AcDbEntity
  8
0
100
AcDbLine
 62
7
  6
BYLAYER
 10
20.7705243393
 20
61.1142142857
 11
20.7705243393
 21
27.6142142857
  0
LINE
  5
234
100
AcDbEntity
  8
0
100
AcDbLine
 62
7
  6
BYLAYER
 10
21.5205243393
 20
77.9142142857
 11
21.5205243393
 21
77.7142142857
  0
LINE
  5
235
100
AcDbEntity
  8
0
100
AcDbLine
 62
7
  6
BYLAYER
 10
22.0705243393
 20
26.3142142857
 11
22.0705243393
 21
23.0142142857
  0
LINE
  5
236
100
AcDbEntity
  8
0
100
AcDbLine
 62
7
  6
BYLAYER
 10
22.0705243393
 20
22.9142142857
 11
22.0705243393
 21
20.1142142857
  0
LINE
  5
237
100
AcDbEntity
  8
0
100
AcDbLine
 62
7
  6
BYLAYER
 10
22.1205243393
 20
23.0142142857
 11
22.1205243393
 21
22.9142142857
  0
LINE
  5
238
100
AcDbEntity
  8
0
100
AcDbLine
 62
7
  6
BYLAYER
 10
23.7705243393
 20
14.3142142857
 11
23.7705243393
 21
8.8142142857
  0
LINE
  5
239
100
AcDbEntity
  8
0
100
AcDbLine
 62
7
  6
BYLAYER
 10
24.2705243393
 20
18.2142142857
 11
24.2705243393
 21
17.2142142857
  0
LINE
  5
23A
100
AcDbEntity
  8
0
100
AcDbLine
 62
7
  6
BYLAYER
 10
24.4205243393
 20
19.9142142857
 11
24.4205243393
 21
18.2142142857
  0
LINE
  5
23B
100
AcDbEntity
  8
0
100
AcDbLine
 62
7
  6
BYLAYER
 10
24.4205243393
 20
17.2142142857
 11
24.4205243393
 21
14.9642142857
  0
LINE
  5
23C
100
AcDbEntity
  8
0
100
AcDbLine
 62
7
  6
BYLAYER
 10
24.4205243393
 20
8.1642142857
 11
24.4205243393
 21
7.5142142857
  0
LINE
  5
23D
100
AcDbEntity
  8
0
100
AcDbLine
 62
7
  6
BYLAYER
 10
18.9655243392
 20
68.1142142857
 11
19.0191141777
 21
67.9142142857
  0
LINE
  5
23E
100
AcDbEntity
  8
0
100
AcDbLine
 62
7
  6
BYLAYER
 10
28.8636064819
 20
77.7142142857
 11
28.8636064819
 21
77.9142142857
  0
LINE
  5
23F
100
AcDbEntity
  8
0
100
AcDbLine
 62
7
  6
BYLAYER
 10
29.3375114619
 20
61.5464952743
 11
29.337511635
 21
63.6819332805
  0
LINE
  5
240
100
AcDbEntity
  8
0
100
AcDbLine
 62
7
  6
BYLAYER
 10
29.3375114483
 20
70.681934275
 11
29.3375116367
 21
68.5464955347
  0
LINE
  5
241
100
AcDbEntity
  8
0
100
AcDbLine
 62
7
  6
BYLAYER
 10
30.0303320014
 20
70.6563243398
 11
30.030331961
 21
68.5721042328
  0
LINE
  5
242
100
AcDbEntity
  8
0
100
AcDbLine
 62
7
  6
BYLAYER
 10
30.030331998
 20
61.5721042315
 11
30.0303319601
 21
63.6563243386
  0
LINE
  5
243
100
AcDbEntity
  8
0
100
AcDbLine
 62
7
  6
BYLAYER
 10
30.6774421966
 20
77.9142142857
 11
30.6774421966
 21
77.7142142857
  0
LINE
  5
244
100
AcDbEntity
  8
0
100
AcDbLine
 62
7
  6
BYLAYER
 10
35.1205243393
 20
19.9142142857
 11
35.1205243393
 21
14.9642142857
  0
LINE
  5
245
100
AcDbEntity
  8
0
100
AcDbLine
 62
7
  6
BYLAYER
 10
35.1205243393
 20
8.1642142857
 11
35.1205243393
 21
7.5142142857
  0
LINE
  5
246
100
AcDbEntity
  8
0
100
AcDbLine
 62
7
  6
BYLAYER
 10
40.5755243393
 20
68.1142142857
 11
40.5219345008
 21
67.9142142857
  0
LINE
  5
247
100
AcDbEntity
  8
0
100
AcDbLine
 62
7
  6
BYLAYER
 10
35.7705243393
 20
14.3142142857
 11
35.7705243393
 21
8.8142142857
  0
LINE
  5
248
100
AcDbEntity
  8
0
100
AcDbLine
 62
7
  6
BYLAYER
 10
37.4205243393
 20
23.0142142857
 11
37.4205243393
 21
22.9142142857
  0
LINE
  5
249
100
AcDbEntity
  8
0
100
AcDbLine
 62
7
  6
BYLAYER
 10
37.4705243393
 20
26.3142142857
 11
37.4705243393
 21
23.0142142857
  0
LINE
  5
24A
100
AcDbEntity
  8
0
100
AcDbLine
 62
7
  6
BYLAYER
 10
37.4705243393
 20
22.9142142857
 11
37.4705243393
 21
20.1142142857
  0
LINE
  5
24B
100
AcDbEntity
  8
0
100
AcDbLine
 62
7
  6
BYLAYER
 10
38.0205243393
 20
77.9142142857
 11
38.0205243393
 21
77.7142142857
  0
LINE
  5
24C
100
AcDbEntity
  8
0
100
AcDbLine
 62
7
  6
BYLAYER
 10
38.7705243393
 20
77.5142142857
 11
38.7705243393
 21
71.1142142857
  0
LINE
  5
24D
100
AcDbEntity
  8
0
100
AcDbLine
 62
7
  6
BYLAYER
 10
38.7705243393
 20
67.4993543257
 11
38.7705243393
 21
64.7290786832
  0
LINE
  5
24E
100
AcDbEntity
  8
0
100
AcDbLine
 62
7
  6
BYLAYER
 10
38.7705243393
 20
61.1142142857
 11
38.7705243393
 21
27.6142142857
  0
LINE
  5
24F
100
AcDbEntity
  8
0
100
AcDbLine
 62
7
  6
BYLAYER
 10
41.5107166773
 20
61.5721042318
 11
41.5107167175
 21
63.6563243385
  0
LINE
  5
250
100
AcDbEntity
  8
0
100
AcDbLine
 62
7
  6
BYLAYER
 10
41.510716704
 20
70.6563233609
 11
41.5107167182
 21
68.5721039866
  0
LINE
  5
251
100
AcDbEntity
  8
0
100
AcDbLine
 62
7
  6
BYLAYER
 10
41.7705243393
 20
61.1142142847
 11
41.7705243393
 21
64.1142142869
  0
LINE
  5
252
100
AcDbEntity
  8
0
100
AcDbLine
 62
7
  6
BYLAYER
 10
41.7705243393
 20
68.1142142846
 11
41.7705243393
 21
71.1142142883
  0
LINE
  5
253
100
AcDbEntity
  8
0
100
AcDbLine
 62
7
  6
BYLAYER
 10
34.8912992643
 20
6.2142142857
 11
35.1205243393
 21
7.5142142857
  0
LINE
  5
254
100
AcDbEntity
  8
0
100
AcDbLine
 62
7
  6
BYLAYER
 10
24.4205243393
 20
14.9642142857
 11
23.7705243393
 21
14.3142142857
  0
LINE
  5
255
100
AcDbEntity
  8
0
100
AcDbLine
 62
7
  6
BYLAYER
 10
37.4705243393
 20
26.3142142857
 11
38.7705243392
 21
27.6142142857
  0
LINE
  5
256
100
AcDbEntity
  8
0
100
AcDbLine
 62
7
  6
BYLAYER
 10
29.7705243393
 20
64.3142142857
 11
29.2705243393
 21
64.8142142857
  0
LINE
  5
257
100
AcDbEntity
  8
0
100
AcDbLine
 62
7
  6
BYLAYER
 10
40.5755243393
 20
64.1142142857
 11
40.5219345008
 21
64.3142142857
  0
LINE
  5
258
100
AcDbEntity
  8
0
100
AcDbLine
 62
7
  6
BYLAYER
 10
41.770524345
 20
61.1142142857
 11
17.7705243397
 21
61.1142142857
  0
LINE
  5
259
100
AcDbEntity
  8
0
100
AcDbLine
 62
7
  6
BYLAYER
 10
29.7705243393
 20
67.9142142857
 11
30.2705243393
 21
67.4142142857
  0
LINE
  5
25A
100
AcDbEntity
  8
0
100
AcDbLine
 62
7
  6
BYLAYER
 10
17.7705243393
 20
64.1142142857
 11
41.7705243393
 21
64.1142142857
  0
LINE
  5
25B
100
AcDbEntity
  8
0
100
AcDbLine
 62
7
  6
BYLAYER
 10
19.1648683962
 20
64.8142142857
 11
19.5589642448
 21
64.8142142857
  0
LINE
  5
25C
100
AcDbEntity
  8
0
100
AcDbLine
 62
7
  6
BYLAYER
 10
19.6556568816
 20
64.8142142857
 11
19.9359032909
 21
64.8142142857
  0
LINE
  5
25D
100
AcDbEntity
  8
0
100
AcDbLine
 62
7
  6
BYLAYER
 10
20.1635176008
 20
64.8142142857
 11
20.4811154298
 21
64.8142142857
  0
LINE
  5
25E
100
AcDbEntity
  8
0
100
AcDbLine
 62
7
  6
BYLAYER
 10
20.8357568687
 20
64.8142142857
 11
21.1852719306
 21
64.8142142857
  0
LINE
  5
25F
100
AcDbEntity
  8
0
100
AcDbLine
 62
7
  6
BYLAYER
 10
21.6608724853
 20
64.8142142857
 11
22.0363244805
 21
64.8142142857
  0
LINE
  5
260
100
AcDbEntity
  8
0
100
AcDbLine
 62
7
  6
BYLAYER
 10
22.6247464935
 20
64.8142142857
 11
23.0197113342
 21
64.8142142857
  0
LINE
  5
261
100
AcDbEntity
  8
0
100
AcDbLine
 62
7
  6
BYLAYER
 10
23.7108867419
 20
64.8142142857
 11
24.1186064702
 21
64.8142142857
  0
LINE
  5
262
100
AcDbEntity
  8
0
100
AcDbLine
 62
7
  6
BYLAYER
 10
24.9007090696
 20
64.8142142857
 11
25.3142074879
 21
64.8142142857
  0
LINE
  5
263
100
AcDbEntity
  8
0
100
AcDbLine
 62
7
  6
BYLAYER
 10
26.1738552867
 20
64.8142142857
 11
26.5860573224
 21
64.8142142857
  0
LINE
  5
264
100
AcDbEntity
  8
0
100
AcDbLine
 62
7
  6
BYLAYER
 10
27.5085415085
 20
64.8142142857
 11
27.9123942705
 21
64.8142142857
  0
LINE
  5
265
100
AcDbEntity
  8
0
100
AcDbLine
 62
7
  6
BYLAYER
 10
28.8819308837
 20
64.8142142857
 11
29.2705243393
 21
64.8142142857
  0
LINE
  5
266
100
AcDbEntity
  8
0
100
AcDbLine
 62
7
  6
BYLAYER
 10
30.2705243393
 20
64.8142142857
 11
30.6591177948
 21
64.8142142857
  0
LINE
  5
267
100
AcDbEntity
  8
0
100
AcDbLine
 62
7
  6
BYLAYER
 10
31.628654408
 20
64.8142142857
 11
32.03250717
 21
64.8142142857
  0
LINE
  5
268
100
AcDbEntity
  8
0
100
AcDbLine
 62
7
  6
BYLAYER
 10
32.9549913561
 20
64.8142142857
 11
33.3671933918
 21
64.8142142857
  0
LINE
  5
269
100
AcDbEntity
  8
0
100
AcDbLine
 62
7
  6
BYLAYER
 10
34.2268411906
 20
64.8142142857
 11
34.6403396089
 21
64.8142142857
  0
LINE
  5
26A
100
AcDbEntity
  8
0
100
AcDbLine
 62
7
  6
BYLAYER
 10
35.4224422083
 20
64.8142142857
 11
35.8301619366
 21
64.8142142857
  0
LINE
  5
26B
100
AcDbEntity
  8
0
100
AcDbLine
 62
7
  6
BYLAYER
 10
36.5213373443
 20
64.8142142857
 11
36.916302185
 21
64.8142142857
  0
LINE
  5
26C
100
AcDbEntity
  8
0
100
AcDbLine
 62
7
  6
BYLAYER
 10
37.504724198
 20
64.8142142857
 11
37.8801761932
 21
64.8142142857
  0
LINE
  5
26D
100
AcDbEntity
  8
0
100
AcDbLine
 62
7
  6
BYLAYER
 10
38.3557767479
 20
64.8142142857
 11
38.7052918098
 21
64.8142142857
  0
LINE
  5
26E
100
AcDbEntity
  8
0
100
AcDbLine
 62
7
  6
BYLAYER
 10
39.0599332487
 20
64.8142142857
 11
39.3775310778
 21
64.8142142857
  0
LINE
  5
26F
100
AcDbEntity
  8
0
100
AcDbLine
 62
7
  6
BYLAYER
 10
39.6051453876
 20
64.8142142857
 11
39.8853917969
 21
64.8142142857
  0
LINE
  5
270
100
AcDbEntity
  8
0
100
AcDbLine
 62
7
  6
BYLAYER
 10
39.9820844337
 20
64.8142142857
 11
40.3761802823
 21
64.8142142857
  0
LINE
  5
271
100
AcDbEntity
  8
0
100
AcDbLine
 62
7
  6
BYLAYER
 10
40.3761802823
 20
67.4142142857
 11
39.9820844337
 21
67.4142142857
  0
LINE
  5
272
100
AcDbEntity
  8
0
100
AcDbLine
 62
7
  6
BYLAYER
 10
39.8853917969
 20
67.4142142857
 11
39.6051453876
 21
67.4142142857
  0
LINE
  5
273
100
AcDbEntity
  8
0
100
AcDbLine
 62
7
  6
BYLAYER
 10
39.3775310778
 20
67.4142142857
 11
39.0599332487
 21
67.4142142857
  0
LINE
  5
274
100
AcDbEntity
  8
0
100
AcDbLine
 62
7
  6
BYLAYER
 10
38.7052918098
 20
67.4142142857
 11
38.3557767479
 21
67.4142142857
  0
LINE
  5
275
100
AcDbEntity
  8
0
100
AcDbLine
 62
7
  6
BYLAYER
 10
37.8801761932
 20
67.4142142857
 11
37.504724198
 21
67.4142142857
  0
LINE
  5
276
100
AcDbEntity
  8
0
100
AcDbLine
 62
7
  6
BYLAYER
 10
36.916302185
 20
67.4142142857
 11
36.5213373443
 21
67.4142142857
  0
LINE
  5
277
100
AcDbEntity
  8
0
100
AcDbLine
 62
7
  6
BYLAYER
 10
35.8301619366
 20
67.4142142857
 11
35.4224422083
 21
67.4142142857
  0
LINE
  5
278
100
AcDbEntity
  8
0
100
AcDbLine
 62
7
  6
BYLAYER
 10
34.6403396089
 20
67.4142142857
 11
34.2268411906
 21
67.4142142857
  0
LINE
  5
279
100
AcDbEntity
  8
0
100
AcDbLine
 62
7
  6
BYLAYER
 10
33.3671933918
 20
67.4142142857
 11
32.9549913561
 21
67.4142142857
  0
LINE
  5
27A
100
AcDbEntity
  8
0
100
AcDbLine
 62
7
  6
BYLAYER
 10
32.03250717
 20
67.4142142857
 11
31.628654408
 21
67.4142142857
  0
LINE
  5
27B
100
AcDbEntity
  8
0
100
AcDbLine
 62
7
  6
BYLAYER
 10
30.6591177948
 20
67.4142142857
 11
30.2705243393
 21
67.4142142857
  0
LINE
  5
27C
100
AcDbEntity
  8
0
100
AcDbLine
 62
7
  6
BYLAYER
 10
29.2705243393
 20
67.4142142857
 11
28.8819308837
 21
67.4142142857
  0
LINE
  5
27D
100
AcDbEntity
  8
0
100
AcDbLine
 62
7
  6
BYLAYER
 10
27.9123942705
 20
67.4142142857
 11
27.5085415085
 21
67.4142142857
  0
LINE
  5
27E
100
AcDbEntity
  8
0
100
AcDbLine
 62
7
  6
BYLAYER
 10
26.5860573224
 20
67.4142142857
 11
26.1738552867
 21
67.4142142857
  0
LINE
  5
27F
100
AcDbEntity
  8
0
100
AcDbLine
 62
7
  6
BYLAYER
 10
25.3142074879
 20
67.4142142857
 11
24.9007090696
 21
67.4142142857
  0
LINE
  5
280
100
AcDbEntity
  8
0
100
AcDbLine
 62
7
  6
BYLAYER
 10
24.1186064702
 20
67.4142142857
 11
23.7108867419
 21
67.4142142857
  0
LINE
  5
281
100
AcDbEntity
  8
0
100
AcDbLine
 62
7
  6
BYLAYER
 10
23.0197113342
 20
67.4142142857
 11
22.6247464935
 21
67.4142142857
  0
LINE
  5
282
100
AcDbEntity
  8
0
100
AcDbLine
 62
7
  6
BYLAYER
 10
22.0363244805
 20
67.4142142857
 11
21.6608724853
 21
67.4142142857
  0
LINE
  5
283
100
AcDbEntity
  8
0
100
AcDbLine
 62
7
  6
BYLAYER
 10
21.1852719306
 20
67.4142142857
 11
20.8357568687
 21
67.4142142857
  0
LINE
  5
284
100
AcDbEntity
  8
0
100
AcDbLine
 62
7
  6
BYLAYER
 10
20.4811154298
 20
67.4142142857
 11
20.1635176008
 21
67.4142142857
  0
LINE
  5
285
100
AcDbEntity
  8
0
100
AcDbLine
 62
7
  6
BYLAYER
 10
19.9359032909
 20
67.4142142857
 11
19.6556568816
 21
67.4142142857
  0
LINE
  5
286
100
AcDbEntity
  8
0
100
AcDbLine
 62
7
  6
BYLAYER
 10
19.5589642448
 20
67.4142142857
 11
19.1648683962
 21
67.4142142857
  0
LINE
  5
287
100
AcDbEntity
  8
0
100
AcDbLine
 62
7
  6
BYLAYER
 10
35.1205243393
 20
8.1642142857
 11
35.7705243393
 21
8.8142142857
  0
LINE
  5
288
100
AcDbEntity
  8
0
100
AcDbLine
 62
7
  6
BYLAYER
 10
41.7705243457
 20
68.1142142857
 11
17.7705243333
 21
68.1142142857
  0
LINE
  5
289
100
AcDbEntity
  8
0
100
AcDbLine
 62
7
  6
BYLAYER
 10
17.7705243315
 20
71.1142142857
 11
41.7705243393
 21
71.1142142857
  0
LINE
  5
28A
100
AcDbEntity
  8
0
100
AcDbLine
 62
7
  6
BYLAYER
 10
38.5705243392
 20
77.7142142857
 11
38.7705243392
 21
77.5142142857
  0
LINE
  5
28B
100
AcDbEntity
  8
0
100
AcDbLine
 62
7
  6
BYLAYER
 10
20.7705243393
 20
77.5142142857
 11
38.7705243393
 21
77.5142142857
  0
LINE
  5
28C
100
AcDbEntity
  8
0
100
AcDbLine
 62
7
  6
BYLAYER
 10
20.9705755459
 20
77.7142142857
 11
38.5705004469
 21
77.7142142857
  0
LINE
  5
28D
100
AcDbEntity
  8
0
100
AcDbLine
 62
7
  6
BYLAYER
 10
21.5205243393
 20
77.9142142857
 11
28.8636064819
 21
77.9142142857
  0
LINE
  5
28E
100
AcDbEntity
  8
0
100
AcDbLine
 62
7
  6
BYLAYER
 10
30.6774421966
 20
77.9142142857
 11
38.0205243393
 21
77.9142142857
  0
LINE
  5
28F
100
AcDbEntity
  8
0
100
AcDbLine
 62
7
  6
BYLAYER
 10
21.7205328828
 20
78.1142142857
 11
37.8205157957
 21
78.1142142857
  0
ARC
  5
290
100
AcDbEntity
  8
0
100
AcDbCircle
 62
7
  6
BYLAYER
 10
27.8001610032
 20
119.5208153922
 40
50.9974973102
100
AcDbArc
 50
271.7274778991
 51
272.5064003685
  0
ARC
  5
291
100
AcDbEntity
  8
0
100
AcDbCircle
 62
7
  6
BYLAYER
 10
27.8002163063
 20
12.7076540487
 40
50.9974550359
100
AcDbArc
 50
87.4936597452
 51
88.2725828298
  0
ARC
  5
292
100
AcDbEntity
  8
0
100
AcDbCircle
 62
7
  6
BYLAYER
 10
27.80021574
 20
112.5207740965
 40
50.9974546378
100
AcDbArc
 50
271.7274176083
 51
272.5063409538
  0
ARC
  5
293
100
AcDbEntity
  8
0
100
AcDbCircle
 62
7
  6
BYLAYER
 10
27.8001641386
 20
19.7077165593
 40
50.9973951146
100
AcDbArc
 50
87.4935980891
 51
88.2725223741
  0
ARC
  5
294
100
AcDbEntity
  8
0
100
AcDbCircle
 62
7
  6
BYLAYER
 10
19.1669058958
 20
50.7196185281
 40
19.9855467909
100
AcDbArc
 50
92.7629146753
 51
94.0064957788
  0
ARC
  5
295
100
AcDbEntity
  8
0
100
AcDbCircle
 62
7
  6
BYLAYER
 10
19.166871106
 20
81.5087936217
 40
19.9855289557
100
AcDbArc
 50
265.9936006221
 51
267.2371827109
  0
ARC
  5
296
100
AcDbEntity
  8
0
100
AcDbCircle
 62
7
  6
BYLAYER
 10
19.166870565
 20
43.7196356553
 40
19.9855282137
100
AcDbArc
 50
92.7628161824
 51
94.0063979694
  0
ARC
  5
297
100
AcDbEntity
  8
0
100
AcDbCircle
 62
7
  6
BYLAYER
 10
19.16690276
 20
88.5087683331
 40
19.9855061839
100
AcDbArc
 50
265.9935050823
 51
267.2370883636
  0
ARC
  5
298
100
AcDbEntity
  8
0
100
AcDbCircle
 62
7
  6
BYLAYER
 10
42.3545959236
 20
56.4256985797
 40
7.2797033577
100
AcDbArc
 50
94.6019519512
 51
96.6568187953
  0
ARC
  5
299
100
AcDbEntity
  8
0
100
AcDbCircle
 62
7
  6
BYLAYER
 10
42.3544091247
 20
75.8006266253
 40
7.2775927623
100
AcDbArc
 50
263.3427225388
 51
265.3981859518
  0
ARC
  5
29A
100
AcDbEntity
  8
0
100
AcDbCircle
 62
7
  6
BYLAYER
 10
42.3511886689
 20
63.4604711036
 40
7.244769343
100
AcDbArc
 50
94.5971565729
 51
96.6619336703
  0
ARC
  5
29B
100
AcDbEntity
  8
0
100
AcDbCircle
 62
7
  6
BYLAYER
 10
42.3509655624
 20
68.7658999817
 40
7.2427008384
100
AcDbArc
 50
263.3379320261
 51
265.4032983151
  0
ARC
  5
29C
100
AcDbEntity
  8
0
100
AcDbCircle
 62
7
  6
BYLAYER
 10
18.7409237191
 20
17.7165865028
 40
5.5523755519
100
AcDbArc
 50
354.8088481472
 51
359.9755207424
  0
ARC
  5
29D
100
AcDbEntity
  8
0
100
AcDbCircle
 62
7
  6
BYLAYER
 10
37.8205243393
 20
77.9142142857
 40
0.2
100
AcDbArc
 50
0.0
 51
90.0
  0
ARC
  5
29E
100
AcDbEntity
  8
0
100
AcDbCircle
 62
7
  6
BYLAYER
 10
21.7205243393
 20
77.9142142857
 40
0.2
100
AcDbArc
 50
90.0
 51
180.0
  0
ARC
  5
29F
100
AcDbEntity
  8
0
100
AcDbCircle
 62
7
  6
BYLAYER
 10
37.2705243393
 20
20.1142142857
 40
0.2
100
AcDbArc
 50
270.0
 51
360.0
  0
ARC
  5
2A0
100
AcDbEntity
  8
0
100
AcDbCircle
 62
7
  6
BYLAYER
 10
22.2705243393
 20
20.1142142857
 40
0.2
100
AcDbArc
 50
180.0
 51
270.0
  0
SPLINE
  5
2A1
100
AcDbEntity
  8
0
100
AcDbSpline
 62
7
  6
BYLAYER
 70
0
 71
3
 72
10
 73
6
 74
0
 42
0.0000001
 43
0.0000001
 44
0.0000000001
 40
0.0
 40
0.0
 40
0.0
 40
0.0
 40
0.2497768312
 40
0.4996632312
 40
1.0
 40
1.0
 40
1.0
 40
1.0
 10
35.7705217167
 20
61.1142144638
 30
0.0
 10
35.2906916791
 20
61.1142145554
 30
0.0
 10
34.3306856019
 20
61.1349041333
 30
0.0
 10
32.4130841469
 20
61.2564022567
 30
0.0
 10
30.9809189206
 20
61.4299015275
 30
0.0
 10
30.0303320014
 20
61.5721042315
 30
0.0
  0
SPLINE
  5
2A2
100
AcDbEntity
  8
0
100
AcDbSpline
 62
7
  6
BYLAYER
 70
0
 71
3
 72
10
 73
6
 74
0
 42
0.0000001
 43
0.0000001
 44
0.0000000001
 40
0.0
 40
0.0
 40
0.0
 40
0.0
 40
0.5003336378
 40
0.7502210429
 40
1.0
 40
1.0
 40
1.0
 40
1.0
 10
41.5107166773
 20
61.5721042318
 30
0.0
 10
40.5601348356
 20
61.4299022874
 30
0.0
 10
39.1279724195
 20
61.2564031464
 30
0.0
 10
37.2103692726
 20
61.1349035792
 30
0.0
 10
36.2503562779
 20
61.1142144538
 30
0.0
 10
35.7705217167
 20
61.1142144638
 30
0.0
  0
SPLINE
  5
2A3
100
AcDbEntity
  8
0
100
AcDbSpline
 62
7
  6
BYLAYER
 70
0
 71
3
 72
10
 73
6
 74
0
 42
0.0000001
 43
0.0000001
 44
0.0000000001
 40
0.0
 40
0.0
 40
0.0
 40
0.0
 40
0.5003336376
 40
0.7502210429
 40
1.0
 40
1.0
 40
1.0
 40
1.0
 10
30.030331961
 20
63.6563243386
 30
0.0
 10
30.9809134712
 20
63.7985262343
 30
0.0
 10
32.4130753868
 20
63.972025318
 30
0.0
 10
34.3306778601
 20
64.0935249282
 30
0.0
 10
35.2906905214
 20
64.1142140702
 30
0.0
 10
35.7705249156
 20
64.1142140514
 30
0.0
  0
SPLINE
  5
2A4
100
AcDbEntity
  8
0
100
AcDbSpline
 62
7
  6
BYLAYER
 70
0
 71
3
 72
10
 73
6
 74
0
 42
0.0000001
 43
0.0000001
 44
0.0000000001
 40
0.0
 40
0.0
 40
0.0
 40
0.0
 40
0.2497902754
 40
0.4996831785
 40
1.0
 40
1.0
 40
1.0
 40
1.0
 10
23.7705243685
 20
64.1142140514
 30
0.0
 10
24.2358061618
 20
64.1142140616
 30
0.0
 10
25.1666848618
 20
64.0947503421
 30
0.0
 10
27.0262389652
 20
63.9804324162
 30
0.0
 10
28.4153662412
 20
63.8166580874
 30
0.0
 10
29.337511635
 20
63.6819332805
 30
0.0
  0
SPLINE
  5
2A5
100
AcDbEntity
  8
0
100
AcDbSpline
 62
7
  6
BYLAYER
 70
0
 71
3
 72
10
 73
6
 74
0
 42
0.0000001
 43
0.0000001
 44
0.0000000001
 40
0.0
 40
0.0
 40
0.0
 40
0.0
 40
0.2497768311
 40
0.4996632312
 40
1.0
 40
1.0
 40
1.0
 40
1.0
 10
35.7705249156
 20
64.1142140514
 30
0.0
 10
36.2503551266
 20
64.1142140641
 30
0.0
 10
37.210361554
 20
64.0935245024
 30
0.0
 10
39.1279637063
 20
63.9720264146
 30
0.0
 10
40.5601294544
 20
63.7985270947
 30
0.0
 10
41.5107167175
 20
63.6563243385
 30
0.0
  0
SPLINE
  5
2A6
100
AcDbEntity
  8
0
100
AcDbSpline
 62
7
  6
BYLAYER
 70
0
 71
3
 72
10
 73
6
 74
0
 42
0.0000001
 43
0.0000001
 44
0.0000000001
 40
0.0
 40
0.0
 40
0.0
 40
0.0
 40
0.2497902755
 40
0.4996831785
 40
1.0
 40
1.0
 40
1.0
 40
1.0
 10
23.7705243683
 20
61.11421452
 30
0.0
 10
23.3052425848
 20
61.114214509
 30
0.0
 10
22.3743639045
 20
61.1336782265
 30
0.0
 10
20.51480984
 20
61.2479961421
 30
0.0
 10
19.125682594
 20
61.4117704723
 30
0.0
 10
18.2035372193
 20
61.5464952733
 30
0.0
  0
SPLINE
  5
2A7
100
AcDbEntity
  8
0
100
AcDbSpline
 62
7
  6
BYLAYER
 70
0
 71
3
 72
10
 73
6
 74
0
 42
0.0000001
 43
0.0000001
 44
0.0000000001
 40
0.0
 40
0.0
 40
0.0
 40
0.0
 40
0.5003168224
 40
0.750209726
 40
1.0
 40
1.0
 40
1.0
 40
1.0
 10
18.2035370435
 20
63.6819332812
 30
0.0
 10
19.1256824484
 20
63.8166580896
 30
0.0
 10
20.5148097415
 20
63.9804324299
 30
0.0
 10
22.3743638662
 20
64.0947503056
 30
0.0
 10
23.305242573
 20
64.1142140625
 30
0.0
 10
23.7705243685
 20
64.1142140514
 30
0.0
  0
SPLINE
  5
2A8
100
AcDbEntity
  8
0
100
AcDbSpline
 62
7
  6
BYLAYER
 70
0
 71
3
 72
10
 73
6
 74
0
 42
0.0000001
 43
0.0000001
 44
0.0000000001
 40
0.0
 40
0.0
 40
0.0
 40
0.0
 40
0.5003168224
 40
0.750209726
 40
1.0
 40
1.0
 40
1.0
 40
1.0
 10
29.3375114619
 20
61.5464952743
 30
0.0
 10
28.4153660949
 20
61.4117704747
 30
0.0
 10
27.0262388604
 20
61.2479961341
 30
0.0
 10
25.1666848125
 20
61.133678267
 30
0.0
 10
24.2358061444
 20
61.1142145098
 30
0.0
 10
23.7705243683
 20
61.11421452
 30
0.0
  0
SPLINE
  5
2A9
100
AcDbEntity
  8
0
100
AcDbSpline
 62
7
  6
BYLAYER
 70
0
 71
3
 72
10
 73
6
 74
0
 42
0.0000001
 43
0.0000001
 44
0.0000000001
 40
0.0
 40
0.0
 40
0.0
 40
0.0
 40
0.5003168224
 40
0.750209726
 40
1.0
 40
1.0
 40
1.0
 40
1.0
 10
18.2035372193
 20
70.6819332981
 30
0.0
 10
19.125682595
 20
70.8166581026
 30
0.0
 10
20.514809844
 20
70.9804324394
 30
0.0
 10
22.3743639103
 20
71.0947503066
 30
0.0
 10
23.3052425877
 20
71.1142140624
 30
0.0
 10
23.7705243685
 20
71.1142140514
 30
0.0
  0
SPLINE
  5
2AA
100
AcDbEntity
  8
0
100
AcDbSpline
 62
7
  6
BYLAYER
 70
0
 71
3
 72
10
 73
6
 74
0
 42
0.0000001
 43
0.0000001
 44
0.0000000001
 40
0.0
 40
0.0
 40
0.0
 40
0.0
 40
0.5003336376
 40
0.7502210429
 40
1.0
 40
1.0
 40
1.0
 40
1.0
 10
41.5107167175
 20
68.5721042329
 30
0.0
 10
40.5601352198
 20
68.429902341
 30
0.0
 10
39.127973324
 20
68.2564032567
 30
0.0
 10
37.2103708766
 20
68.1349036461
 30
0.0
 10
36.2503582283
 20
68.1142145023
 30
0.0
 10
35.7705238406
 20
68.11421452
 30
0.0
  0
SPLINE
  5
2AB
100
AcDbEntity
  8
0
100
AcDbSpline
 62
7
  6
BYLAYER
 70
0
 71
3
 72
10
 73
6
 74
0
 42
0.0000001
 43
0.0000001
 44
0.0000000001
 40
0.0
 40
0.0
 40
0.0
 40
0.0
 40
0.249776831
 40
0.4996632311
 40
1.0
 40
1.0
 40
1.0
 40
1.0
 10
35.7705325174
 20
71.1142140514
 30
0.0
 10
36.2503620922
 20
71.1142139555
 30
0.0
 10
37.210367242
 20
71.0935242319
 30
0.0
 10
39.127966835
 20
70.9720260529
 30
0.0
 10
40.560130675
 20
70.7985269136
 30
0.0
 10
41.5107166773
 20
70.6563243398
 30
0.0
  0
SPLINE
  5
2AC
100
AcDbEntity
  8
0
100
AcDbSpline
 62
7
  6
BYLAYER
 70
0
 71
3
 72
10
 73
6
 74
0
 42
0.0000001
 43
0.0000001
 44
0.0000000001
 40
0.0
 40
0.0
 40
0.0
 40
0.0
 40
0.2497902755
 40
0.4996831785
 40
1.0
 40
1.0
 40
1.0
 40
1.0
 10
23.7705243685
 20
71.1142140514
 30
0.0
 10
24.2358061473
 20
71.1142140616
 30
0.0
 10
25.1666848182
 20
71.0947503423
 30
0.0
 10
27.0262388647
 20
70.9804324295
 30
0.0
 10
28.4153660944
 20
70.8166580833
 30
0.0
 10
29.3375114619
 20
70.6819332972
 30
0.0
  0
SPLINE
  5
2AD
100
AcDbEntity
  8
0
100
AcDbSpline
 62
7
  6
BYLAYER
 70
0
 71
3
 72
10
 73
6
 74
0
 42
0.0000001
 43
0.0000001
 44
0.0000000001
 40
0.0
 40
0.0
 40
0.0
 40
0.0
 40
0.5003336379
 40
0.7502210429
 40
1.0
 40
1.0
 40
1.0
 40
1.0
 10
30.0303320014
 20
70.6563243398
 30
0.0
 10
30.9809147591
 20
70.7985264193
 30
0.0
 10
32.4130785628
 20
70.9720256856
 30
0.0
 10
34.3306835689
 20
71.0935251986
 30
0.0
 10
35.2906974939
 20
71.1142141788
 30
0.0
 10
35.7705325174
 20
71.1142140514
 30
0.0
  0
SPLINE
  5
2AE
100
AcDbEntity
  8
0
100
AcDbSpline
 62
7
  6
BYLAYER
 70
0
 71
3
 72
10
 73
6
 74
0
 42
0.0000001
 43
0.0000001
 44
0.0000000001
 40
0.0
 40
0.0
 40
0.0
 40
0.0
 40
0.2497902755
 40
0.4996831785
 40
1.0
 40
1.0
 40
1.0
 40
1.0
 10
23.7705243683
 20
68.11421452
 30
0.0
 10
23.3052425701
 20
68.114214509
 30
0.0
 10
22.3743638605
 20
68.133678228
 30
0.0
 10
20.5148097371
 20
68.2479961494
 30
0.0
 10
19.1256824488
 20
68.4117704952
 30
0.0
 10
18.2035370435
 20
68.5464952903
 30
0.0
  0
SPLINE
  5
2AF
100
AcDbEntity
  8
0
100
AcDbSpline
 62
7
  6
BYLAYER
 70
0
 71
3
 72
10
 73
6
 74
0
 42
0.0000001
 43
0.0000001
 44
0.0000000001
 40
0.0
 40
0.0
 40
0.0
 40
0.0
 40
0.2497768311
 40
0.4996632312
 40
1.0
 40
1.0
 40
1.0
 40
1.0
 10
35.7705238406
 20
68.11421452
 30
0.0
 10
35.2906936231
 20
68.1142145062
 30
0.0
 10
34.3306871827
 20
68.134904066
 30
0.0
 10
32.4130850047
 20
68.2564021547
 30
0.0
 10
30.9809192359
 20
68.4299014679
 30
0.0
 10
30.030331961
 20
68.5721042328
 30
0.0
  0
SPLINE
  5
2B0
100
AcDbEntity
  8
0
100
AcDbSpline
 62
7
  6
BYLAYER
 70
0
 71
3
 72
10
 73
6
 74
0
 42
0.0000001
 43
0.0000001
 44
0.0000000001
 40
0.0
 40
0.0
 40
0.0
 40
0.0
 40
0.5003168224
 40
0.750209726
 40
1.0
 40
1.0
 40
1.0
 40
1.0
 10
29.337511635
 20
68.5464952908
 30
0.0
 10
28.4153662402
 20
68.4117704805
 30
0.0
 10
27.0262389612
 20
68.2479961451
 30
0.0
 10
25.1666848561
 20
68.1336782677
 30
0.0
 10
24.2358061589
 20
68.1142145098
 30
0.0
 10
23.7705243683
 20
68.11421452
 30
0.0
  0
SPLINE
  5
2B1
100
AcDbEntity
  8
0
100
AcDbSpline
 62
7
  6
BYLAYER
 70
0
 71
3
 72
45
 73
41
 74
0
 42
0.0000001
 43
0.0000001
 44
0.0000000001
 40
0.0
 40
0.0
 40
0.0
 40
0.0
 40
0.0039050539
 40
0.0078133077
 40
0.0117214141
 40
0.015629514
 40
0.0234390588
 40
0.0312509075
 40
0.0390634021
 40
0.046876124
 40
0.0624997032
 40
0.0781243746
 40
0.0937494617
 40
0.1249979828
 40
0.1562477613
 40
0.1874980321
 40
0.2499967175
 40
0.312496869
 40
0.3749976183
 40
0.4374986508
 40
0.4999998337
 40
0.5625010942
 40
0.6250022206
 40
0.6875030345
 40
0.7500032272
 40
0.8125019377
 40
0.8437522141
 40
0.8750019945
 40
0.9062505161
 40
0.9218756033
 40
0.9375002757
 40
0.9531238546
 40
0.9609365769
 40
0.9687490728
 40
0.9765609288
 40
0.9843704768
 40
0.988278581
 40
0.9921866893
 40
0.9960949404
 40
1.0
 40
1.0
 40
1.0
 40
1.0
 10
28.8636064819
 20
77.9142142857
 30
0.0
 10
28.8636064819
 20
77.916650934
 30
0.0
 10
28.864453231
 20
77.9215549182
 30
0.0
 10
28.867751679
 20
77.9281597667
 30
0.0
 10
28.8722891805
 20
77.9339414898
 30
0.0
 10
28.8793379375
 20
77.9407083478
 30
0.0
 10
28.8893121148
 20
77.9478018897
 30
0.0
 10
28.9021032522
 20
77.9549140605
 30
0.0
 10
28.9153824918
 20
77.961064834
 30
0.0
 10
28.9334884691
 20
77.9683167965
 30
0.0
 10
28.9566304607
 20
77.9760265854
 30
0.0
 10
28.9848207385
 20
77.9838473182
 30
0.0
 10
29.0227667964
 20
77.9928703292
 30
0.0
 10
29.0706435123
 20
78.0021428343
 30
0.0
 10
29.1284537825
 20
78.0111309344
 30
0.0
 10
29.2058319825
 20
78.0209866421
 30
0.0
 10
29.3029120615
 20
78.030220277
 30
0.0
 10
29.4196642877
 20
78.0379117737
 30
0.0
 10
29.5365588124
 20
78.0429823055
 30
0.0
 10
29.6535256241
 20
78.0458747917
 30
0.0
 10
29.7705240758
 20
78.0468154794
 30
0.0
 10
29.8875225919
 20
78.0458750481
 30
0.0
 10
30.0044895411
 20
78.0429821708
 30
0.0
 10
30.1213841965
 20
78.0379118161
 30
0.0
 10
30.2381365016
 20
78.0302202566
 30
0.0
 10
30.3352166287
 20
78.0209866595
 30
0.0
 10
30.4125948482
 20
78.0111309424
 30
0.0
 10
30.4704051229
 20
78.0021428398
 30
0.0
 10
30.5182818421
 20
77.9928703424
 30
0.0
 10
30.5562278996
 20
77.9838473256
 30
0.0
 10
30.5844181803
 20
77.9760266013
 30
0.0
 10
30.6075601707
 20
77.9683168066
 30
0.0
 10
30.6256661501
 20
77.9610648472
 30
0.0
 10
30.6389453946
 20
77.9549140714
 30
0.0
 10
30.6517365439
 20
77.9478019067
 30
0.0
 10
30.6617107292
 20
77.9407083596
 30
0.0
 10
30.6687594919
 20
77.9339414991
 30
0.0
 10
30.6732969949
 20
77.9281597741
 30
0.0
 10
30.676595444
 20
77.9215549234
 30
0.0
 10
30.6774421966
 20
77.9166509376
 30
0.0
 10
30.6774421966
 20
77.9142142857
 30
0.0
  0
SPLINE
  5
2B2
100
AcDbEntity
  8
0
100
AcDbSpline
 62
7
  6
BYLAYER
 70
0
 71
3
 72
24
 73
20
 74
0
 42
0.0000001
 43
0.0000001
 44
0.0000000001
 40
0.0
 40
0.0
 40
0.0
 40
0.0
 40
0.0012143148
 40
0.0027289476
 40
0.0048458298
 40
0.0108781424
 40
0.0192948558
 40
0.0300795791
 40
0.0432141645
 40
0.076377142
 40
0.1184186397
 40
0.1689515849
 40
0.227469576
 40
0.2933951694
 40
0.3661185645
 40
0.4449085734
 40
0.6176279992
 40
0.8051460137
 40
1.0
 40
1.0
 40
1.0
 40
1.0
 10
24.4205243393
 20
18.2142089187
 30
0.0
 10
24.4205046791
 20
18.2140071972
 30
0.0
 10
24.4206085915
 20
18.2135536491
 30
0.0
 10
24.4206526311
 20
18.2127484306
 30
0.0
 10
24.420820653
 20
18.2111424459
 30
0.0
 10
24.421062653
 20
18.2083893139
 30
0.0
 10
24.4214543497
 20
18.2041952835
 30
0.0
 10
24.4219408502
 20
18.1988203809
 30
0.0
 10
24.4227971231
 20
18.1893314109
 30
0.0
 10
24.4240895057
 20
18.1746438164
 30
0.0
 10
24.4258539398
 20
18.1537316139
 30
0.0
 10
24.4278688826
 20
18.1285938148
 30
0.0
 10
24.4300565951
 20
18.0994709581
 30
0.0
 10
24.4323312152
 20
18.0666409585
 30
0.0
 10
24.4346058397
 20
18.0304199826
 30
0.0
 10
24.4376212277
 20
17.9763870305
 30
0.0
 10
24.440841745
 20
17.9031776592
 30
0.0
 10
24.4433519921
 20
17.810558759
 30
0.0
 10
24.4439400679
 20
17.7467367313
 30
0.0
 10
24.4439400679
 20
17.7142142857
 30
0.0
  0
SPLINE
  5
2B3
100
AcDbEntity
  8
0
100
AcDbSpline
 62
7
  6
BYLAYER
 70
0
 71
3
 72
17
 73
13
 74
0
 42
0.0000001
 43
0.0000001
 44
0.0000000001
 40
0.0
 40
0.0
 40
0.0
 40
0.0
 40
0.3823594264
 40
0.5550801715
 40
0.7065950286
 40
0.8310417937
 40
0.8815766168
 40
0.9236201221
 40
0.9567848672
 40
0.9807050865
 40
0.9951543581
 40
1.0
 40
1.0
 40
1.0
 40
1.0
 10
24.4439400679
 20
17.7142142857
 30
0.0
 10
24.4439400679
 20
17.650397003
 30
0.0
 10
24.4422709822
 20
17.5577404113
 30
0.0
 10
24.4370869436
 20
17.4399178135
 30
0.0
 10
24.432663067
 20
17.3651589861
 30
0.0
 10
24.4287491934
 20
17.3108049167
 30
0.0
 10
24.4258528708
 20
17.2746985041
 30
0.0
 10
24.4240928473
 20
17.2537852803
 30
0.0
 10
24.4226310533
 20
17.2373052085
 30
0.0
 10
24.4215784041
 20
17.2254119661
 30
0.0
 10
24.4208752929
 20
17.2182339954
 30
0.0
 10
24.4206184736
 20
17.2150230247
 30
0.0
 10
24.4205243393
 20
17.2142197651
 30
0.0
  0
SPLINE
  5
2B4
100
AcDbEntity
  8
0
100
AcDbSpline
 62
7
  6
BYLAYER
 70
0
 71
3
 72
27
 73
23
 74
0
 42
0.0000001
 43
0.0000001
 44
0.0000000001
 40
0.0
 40
0.0
 40
0.0
 40
0.0
 40
0.0003042793
 40
0.0012146312
 40
0.0027290482
 40
0.0048455235
 40
0.0075620502
 40
0.0108766221
 40
0.0192918781
 40
0.0300752488
 40
0.0432087589
 40
0.0586558751
 40
0.0763697619
 40
0.118410218
 40
0.1689443372
 40
0.2274659791
 40
0.2933949758
 40
0.3661225222
 40
0.4449184943
 40
0.6176468304
 40
0.8051539591
 40
1.0
 40
1.0
 40
1.0
 40
1.0
 10
24.2705255532
 20
18.2142142646
 30
0.0
 10
24.270547361
 20
18.2141684027
 30
0.0
 10
24.2705245894
 20
18.2139551286
 30
0.0
 10
24.2706063306
 20
18.2135125936
 30
0.0
 10
24.2706527025
 20
18.2127515746
 30
0.0
 10
24.2707588398
 20
18.2116993517
 30
0.0
 10
24.2708776891
 20
18.2103440417
 30
0.0
 10
24.2710960153
 20
18.2079432595
 30
0.0
 10
24.271429392
 20
18.2042005069
 30
0.0
 10
24.2719054524
 20
18.1988255639
 30
0.0
 10
24.2724783357
 20
18.1922808878
 30
0.0
 10
24.2731427448
 20
18.1845831815
 30
0.0
 10
24.2742024373
 20
18.1720772189
 30
0.0
 10
24.2757053318
 20
18.1537320089
 30
0.0
 10
24.2776633018
 20
18.1285908097
 30
0.0
 10
24.2797905841
 20
18.0994641255
 30
0.0
 10
24.2820039638
 20
18.0666303451
 30
0.0
 10
24.2842187729
 20
18.0304059194
 30
0.0
 10
24.2871542039
 20
17.976369112
 30
0.0
 10
24.290273182
 20
17.9031598476
 30
0.0
 10
24.2927108846
 20
17.8105474755
 30
0.0
 10
24.2932987642
 20
17.7467331706
 30
0.0
 10
24.2932987642
 20
17.7142142857
 30
0.0
  0
ELLIPSE
  5
2B5
100
AcDbEntity
  8
0
100
AcDbEllipse
 62
7
  6
BYLAYER
 10
29.3654147942
 20
61.2105495103
 30
0.0
 11
7.3844602403
 21
9.6458827394
 31
0.0
 40
0.8684143762
 41
-4.4420330851
 42
-4.3969299932
  0
ELLIPSE
  5
2B6
100
AcDbEntity
  8
0
100
AcDbEllipse
 62
7
  6
BYLAYER
 10
28.9672367858
 20
61.2105495103
 30
0.0
 11
8.472058128
 21
9.6390686169
 31
0.0
 40
0.7581403628
 41
-4.4409713465
 42
-4.3958682546
  0
ELLIPSE
  5
2B7
100
AcDbEntity
  8
0
100
AcDbEllipse
 62
7
  6
BYLAYER
 10
28.5828032501
 20
61.2105495103
 30
0.0
 11
9.1398053983
 21
9.9008743148
 31
0.0
 40
0.657738698
 41
-4.4830743092
 42
-4.4379712174
  0
ELLIPSE
  5
2B8
100
AcDbEntity
  8
0
100
AcDbEllipse
 62
7
  6
BYLAYER
 10
28.2186919515
 20
61.2105495103
 30
0.0
 11
9.672197328
 21
10.207034137
 31
0.0
 40
0.5661264515
 41
-4.5363657904
 42
-4.4912626986
  0
ELLIPSE
  5
2B9
100
AcDbEntity
  8
0
100
AcDbEllipse
 62
7
  6
BYLAYER
 10
27.8811329354
 20
61.2105495103
 30
0.0
 11
10.1235279518
 21
10.5062434209
 31
0.0
 40
0.4817532195
 41
-4.5941526827
 42
-4.5490495909
  0
ELLIPSE
  5
2BA
100
AcDbEntity
  8
0
100
AcDbEllipse
 62
7
  6
BYLAYER
 10
27.57590193
 20
61.2105495103
 30
0.0
 11
10.5096998268
 21
10.7798633581
 31
0.0
 40
0.4032531911
 41
-4.654171208
 42
-4.6090681162
  0
ELLIPSE
  5
2BB
100
AcDbEntity
  8
0
100
AcDbEllipse
 62
7
  6
BYLAYER
 10
27.3082215225
 20
61.2105495103
 30
0.0
 11
10.8359096051
 21
11.0191384116
 31
0.0
 40
0.3294650235
 41
1.5677445238
 42
1.6128476156
  0
ELLIPSE
  5
2BC
100
AcDbEntity
  8
0
100
AcDbEllipse
 62
7
  6
BYLAYER
 10
27.0826717989
 20
61.2105495103
 30
0.0
 11
11.103573653
 21
11.2192358625
 31
0.0
 40
0.2593921815
 41
1.5057209388
 42
1.5508240306
  0
ELLIPSE
  5
2BD
100
AcDbEntity
  8
0
100
AcDbEllipse
 62
7
  6
BYLAYER
 10
26.9031119774
 20
61.2105495103
 30
0.0
 11
11.3126576757
 21
11.377213794
 31
0.0
 40
0.1921623568
 41
1.4432258704
 42
1.4883289622
  0
ELLIPSE
  5
2BE
100
AcDbEntity
  8
0
100
AcDbEllipse
 62
7
  6
BYLAYER
 10
26.7726143765
 20
61.2105495103
 30
0.0
 11
11.4626280056
 21
11.4912004934
 31
0.0
 40
0.1269935126
 41
1.3804360692
 42
1.425539161
  0
ELLIPSE
  5
2BF
100
AcDbEntity
  8
0
100
AcDbEllipse
 62
7
  6
BYLAYER
 10
26.6934118462
 20
61.2105495103
 30
0.0
 11
11.5528949874
 21
11.5600239517
 31
0.0
 40
0.0631661312
 41
1.3174730036
 42
1.3625760954
  0
ELLIPSE
  5
2C0
100
AcDbEntity
  8
0
100
AcDbEllipse
 62
7
  6
BYLAYER
 10
34.0415211748
 20
68.6220653846
 30
0.0
 11
11.8003161272
 21
11.8137551981
 31
0.0
 40
0.0610824685
 41
-1.8795295147
 42
-1.8374099321
  0
ELLIPSE
  5
2C1
100
AcDbEntity
  8
0
100
AcDbEllipse
 62
7
  6
BYLAYER
 10
33.9315889714
 20
68.6220653846
 30
0.0
 11
11.6942962282
 21
11.7481381864
 31
0.0
 40
0.1228992729
 41
-1.8159350307
 42
-1.776616227
  0
ELLIPSE
  5
2C2
100
AcDbEntity
  8
0
100
AcDbEllipse
 62
7
  6
BYLAYER
 10
33.7504597986
 20
68.6220653846
 30
0.0
 11
11.5182116851
 21
11.6397811956
 31
0.0
 40
0.1862029912
 41
-1.7527475842
 42
-1.7161329273
  0
ELLIPSE
  5
2C3
100
AcDbEntity
  8
0
100
AcDbEllipse
 62
7
  6
BYLAYER
 10
33.5012328266
 20
68.6220653846
 30
0.0
 11
11.272755276
 21
11.4903624333
 31
0.0
 40
0.2517837063
 41
-1.690470979
 42
-1.6561797436
  0
ELLIPSE
  5
2C4
100
AcDbEntity
  8
0
100
AcDbEllipse
 62
7
  6
BYLAYER
 10
33.188172398
 20
68.6220653846
 30
0.0
 11
10.9583479679
 21
11.3026503924
 31
0.0
 40
0.32049021
 41
-1.6285433928
 42
-1.5970782097
  0
ELLIPSE
  5
2C5
100
AcDbEntity
  8
0
100
AcDbEllipse
 62
7
  6
BYLAYER
 10
32.8166350636
 20
68.6220653846
 30
0.0
 11
10.57430594
 21
11.0811640271
 31
0.0
 40
0.3932536107
 41
-1.5677038125
 42
-1.5393435277
  0
ELLIPSE
  5
2C6
100
AcDbEntity
  8
0
100
AcDbEllipse
 62
7
  6
BYLAYER
 10
32.3929779301
 20
68.6220653846
 30
0.0
 11
10.1170563979
 21
10.8336078883
 31
0.0
 40
0.4711119558
 41
-1.5086873307
 42
-1.4838808103
  0
ELLIPSE
  5
2C7
100
AcDbEntity
  8
0
100
AcDbEllipse
 62
7
  6
BYLAYER
 10
31.9244498887
 20
68.6220653846
 30
0.0
 11
9.5757833526
 21
10.5743403885
 31
0.0
 40
0.5552272381
 41
-1.4530005094
 42
-1.4324654912
  0
ELLIPSE
  5
2C8
100
AcDbEntity
  8
0
100
AcDbEllipse
 62
7
  6
BYLAYER
 10
31.4190675839
 20
68.6220653846
 30
0.0
 11
8.919591999
 21
10.3341729894
 31
0.0
 40
0.6468548444
 41
-1.4042437337
 42
-1.3891458436
  0
ELLIPSE
  5
2C9
100
AcDbEntity
  8
0
100
AcDbEllipse
 62
7
  6
BYLAYER
 10
30.8854782471
 20
68.6220653846
 30
0.0
 11
8.0474192635
 21
10.195190748
 31
0.0
 40
0.7470541823
 41
-1.3732190303
 42
-1.3655537154
  0
ELLIPSE
  5
2CA
100
AcDbEntity
  8
0
100
AcDbEllipse
 62
7
  6
BYLAYER
 10
32.8476368323
 20
61.2105495103
 30
0.0
 11
-11.5528949874
 21
11.5600239517
 31
0.0
 40
0.0631661312
 41
-1.3625760954
 42
-1.3174730036
  0
ELLIPSE
  5
2CB
100
AcDbEntity
  8
0
100
AcDbEllipse
 62
7
  6
BYLAYER
 10
32.768434302
 20
61.2105495103
 30
0.0
 11
-11.4626280056
 21
11.4912004934
 31
0.0
 40
0.1269935126
 41
-1.425539161
 42
-1.3804360692
  0
ELLIPSE
  5
2CC
100
AcDbEntity
  8
0
100
AcDbEllipse
 62
7
  6
BYLAYER
 10
32.6379367011
 20
61.2105495103
 30
0.0
 11
-11.3126576757
 21
11.377213794
 31
0.0
 40
0.1921623568
 41
-1.4883289622
 42
-1.4432258704
  0
ELLIPSE
  5
2CD
100
AcDbEntity
  8
0
100
AcDbEllipse
 62
7
  6
BYLAYER
 10
32.4583768796
 20
61.2105495103
 30
0.0
 11
-11.103573653
 21
11.2192358625
 31
0.0
 40
0.2593921815
 41
-1.5508240306
 42
-1.5057209388
  0
ELLIPSE
  5
2CE
100
AcDbEntity
  8
0
100
AcDbEllipse
 62
7
  6
BYLAYER
 10
32.232827156
 20
61.2105495103
 30
0.0
 11
-10.8359096051
 21
11.0191384116
 31
0.0
 40
0.3294650235
 41
-1.6128476156
 42
-1.5677445238
  0
ELLIPSE
  5
2CF
100
AcDbEntity
  8
0
100
AcDbEllipse
 62
7
  6
BYLAYER
 10
31.9651467485
 20
61.2105495103
 30
0.0
 11
-10.5096998268
 21
10.7798633581
 31
0.0
 40
0.4032531911
 41
-1.674117191
 42
-1.6290140991
  0
ELLIPSE
  5
2D0
100
AcDbEntity
  8
0
100
AcDbEllipse
 62
7
  6
BYLAYER
 10
31.6599157431
 20
61.2105495103
 30
0.0
 11
-10.1235279518
 21
10.5062434209
 31
0.0
 40
0.4817532195
 41
-1.7341357163
 42
-1.6890326245
  0
ELLIPSE
  5
2D1
100
AcDbEntity
  8
0
100
AcDbEllipse
 62
7
  6
BYLAYER
 10
31.322356727
 20
61.2105495103
 30
0.0
 11
-9.672197328
 21
10.207034137
 31
0.0
 40
0.5661264515
 41
-1.7919226086
 42
-1.7468195168
  0
ELLIPSE
  5
2D2
100
AcDbEntity
  8
0
100
AcDbEllipse
 62
7
  6
BYLAYER
 10
30.9582454284
 20
61.2105495103
 30
0.0
 11
-9.1398053983
 21
9.9008743148
 31
0.0
 40
0.657738698
 41
-1.8452140898
 42
-1.800110998
  0
ELLIPSE
  5
2D3
100
AcDbEntity
  8
0
100
AcDbEllipse
 62
7
  6
BYLAYER
 10
30.5738118928
 20
61.2105495103
 30
0.0
 11
-8.472058128
 21
9.6390686169
 31
0.0
 40
0.7581403628
 41
-1.8873170525
 42
-1.8422139607
  0
ELLIPSE
  5
2D4
100
AcDbEntity
  8
0
100
AcDbEllipse
 62
7
  6
BYLAYER
 10
30.1756338843
 20
61.2105495103
 30
0.0
 11
-7.3844602403
 21
9.6458827394
 31
0.0
 40
0.8684143762
 41
-1.8862553139
 42
-1.8411522221
  0
ELLIPSE
  5
2D5
100
AcDbEntity
  8
0
100
AcDbEllipse
 62
7
  6
BYLAYER
 10
29.7705243393
 20
61.2105495103
 30
0.0
 11
0.0
 21
11.5830346317
 31
0.0
 40
0.963433044
 41
-1.2995325731
 42
-1.2544294813
  0
ELLIPSE
  5
2D6
100
AcDbEntity
  8
0
100
AcDbEllipse
 62
7
  6
BYLAYER
 10
29.7705243393
 20
61.2105495103
 30
0.0
 11
0.0
 21
11.5830346317
 31
0.0
 40
0.963433044
 41
1.2544294813
 42
1.2995325731
  0
ELLIPSE
  5
2D7
100
AcDbEntity
  8
0
100
AcDbEllipse
 62
7
  6
BYLAYER
 10
28.6555704314
 20
68.6220653846
 30
0.0
 11
-8.0474192635
 21
10.195190748
 31
0.0
 40
0.7470541823
 41
7.6487390226
 42
7.6564043114
  0
ELLIPSE
  5
2D8
100
AcDbEntity
  8
0
100
AcDbEllipse
 62
7
  6
BYLAYER
 10
28.1219810946
 20
68.6220653846
 30
0.0
 11
-8.919591999
 21
10.3341729894
 31
0.0
 40
0.6468548444
 41
1.3891458436
 42
1.4042437082
  0
ELLIPSE
  5
2D9
100
AcDbEntity
  8
0
100
AcDbEllipse
 62
7
  6
BYLAYER
 10
27.6165987898
 20
68.6220653846
 30
0.0
 11
-9.5757833526
 21
10.5743403885
 31
0.0
 40
0.5552272381
 41
1.4324654912
 42
1.4530004825
  0
ELLIPSE
  5
2DA
100
AcDbEntity
  8
0
100
AcDbEllipse
 62
7
  6
BYLAYER
 10
27.1480707484
 20
68.6220653846
 30
0.0
 11
-10.1170563979
 21
10.8336078883
 31
0.0
 40
0.4711119558
 41
1.4838808103
 42
1.5086873121
  0
ELLIPSE
  5
2DB
100
AcDbEntity
  8
0
100
AcDbEllipse
 62
7
  6
BYLAYER
 10
26.7244136149
 20
68.6220653846
 30
0.0
 11
-10.57430594
 21
11.0811640271
 31
0.0
 40
0.3932536107
 41
1.5393435277
 42
1.5677038072
  0
ELLIPSE
  5
2DC
100
AcDbEntity
  8
0
100
AcDbEllipse
 62
7
  6
BYLAYER
 10
26.3528762805
 20
68.6220653846
 30
0.0
 11
-10.9583479679
 21
11.3026503924
 31
0.0
 40
0.32049021
 41
-4.6861070975
 42
-4.654642007
  0
ELLIPSE
  5
2DD
100
AcDbEntity
  8
0
100
AcDbEllipse
 62
7
  6
BYLAYER
 10
26.0398158519
 20
68.6220653846
 30
0.0
 11
-11.272755276
 21
11.4903624333
 31
0.0
 40
0.2517837063
 41
-4.6270055636
 42
-4.5927144083
  0
ELLIPSE
  5
2DE
100
AcDbEntity
  8
0
100
AcDbEllipse
 62
7
  6
BYLAYER
 10
25.7905888799
 20
68.6220653846
 30
0.0
 11
-11.5182116851
 21
11.6397811956
 31
0.0
 40
0.1862029912
 41
-4.5670523798
 42
-4.5304377939
  0
ELLIPSE
  5
2DF
100
AcDbEntity
  8
0
100
AcDbEllipse
 62
7
  6
BYLAYER
 10
25.6094597071
 20
68.6220653846
 30
0.0
 11
-11.6942962282
 21
11.7481381864
 31
0.0
 40
0.1228992729
 41
-4.5065690802
 42
-4.4672503272
  0
ELLIPSE
  5
2E0
100
AcDbEntity
  8
0
100
AcDbEllipse
 62
7
  6
BYLAYER
 10
25.4995275037
 20
68.6220653846
 30
0.0
 11
-11.8003161272
 21
11.8137551981
 31
0.0
 40
0.0610824685
 41
-4.4457753751
 42
-4.4036558199
  0
ELLIPSE
  5
2E1
100
AcDbEntity
  8
0
100
AcDbEllipse
 62
7
  6
BYLAYER
 10
30.5738118928
 20
61.2105495103
 30
0.0
 11
-8.472058128
 21
9.6390686169
 31
0.0
 40
0.7581403628
 41
0.6666450018
 42
0.7117480936
  0
ELLIPSE
  5
2E2
100
AcDbEntity
  8
0
100
AcDbEllipse
 62
7
  6
BYLAYER
 10
30.9582454284
 20
61.2105495103
 30
0.0
 11
-9.1398053983
 21
9.9008743148
 31
0.0
 40
0.657738698
 41
0.7087479645
 42
0.7538510564
  0
ELLIPSE
  5
2E3
100
AcDbEntity
  8
0
100
AcDbEllipse
 62
7
  6
BYLAYER
 10
31.322356727
 20
61.2105495103
 30
0.0
 11
-9.672197328
 21
10.207034137
 31
0.0
 40
0.5661264515
 41
0.7620394457
 42
0.8071425375
  0
ELLIPSE
  5
2E4
100
AcDbEntity
  8
0
100
AcDbEllipse
 62
7
  6
BYLAYER
 10
31.6599157431
 20
61.2105495103
 30
0.0
 11
-10.1235279518
 21
10.5062434209
 31
0.0
 40
0.4817532195
 41
0.819826338
 42
0.8649294298
  0
ELLIPSE
  5
2E5
100
AcDbEntity
  8
0
100
AcDbEllipse
 62
7
  6
BYLAYER
 10
31.9651467485
 20
61.2105495103
 30
0.0
 11
-10.5096998268
 21
10.7798633581
 31
0.0
 40
0.4032531911
 41
0.8798448634
 42
0.9249479552
  0
ELLIPSE
  5
2E6
100
AcDbEntity
  8
0
100
AcDbEllipse
 62
7
  6
BYLAYER
 10
32.232827156
 20
61.2105495103
 30
0.0
 11
-10.8359096051
 21
11.0191384116
 31
0.0
 40
0.3294650235
 41
0.9411144387
 42
0.9862175305
  0
ELLIPSE
  5
2E7
100
AcDbEntity
  8
0
100
AcDbEllipse
 62
7
  6
BYLAYER
 10
32.4583768796
 20
61.2105495103
 30
0.0
 11
-11.103573653
 21
11.2192358625
 31
0.0
 40
0.2593921815
 41
1.0031380237
 42
1.0482411156
  0
ELLIPSE
  5
2E8
100
AcDbEntity
  8
0
100
AcDbEllipse
 62
7
  6
BYLAYER
 10
32.6379367011
 20
61.2105495103
 30
0.0
 11
-11.3126576757
 21
11.377213794
 31
0.0
 40
0.1921623568
 41
1.0656330921
 42
1.1107361839
  0
ELLIPSE
  5
2E9
100
AcDbEntity
  8
0
100
AcDbEllipse
 62
7
  6
BYLAYER
 10
32.768434302
 20
61.2105495103
 30
0.0
 11
-11.4626280056
 21
11.4912004934
 31
0.0
 40
0.1269935126
 41
1.1284228933
 42
1.1735259851
  0
ELLIPSE
  5
2EA
100
AcDbEntity
  8
0
100
AcDbEllipse
 62
7
  6
BYLAYER
 10
32.8476368323
 20
61.2105495103
 30
0.0
 11
-11.5528949874
 21
11.5600239517
 31
0.0
 40
0.0631661312
 41
1.1913859589
 42
1.2364890507
  0
ELLIPSE
  5
2EB
100
AcDbEntity
  8
0
100
AcDbEllipse
 62
7
  6
BYLAYER
 10
27.3082215225
 20
61.2105495103
 30
0.0
 11
10.8359096051
 21
11.0191384116
 31
0.0
 40
0.3294650235
 41
-0.9862175305
 42
-0.9411144387
  0
ELLIPSE
  5
2EC
100
AcDbEntity
  8
0
100
AcDbEllipse
 62
7
  6
BYLAYER
 10
27.57590193
 20
61.2105495103
 30
0.0
 11
10.5096998268
 21
10.7798633581
 31
0.0
 40
0.4032531911
 41
-0.9249479552
 42
-0.8798448634
  0
ELLIPSE
  5
2ED
100
AcDbEntity
  8
0
100
AcDbEllipse
 62
7
  6
BYLAYER
 10
27.8811329354
 20
61.2105495103
 30
0.0
 11
10.1235279518
 21
10.5062434209
 31
0.0
 40
0.4817532195
 41
-0.8649294298
 42
-0.819826338
  0
ELLIPSE
  5
2EE
100
AcDbEntity
  8
0
100
AcDbEllipse
 62
7
  6
BYLAYER
 10
28.2186919515
 20
61.2105495103
 30
0.0
 11
9.672197328
 21
10.207034137
 31
0.0
 40
0.5661264515
 41
-0.8071425375
 42
-0.7620394457
  0
ELLIPSE
  5
2EF
100
AcDbEntity
  8
0
100
AcDbEllipse
 62
7
  6
BYLAYER
 10
26.9031119774
 20
61.2105495103
 30
0.0
 11
11.3126576757
 21
11.377213794
 31
0.0
 40
0.1921623568
 41
-1.1107361839
 42
-1.0656330921
  0
ELLIPSE
  5
2F0
100
AcDbEntity
  8
0
100
AcDbEllipse
 62
7
  6
BYLAYER
 10
28.5828032501
 20
61.2105495103
 30
0.0
 11
9.1398053983
 21
9.9008743148
 31
0.0
 40
0.657738698
 41
-0.7538510564
 42
-0.7087479645
  0
ELLIPSE
  5
2F1
100
AcDbEntity
  8
0
100
AcDbEllipse
 62
7
  6
BYLAYER
 10
26.6934118462
 20
61.2105495103
 30
0.0
 11
11.5528949874
 21
11.5600239517
 31
0.0
 40
0.0631661312
 41
-1.2364890507
 42
-1.1913859589
  0
ELLIPSE
  5
2F2
100
AcDbEntity
  8
0
100
AcDbEllipse
 62
7
  6
BYLAYER
 10
28.9672367858
 20
61.2105495103
 30
0.0
 11
8.472058128
 21
9.6390686169
 31
0.0
 40
0.7581403628
 41
-0.7117480936
 42
-0.6666450018
  0
ELLIPSE
  5
2F3
100
AcDbEntity
  8
0
100
AcDbEllipse
 62
7
  6
BYLAYER
 10
27.0826717989
 20
61.2105495103
 30
0.0
 11
11.103573653
 21
11.2192358625
 31
0.0
 40
0.2593921815
 41
-1.0482411156
 42
-1.0031380237
  0
ELLIPSE
  5
2F4
100
AcDbEntity
  8
0
100
AcDbEllipse
 62
7
  6
BYLAYER
 10
26.7726143765
 20
61.2105495103
 30
0.0
 11
11.4626280056
 21
11.4912004934
 31
0.0
 40
0.1269935126
 41
-1.1735259851
 42
-1.1284228933
  0
ELLIPSE
  5
2F5
100
AcDbEntity
  8
0
100
AcDbEllipse
 62
7
  6
BYLAYER
 10
29.3654147942
 20
61.2105495103
 30
0.0
 11
7.3844602403
 21
9.6458827394
 31
0.0
 40
0.8684143762
 41
-0.7128098322
 42
-0.6677067404
  0
ELLIPSE
  5
2F6
100
AcDbEntity
  8
0
100
AcDbEllipse
 62
7
  6
BYLAYER
 10
30.1756338843
 20
61.2105495103
 30
0.0
 11
-7.3844602403
 21
9.6458827394
 31
0.0
 40
0.8684143762
 41
0.6677067404
 42
0.7128098322
  0
ELLIPSE
  5
2F7
100
AcDbEntity
  8
0
100
AcDbEllipse
 62
7
  6
BYLAYER
 10
34.0415211748
 20
63.6063631869
 30
0.0
 11
-11.8003161272
 21
11.8137551981
 31
0.0
 40
0.0610824685
 41
-1.3041827215
 42
-1.2620631663
  0
ELLIPSE
  5
2F8
100
AcDbEntity
  8
0
100
AcDbEllipse
 62
7
  6
BYLAYER
 10
33.9315889714
 20
63.6063631869
 30
0.0
 11
-11.6942962282
 21
11.7481381864
 31
0.0
 40
0.1228992729
 41
-1.3649764266
 42
-1.3256576737
  0
ELLIPSE
  5
2F9
100
AcDbEntity
  8
0
100
AcDbEllipse
 62
7
  6
BYLAYER
 10
33.7504597986
 20
63.6063631869
 30
0.0
 11
-11.5182116851
 21
11.6397811956
 31
0.0
 40
0.1862029912
 41
-1.4254597263
 42
-1.3888451403
  0
ELLIPSE
  5
2FA
100
AcDbEntity
  8
0
100
AcDbEllipse
 62
7
  6
BYLAYER
 10
33.5012328266
 20
63.6063631869
 30
0.0
 11
-11.272755276
 21
11.4903624333
 31
0.0
 40
0.2517837063
 41
-1.48541291
 42
-1.4511217548
  0
ELLIPSE
  5
2FB
100
AcDbEntity
  8
0
100
AcDbEllipse
 62
7
  6
BYLAYER
 10
33.188172398
 20
63.6063631869
 30
0.0
 11
-10.9583479679
 21
11.3026503924
 31
0.0
 40
0.32049021
 41
-1.5445144439
 42
-1.5130493534
  0
ELLIPSE
  5
2FC
100
AcDbEntity
  8
0
100
AcDbEllipse
 62
7
  6
BYLAYER
 10
32.8166350636
 20
63.6063631869
 30
0.0
 11
-10.57430594
 21
11.0811640271
 31
0.0
 40
0.3932536107
 41
-1.6022491259
 42
-1.5738888464
  0
ELLIPSE
  5
2FD
100
AcDbEntity
  8
0
100
AcDbEllipse
 62
7
  6
BYLAYER
 10
32.3929779301
 20
63.6063631869
 30
0.0
 11
-10.1170563979
 21
10.8336078883
 31
0.0
 40
0.4711119558
 41
-1.6577118433
 42
-1.6329053414
  0
ELLIPSE
  5
2FE
100
AcDbEntity
  8
0
100
AcDbEllipse
 62
7
  6
BYLAYER
 10
31.9244498887
 20
63.6063631869
 30
0.0
 11
-9.5757833526
 21
10.5743403885
 31
0.0
 40
0.5552272381
 41
-1.7091271624
 42
-1.6885921711
  0
ELLIPSE
  5
2FF
100
AcDbEntity
  8
0
100
AcDbEllipse
 62
7
  6
BYLAYER
 10
31.4190675839
 20
63.6063631869
 30
0.0
 11
-8.919591999
 21
10.3341729894
 31
0.0
 40
0.6468548444
 41
-1.75244681
 42
-1.7373489454
  0
ELLIPSE
  5
300
100
AcDbEntity
  8
0
100
AcDbEllipse
 62
7
  6
BYLAYER
 10
30.8854782471
 20
63.6063631869
 30
0.0
 11
-8.0474192635
 21
10.195190748
 31
0.0
 40
0.7470541823
 41
4.507146369
 42
4.5148116578
  0
ELLIPSE
  5
301
100
AcDbEntity
  8
0
100
AcDbEllipse
 62
7
  6
BYLAYER
 10
30.1756338843
 20
71.0178790612
 30
0.0
 11
7.3844602403
 21
9.6458827394
 31
0.0
 40
0.8684143762
 41
-1.3004404315
 42
-1.2553373397
  0
ELLIPSE
  5
302
100
AcDbEntity
  8
0
100
AcDbEllipse
 62
7
  6
BYLAYER
 10
30.5738118928
 20
71.0178790612
 30
0.0
 11
8.472058128
 21
9.6390686169
 31
0.0
 40
0.7581403628
 41
-1.2993786929
 42
-1.2542756011
  0
ELLIPSE
  5
303
100
AcDbEntity
  8
0
100
AcDbEllipse
 62
7
  6
BYLAYER
 10
30.9582454284
 20
71.0178790612
 30
0.0
 11
9.1398053983
 21
9.9008743148
 31
0.0
 40
0.657738698
 41
-1.3414816556
 42
-1.2963785638
  0
ELLIPSE
  5
304
100
AcDbEntity
  8
0
100
AcDbEllipse
 62
7
  6
BYLAYER
 10
31.322356727
 20
71.0178790612
 30
0.0
 11
9.672197328
 21
10.207034137
 31
0.0
 40
0.5661264515
 41
-1.3947731368
 42
-1.349670045
  0
ELLIPSE
  5
305
100
AcDbEntity
  8
0
100
AcDbEllipse
 62
7
  6
BYLAYER
 10
29.3654147942
 20
71.0178790612
 30
0.0
 11
-7.3844602403
 21
9.6458827394
 31
0.0
 40
0.8684143762
 41
1.2553373397
 42
1.3004404315
  0
ELLIPSE
  5
306
100
AcDbEntity
  8
0
100
AcDbEllipse
 62
7
  6
BYLAYER
 10
31.6599157431
 20
71.0178790612
 30
0.0
 11
10.1235279518
 21
10.5062434209
 31
0.0
 40
0.4817532195
 41
-1.4525600291
 42
-1.4074569373
  0
ELLIPSE
  5
307
100
AcDbEntity
  8
0
100
AcDbEllipse
 62
7
  6
BYLAYER
 10
28.9672367858
 20
71.0178790612
 30
0.0
 11
-8.472058128
 21
9.6390686169
 31
0.0
 40
0.7581403628
 41
1.2542756011
 42
1.2993786929
  0
ELLIPSE
  5
308
100
AcDbEntity
  8
0
100
AcDbEllipse
 62
7
  6
BYLAYER
 10
28.5828032501
 20
71.0178790612
 30
0.0
 11
-9.1398053983
 21
9.9008743148
 31
0.0
 40
0.657738698
 41
1.2963785638
 42
1.3414816556
  0
ELLIPSE
  5
309
100
AcDbEntity
  8
0
100
AcDbEllipse
 62
7
  6
BYLAYER
 10
28.2186919515
 20
71.0178790612
 30
0.0
 11
-9.672197328
 21
10.207034137
 31
0.0
 40
0.5661264515
 41
1.349670045
 42
1.3947731368
  0
ELLIPSE
  5
30A
100
AcDbEntity
  8
0
100
AcDbEllipse
 62
7
  6
BYLAYER
 10
27.8811329354
 20
71.0178790612
 30
0.0
 11
-10.1235279518
 21
10.5062434209
 31
0.0
 40
0.4817532195
 41
1.4074569373
 42
1.4525600291
  0
ELLIPSE
  5
30B
100
AcDbEntity
  8
0
100
AcDbEllipse
 62
7
  6
BYLAYER
 10
31.9651467485
 20
71.0178790612
 30
0.0
 11
10.5096998268
 21
10.7798633581
 31
0.0
 40
0.4032531911
 41
-1.5125785545
 42
-1.4674754626
  0
ELLIPSE
  5
30C
100
AcDbEntity
  8
0
100
AcDbEllipse
 62
7
  6
BYLAYER
 10
27.57590193
 20
71.0178790612
 30
0.0
 11
-10.5096998268
 21
10.7798633581
 31
0.0
 40
0.4032531911
 41
1.4674754626
 42
1.5125785545
  0
ELLIPSE
  5
30D
100
AcDbEntity
  8
0
100
AcDbEllipse
 62
7
  6
BYLAYER
 10
27.3082215225
 20
71.0178790612
 30
0.0
 11
-10.8359096051
 21
11.0191384116
 31
0.0
 40
0.3294650235
 41
1.5287450379
 42
1.5738481298
  0
ELLIPSE
  5
30E
100
AcDbEntity
  8
0
100
AcDbEllipse
 62
7
  6
BYLAYER
 10
27.0826717989
 20
71.0178790612
 30
0.0
 11
-11.103573653
 21
11.2192358625
 31
0.0
 40
0.2593921815
 41
-4.6924166842
 42
-4.6473135924
  0
ELLIPSE
  5
30F
100
AcDbEntity
  8
0
100
AcDbEllipse
 62
7
  6
BYLAYER
 10
26.9031119774
 20
71.0178790612
 30
0.0
 11
-11.3126576757
 21
11.377213794
 31
0.0
 40
0.1921623568
 41
-4.6299216158
 42
-4.584818524
  0
ELLIPSE
  5
310
100
AcDbEntity
  8
0
100
AcDbEllipse
 62
7
  6
BYLAYER
 10
32.232827156
 20
71.0178790612
 30
0.0
 11
10.8359096051
 21
11.0191384116
 31
0.0
 40
0.3294650235
 41
-1.5738481298
 42
-1.5287450379
  0
ELLIPSE
  5
311
100
AcDbEntity
  8
0
100
AcDbEllipse
 62
7
  6
BYLAYER
 10
26.7726143765
 20
71.0178790612
 30
0.0
 11
-11.4626280056
 21
11.4912004934
 31
0.0
 40
0.1269935126
 41
-4.5671318146
 42
-4.5220287228
  0
ELLIPSE
  5
312
100
AcDbEntity
  8
0
100
AcDbEllipse
 62
7
  6
BYLAYER
 10
26.6934118462
 20
71.0178790612
 30
0.0
 11
-11.5528949874
 21
11.5600239517
 31
0.0
 40
0.0631661312
 41
-4.504168749
 42
-4.4590656572
  0
ELLIPSE
  5
313
100
AcDbEntity
  8
0
100
AcDbEllipse
 62
7
  6
BYLAYER
 10
32.4583768796
 20
71.0178790612
 30
0.0
 11
11.103573653
 21
11.2192358625
 31
0.0
 40
0.2593921815
 41
-1.6358717148
 42
-1.590768623
  0
ELLIPSE
  5
314
100
AcDbEntity
  8
0
100
AcDbEllipse
 62
7
  6
BYLAYER
 10
32.6379367011
 20
71.0178790612
 30
0.0
 11
11.3126576757
 21
11.377213794
 31
0.0
 40
0.1921623568
 41
-1.6983667832
 42
-1.6532636914
  0
ELLIPSE
  5
315
100
AcDbEntity
  8
0
100
AcDbEllipse
 62
7
  6
BYLAYER
 10
32.768434302
 20
71.0178790612
 30
0.0
 11
11.4626280056
 21
11.4912004934
 31
0.0
 40
0.1269935126
 41
-1.7611565844
 42
-1.7160534926
  0
ELLIPSE
  5
316
100
AcDbEntity
  8
0
100
AcDbEllipse
 62
7
  6
BYLAYER
 10
29.7705243393
 20
71.0178790612
 30
0.0
 11
-0.0
 21
11.5830346317
 31
0.0
 40
0.963433044
 41
-4.4411252267
 42
-4.3960221348
  0
ELLIPSE
  5
317
100
AcDbEntity
  8
0
100
AcDbEllipse
 62
7
  6
BYLAYER
 10
32.8476368323
 20
71.0178790612
 30
0.0
 11
11.5528949874
 21
11.5600239517
 31
0.0
 40
0.0631661312
 41
-1.82411965
 42
-1.7790165582
  0
ELLIPSE
  5
318
100
AcDbEntity
  8
0
100
AcDbEllipse
 62
7
  6
BYLAYER
 10
29.7705243393
 20
71.0178790612
 30
0.0
 11
0.0
 21
11.5830346317
 31
0.0
 40
0.963433044
 41
-1.8871631723
 42
-1.8420600805
  0
ELLIPSE
  5
319
100
AcDbEntity
  8
0
100
AcDbEllipse
 62
7
  6
BYLAYER
 10
25.4995275037
 20
63.6063631869
 30
0.0
 11
11.8003161272
 21
11.8137551981
 31
0.0
 40
0.0610824685
 41
1.2620631389
 42
1.3041827215
  0
ELLIPSE
  5
31A
100
AcDbEntity
  8
0
100
AcDbEllipse
 62
7
  6
BYLAYER
 10
25.6094597071
 20
63.6063631869
 30
0.0
 11
11.6942962282
 21
11.7481381864
 31
0.0
 40
0.1228992729
 41
1.3256576229
 42
1.3649764266
  0
ELLIPSE
  5
31B
100
AcDbEntity
  8
0
100
AcDbEllipse
 62
7
  6
BYLAYER
 10
25.7905888799
 20
63.6063631869
 30
0.0
 11
11.5182116851
 21
11.6397811956
 31
0.0
 40
0.1862029912
 41
1.3888450694
 42
1.4254597263
  0
ELLIPSE
  5
31C
100
AcDbEntity
  8
0
100
AcDbEllipse
 62
7
  6
BYLAYER
 10
26.0398158519
 20
63.6063631869
 30
0.0
 11
11.272755276
 21
11.4903624333
 31
0.0
 40
0.2517837063
 41
1.4511216746
 42
1.48541291
  0
ELLIPSE
  5
31D
100
AcDbEntity
  8
0
100
AcDbEllipse
 62
7
  6
BYLAYER
 10
26.3528762805
 20
63.6063631869
 30
0.0
 11
10.9583479679
 21
11.3026503924
 31
0.0
 40
0.32049021
 41
1.5130492608
 42
1.5445144439
  0
ELLIPSE
  5
31E
100
AcDbEntity
  8
0
100
AcDbEllipse
 62
7
  6
BYLAYER
 10
26.7244136149
 20
63.6063631869
 30
0.0
 11
10.57430594
 21
11.0811640271
 31
0.0
 40
0.3932536107
 41
-4.7092964661
 42
-4.6809361813
  0
ELLIPSE
  5
31F
100
AcDbEntity
  8
0
100
AcDbEllipse
 62
7
  6
BYLAYER
 10
27.1480707484
 20
63.6063631869
 30
0.0
 11
10.1170563979
 21
10.8336078883
 31
0.0
 40
0.4711119558
 41
-4.6502799843
 42
-4.6254734639
  0
ELLIPSE
  5
320
100
AcDbEntity
  8
0
100
AcDbEllipse
 62
7
  6
BYLAYER
 10
27.6165987898
 20
63.6063631869
 30
0.0
 11
9.5757833526
 21
10.5743403885
 31
0.0
 40
0.5552272381
 41
-4.594593163
 42
-4.5740581448
  0
ELLIPSE
  5
321
100
AcDbEntity
  8
0
100
AcDbEllipse
 62
7
  6
BYLAYER
 10
28.1219810946
 20
63.6063631869
 30
0.0
 11
8.919591999
 21
10.3341729894
 31
0.0
 40
0.6468548444
 41
-4.5458363873
 42
-4.5307384971
  0
ELLIPSE
  5
322
100
AcDbEntity
  8
0
100
AcDbEllipse
 62
7
  6
BYLAYER
 10
28.6555704314
 20
63.6063631869
 30
0.0
 11
8.0474192635
 21
10.195190748
 31
0.0
 40
0.7470541823
 41
-4.5148116839
 42
-4.507146369
  0
ELLIPSE
  5
323
100
AcDbEntity
  8
0
100
AcDbEllipse
 62
7
  6
BYLAYER
 10
28.9672367858
 20
71.0178790612
 30
0.0
 11
-8.472058128
 21
9.6390686169
 31
0.0
 40
0.7581403628
 41
-2.4749476518
 42
-2.42984456
  0
ELLIPSE
  5
324
100
AcDbEntity
  8
0
100
AcDbEllipse
 62
7
  6
BYLAYER
 10
32.232827156
 20
71.0178790612
 30
0.0
 11
10.8359096051
 21
11.0191384116
 31
0.0
 40
0.3294650235
 41
-4.1278101841
 42
-4.0827070923
  0
ELLIPSE
  5
325
100
AcDbEntity
  8
0
100
AcDbEllipse
 62
7
  6
BYLAYER
 10
29.3654147942
 20
71.0178790612
 30
0.0
 11
-7.3844602403
 21
9.6458827394
 31
0.0
 40
0.8684143762
 41
-2.4738859132
 42
-2.4287828214
  0
ELLIPSE
  5
326
100
AcDbEntity
  8
0
100
AcDbEllipse
 62
7
  6
BYLAYER
 10
31.9651467485
 20
71.0178790612
 30
0.0
 11
10.5096998268
 21
10.7798633581
 31
0.0
 40
0.4032531911
 41
-4.0665406088
 42
-4.021437517
  0
ELLIPSE
  5
327
100
AcDbEntity
  8
0
100
AcDbEllipse
 62
7
  6
BYLAYER
 10
31.6599157431
 20
71.0178790612
 30
0.0
 11
10.1235279518
 21
10.5062434209
 31
0.0
 40
0.4817532195
 41
-4.0065220834
 42
-3.9614189916
  0
ELLIPSE
  5
328
100
AcDbEntity
  8
0
100
AcDbEllipse
 62
7
  6
BYLAYER
 10
32.8476368323
 20
71.0178790612
 30
0.0
 11
11.5528949874
 21
11.5600239517
 31
0.0
 40
0.0631661312
 41
-4.3780817043
 42
-4.3329786125
  0
ELLIPSE
  5
329
100
AcDbEntity
  8
0
100
AcDbEllipse
 62
7
  6
BYLAYER
 10
31.322356727
 20
71.0178790612
 30
0.0
 11
9.672197328
 21
10.207034137
 31
0.0
 40
0.5661264515
 41
-3.9487351911
 42
-3.9036320993
  0
ELLIPSE
  5
32A
100
AcDbEntity
  8
0
100
AcDbEllipse
 62
7
  6
BYLAYER
 10
26.6934118462
 20
71.0178790612
 30
0.0
 11
-11.5528949874
 21
11.5600239517
 31
0.0
 40
0.0631661312
 41
-1.9502066947
 42
-1.9051036029
  0
ELLIPSE
  5
32B
100
AcDbEntity
  8
0
100
AcDbEllipse
 62
7
  6
BYLAYER
 10
30.9582454284
 20
71.0178790612
 30
0.0
 11
9.1398053983
 21
9.9008743148
 31
0.0
 40
0.657738698
 41
-3.8954437099
 42
-3.8503406181
  0
ELLIPSE
  5
32C
100
AcDbEntity
  8
0
100
AcDbEllipse
 62
7
  6
BYLAYER
 10
32.768434302
 20
71.0178790612
 30
0.0
 11
11.4626280056
 21
11.4912004934
 31
0.0
 40
0.1269935126
 41
-4.3151186387
 42
-4.2700155469
  0
ELLIPSE
  5
32D
100
AcDbEntity
  8
0
100
AcDbEllipse
 62
7
  6
BYLAYER
 10
26.7726143765
 20
71.0178790612
 30
0.0
 11
-11.4626280056
 21
11.4912004934
 31
0.0
 40
0.1269935126
 41
-2.0131697603
 42
-1.9680666685
  0
ELLIPSE
  5
32E
100
AcDbEntity
  8
0
100
AcDbEllipse
 62
7
  6
BYLAYER
 10
26.9031119774
 20
71.0178790612
 30
0.0
 11
-11.3126576757
 21
11.377213794
 31
0.0
 40
0.1921623568
 41
-2.0759595615
 42
-2.0308564696
  0
ELLIPSE
  5
32F
100
AcDbEntity
  8
0
100
AcDbEllipse
 62
7
  6
BYLAYER
 10
30.5738118928
 20
71.0178790612
 30
0.0
 11
8.472058128
 21
9.6390686169
 31
0.0
 40
0.7581403628
 41
-3.8533407472
 42
-3.8082376554
  0
ELLIPSE
  5
330
100
AcDbEntity
  8
0
100
AcDbEllipse
 62
7
  6
BYLAYER
 10
27.0826717989
 20
71.0178790612
 30
0.0
 11
-11.103573653
 21
11.2192358625
 31
0.0
 40
0.2593921815
 41
-2.1384546298
 42
-2.093351538
  0
ELLIPSE
  5
331
100
AcDbEntity
  8
0
100
AcDbEllipse
 62
7
  6
BYLAYER
 10
32.6379367011
 20
71.0178790612
 30
0.0
 11
11.3126576757
 21
11.377213794
 31
0.0
 40
0.1921623568
 41
-4.2523288375
 42
-4.2072257457
  0
ELLIPSE
  5
332
100
AcDbEntity
  8
0
100
AcDbEllipse
 62
7
  6
BYLAYER
 10
27.3082215225
 20
71.0178790612
 30
0.0
 11
-10.8359096051
 21
11.0191384116
 31
0.0
 40
0.3294650235
 41
-2.2004782149
 42
-2.1553751231
  0
ELLIPSE
  5
333
100
AcDbEntity
  8
0
100
AcDbEllipse
 62
7
  6
BYLAYER
 10
27.57590193
 20
71.0178790612
 30
0.0
 11
-10.5096998268
 21
10.7798633581
 31
0.0
 40
0.4032531911
 41
-2.2617477902
 42
-2.2166446984
  0
ELLIPSE
  5
334
100
AcDbEntity
  8
0
100
AcDbEllipse
 62
7
  6
BYLAYER
 10
30.1756338843
 20
71.0178790612
 30
0.0
 11
7.3844602403
 21
9.6458827394
 31
0.0
 40
0.8684143762
 41
-3.8544024858
 42
-3.809299394
  0
ELLIPSE
  5
335
100
AcDbEntity
  8
0
100
AcDbEllipse
 62
7
  6
BYLAYER
 10
27.8811329354
 20
71.0178790612
 30
0.0
 11
-10.1235279518
 21
10.5062434209
 31
0.0
 40
0.4817532195
 41
-2.3217663156
 42
-2.2766632237
  0
ELLIPSE
  5
336
100
AcDbEntity
  8
0
100
AcDbEllipse
 62
7
  6
BYLAYER
 10
32.4583768796
 20
71.0178790612
 30
0.0
 11
11.103573653
 21
11.2192358625
 31
0.0
 40
0.2593921815
 41
-4.1898337691
 42
-4.1447306773
  0
ELLIPSE
  5
337
100
AcDbEntity
  8
0
100
AcDbEllipse
 62
7
  6
BYLAYER
 10
28.2186919515
 20
71.0178790612
 30
0.0
 11
-9.672197328
 21
10.207034137
 31
0.0
 40
0.5661264515
 41
-2.3795532079
 42
-2.3344501161
  0
ELLIPSE
  5
338
100
AcDbEntity
  8
0
100
AcDbEllipse
 62
7
  6
BYLAYER
 10
28.5828032501
 20
71.0178790612
 30
0.0
 11
-9.1398053983
 21
9.9008743148
 31
0.0
 40
0.657738698
 41
-2.432844689
 42
-2.3877415972
  0
ENDSEC
  0
SECTION
  2
OBJECTS
  0
DICTIONARY
  5
C
100
AcDbDictionary
280
0
281
1
  3
ACAD_GROUP
350
D
  3
ACAD_MLINESTYLE
350
17
  3
ACAD_LAYOUT
350
1A
  3
ACAD_PLOTSETTINGS
350
19
  3
ACAD_PLOTSTYLENAME
350
E
  0
DICTIONARY
  5
D
102
{ACAD_REACTORS
330
C
102
}
100
AcDbDictionary
280
0
281
1
  0
ACDBDICTIONARYWDFLT
  5
E
102
{ACAD_REACTORS
330
C
102
}
100
AcDbDictionary
281
1
  3
Normal
350
F
100
AcDbDictionaryWithDefault
340
F
  0
DICTIONARY
  5
17
102
{ACAD_REACTORS
330
C
102
}
100
AcDbDictionary
280
0
281
1
  3
Standard
350
18
  0
DICTIONARY
  5
19
102
{ACAD_REACTORS
330
C
102
}
100
AcDbDictionary
281
1
  0
DICTIONARY
  5
1A
102
{ACAD_REACTORS
330
C
102
}
100
AcDbDictionary
281
1
  3
Model
350
339
  3
Layout1
350
33A
  0
ACDBPLACEHOLDER
  5
F
102
{ACAD_REACTORS
330
E
102
}
  0
MLINESTYLE
  5
18
102
{ACAD_REACTORS
330
17
102
}
100
AcDbMlineStyle
  2
STANDARD
 70
0
  3

 62
256
 51
90.0
 52
90.0
 71
2
 49
0.5
 62
256
  6
BYLAYER
 49
-0.5
 62
256
  6
BYLAYER
  0
LAYOUT
  5
339
102
{ACAD_REACTORS
330
1A
102
}
100
AcDbPlotSettings
  1

  2
none_device
  4

  6

 40
0.0
 41
0.0
 42
0.0
 43
0.0
 44
210.0
 45
297.0
 46
0.0
 47
0.0
 48
0.0
 49
0.0
140
0.0
141
0.0
142
1.0
143
1.0
 70
1024
 72
1
 73
0
 74
0
  7

 75
0
147
1.0
148
0.0
149
0.0
100
AcDbLayout
  1
Model
 70
0
 71
0
 10
0.0
 20
0.0
 11
210.0
 21
297.0
 12
0.0
 22
0.0
 32
0.0
 14
0.0
 24
0.0
 34
0.0
 15
0.0
 25
0.0
 35
0.0
146
0.0
 13
0.0
 23
0.0
 33
0.0
 16
1.0
 26
0.0
 36
0.0
 17
0.0
 27
1.0
 37
0.0
 76
0
330
210
345
0
346
0
  0
LAYOUT
  5
33A
102
{ACAD_REACTORS
330
1A
102
}
100
AcDbPlotSettings
  1

  2
none_device
  4

  6

 40
0.0
 41
0.0
 42
0.0
 43
0.0
 44
210.0
 45
297.0
 46
0.0
 47
0.0
 48
0.0
 49
0.0
140
0.0
141
0.0
142
1.0
143
1.0
 70
0
 72
1
 73
0
 74
0
  7

 75
0
147
1.0
148
0.0
149
0.0
100
AcDbLayout
  1
Layout1
 70
0
 71
1
 10
0.0
 20
0.0
 11
210.0
 21
297.0
 12
0.0
 22
0.0
 32
0.0
 14
0.0
 24
0.0
 34
0.0
 15
0.0
 25
0.0
 35
0.0
146
0.0
 13
0.0
 23
0.0
 33
0.0
 16
1.0
 26
0.0
 36
0.0
 17
0.0
 27
1.0
 37
0.0
 76
0
330
211
345
0
346
0
  0
ENDSEC
  0
EOF
