999
DXF file: C:\Users\sesa63760\Dev\_Creo\CAD\MCADID0004483_3D-CAD\drw0001_1.dxf
999
Pro/ENGINEER 2019471 by Parametric Technology Corporation
  0
SECTION
  2
HEADER
  9
$ACADVER
  1
AC1024
  9
$DWGCODEPAGE
  3
ANSI_1252
  9
$EXTMAX
 10
38.2790275271
 20
54.1374817883
 30
0.0
  9
$EXTMIN
 10
0.0
 20
0.0
 30
0.0
  9
$LIMMIN
 10
0.0
 20
0.0
  9
$LIMMAX
 10
38.2790275271
 20
54.1374817883
  9
$VIEWCTR
 10
19.1395137635
 20
27.0687408942
  9
$VIEWSIZE
 40
54.1374817883
  9
$CLAYER
  8
0
  9
$LTSCALE
 40
3.5289617758
  9
$CELTYPE
  6
BYLAYER
  9
$DIMSCALE
 40
1.0
  9
$DIMASZ
 40
0.4557027087
  9
$DIMEXO
 40
1.0
  9
$DIMDLI
 40
2.4381917724
  9
$DIMEXE
 40
1.0
  9
$DIMCEN
 40
0.5774664724
  9
$DIMLFAC
 40
1.0
  9
$DIMBLK
  1
_FILLED
  9
$DIMALT
 70
0
  9
$DIMALTF
 40
0.0393700787
  9
$DIMTXT
 40
0.6379837921
  9
$DIMTOL
 70
1
  9
$DIMLIM
 70
0
  9
$DIMTFAC
 40
1.0
  9
$DIMTP
 40
0.01
  9
$DIMTM
 40
0.01
  9
$DIMGAP
 40
0.625
  9
$DIMDSEP
 70
46
  9
$AUNITS
 70
0
  9
$PDMODE
 70
3
  9
$PDSIZE
 40
0.3125
  9
$HANDSEED
  5
28E
  9
$TILEMODE
 70
1
  9
$MEASUREMENT
 70
1
  9
$INSUNITS
 70
4
  0
ENDSEC
  0
SECTION
  2
CLASSES
  0
CLASS
  1
ACDBDICTIONARYWDFLT
  2
AcDbDictionaryWithDefault
  3
AutoCAD 2000
 90
0
 91
1
280
0
281
0
  0
CLASS
  1
ACDBPLACEHOLDER
  2
AcDbPlaceHolder
  3
AutoCAD 2000
 90
0
 91
1
280
0
281
0
  0
CLASS
  1
LAYOUT
  2
AcDbLayout
  3
AutoCAD 2000
 90
0
 91
0
280
0
281
0
  0
ENDSEC
  0
SECTION
  2
TABLES
  0
TABLE
  2
VPORT
  5
8
100
AcDbSymbolTable
 70
2
  0
VPORT
  5
1F4
100
AcDbSymbolTableRecord
100
AcDbViewportTableRecord
  2
*ACTIVE
 70
0
 10
0.0
 20
0.0
 11
1.0
 21
1.0
 12
19.1395137635
 22
27.0687408942
 13
0.0
 23
0.0
 14
1.0
 24
1.0
 15
0.0
 25
0.0
 16
0.0
 26
0.0
 36
1.0
 17
0.0
 27
0.0
 37
0.0
 40
54.1374817883
 41
0.7070707071
 42
50.0
 43
0.0
 44
0.0
 50
0.0
 51
0.0
 71
0
 72
100
 73
1
 74
1
 75
0
 76
0
 77
0
 78
0
  0
ENDTAB
  0
TABLE
  2
LTYPE
  5
5
100
AcDbSymbolTable
 70
6
  0
LTYPE
  5
14
100
AcDbSymbolTableRecord
100
AcDbLinetypeTableRecord
  2
BYBLOCK
 70
0
  3

 72
65
 73
0
 40
0.0
  0
LTYPE
  5
15
100
AcDbSymbolTableRecord
100
AcDbLinetypeTableRecord
  2
BYLAYER
 70
0
  3

 72
65
 73
0
 40
0.0
  0
LTYPE
  5
16
100
AcDbSymbolTableRecord
100
AcDbLinetypeTableRecord
  2
CONTINUOUS
 70
64
  3
Solid line
 72
65
 73
0
 40
0.0
  0
LTYPE
  5
1F5
100
AcDbSymbolTableRecord
100
AcDbLinetypeTableRecord
  2
CENTER
 70
64
  3
____ _ ____ _ ____ _ ____ _ ____ _ ____ _ ____
 72
65
 73
4
 40
0.6
 49
0.375
 74
0
 49
-0.075
 74
0
 49
0.075
 74
0
 49
-0.075
 74
0
  0
LTYPE
  5
1F6
100
AcDbSymbolTableRecord
100
AcDbLinetypeTableRecord
  2
HIDDEN
 70
64
  3
- - - - - - - - - - - - - - - - - - - -
 72
65
 73
2
 40
0.2
 49
0.1
 74
0
 49
-0.1
 74
0
  0
LTYPE
  5
1F7
100
AcDbSymbolTableRecord
100
AcDbLinetypeTableRecord
  2
PHANTOM
 70
64
  3
_____ _ _ _____ _ _ _____ _ _ _____
 72
65
 73
6
 40
0.8
 49
0.45
 74
0
 49
-0.05
 74
0
 49
0.1
 74
0
 49
-0.05
 74
0
 49
0.1
 74
0
 49
-0.05
 74
0
  0
LTYPE
  5
1F8
100
AcDbSymbolTableRecord
100
AcDbLinetypeTableRecord
  2
DOT
 70
64
  3
. . . . . . . . . . . . . . . . . . . .
 72
65
 73
2
 40
0.2
 49
0.1
 74
0
 49
-0.1
 74
0
  0
LTYPE
  5
1F9
100
AcDbSymbolTableRecord
100
AcDbLinetypeTableRecord
  2
DASHED
 70
64
  3
- - - - - - - - - - - - - - - - - - - -
 72
65
 73
2
 40
0.2
 49
0.1
 74
0
 49
-0.1
 74
0
  0
ENDTAB
  0
TABLE
  2
LAYER
  5
2
100
AcDbSymbolTable
 70
36
  0
LAYER
  5
10
100
AcDbSymbolTableRecord
100
AcDbLayerTableRecord
  2
0
 70
0
 62
7
  6
CONTINUOUS
370
-3
390
F
  0
LAYER
  5
1FA
100
AcDbSymbolTableRecord
100
AcDbLayerTableRecord
  2
DEFAULT_1
 70
0
 62
7
  6
CENTER
370
-3
390
F
  0
LAYER
  5
1FB
100
AcDbSymbolTableRecord
100
AcDbLayerTableRecord
  2
DEFAULT_2
 70
0
 62
7
  6
HIDDEN
370
-3
390
F
  0
LAYER
  5
1FC
100
AcDbSymbolTableRecord
100
AcDbLayerTableRecord
  2
DEFAULT_3
 70
0
 62
7
  6
PHANTOM
370
-3
390
F
  0
LAYER
  5
1FD
100
AcDbSymbolTableRecord
100
AcDbLayerTableRecord
  2
00_COMPONENTS
 70
0
 62
7
  6
CONTINUOUS
370
-3
390
F
  0
LAYER
  5
1FE
100
AcDbSymbolTableRecord
100
AcDbLayerTableRecord
  2
01_1_DEFAULT_DATUMS
 70
0
 62
7
  6
CONTINUOUS
370
-3
390
F
  0
LAYER
  5
1FF
100
AcDbSymbolTableRecord
100
AcDbLayerTableRecord
  2
01_PLANES
 70
0
 62
7
  6
CONTINUOUS
370
-3
390
F
  0
LAYER
  5
200
100
AcDbSymbolTableRecord
100
AcDbLayerTableRecord
  2
02_COORD_SYS
 70
0
 62
7
  6
CONTINUOUS
370
-3
390
F
  0
LAYER
  5
201
100
AcDbSymbolTableRecord
100
AcDbLayerTableRecord
  2
03_AXES
 70
0
 62
7
  6
CONTINUOUS
370
-3
390
F
  0
LAYER
  5
202
100
AcDbSymbolTableRecord
100
AcDbLayerTableRecord
  2
04_POINTS
 70
0
 62
7
  6
CONTINUOUS
370
-3
390
F
  0
LAYER
  5
203
100
AcDbSymbolTableRecord
100
AcDbLayerTableRecord
  2
05_CURVES
 70
0
 62
7
  6
CONTINUOUS
370
-3
390
F
  0
LAYER
  5
204
100
AcDbSymbolTableRecord
100
AcDbLayerTableRecord
  2
06_SURFS
 70
0
 62
7
  6
CONTINUOUS
370
-3
390
F
  0
LAYER
  5
205
100
AcDbSymbolTableRecord
100
AcDbLayerTableRecord
  2
07_COSMETICS
 70
0
 62
7
  6
CONTINUOUS
370
-3
390
F
  0
LAYER
  5
206
100
AcDbSymbolTableRecord
100
AcDbLayerTableRecord
  2
10_NOTES
 70
0
 62
7
  6
CONTINUOUS
370
-3
390
F
  0
LAYER
  5
207
100
AcDbSymbolTableRecord
100
AcDbLayerTableRecord
  2
11_NOTES_PUB
 70
0
 62
7
  6
CONTINUOUS
370
-3
390
F
  0
LAYER
  5
208
100
AcDbSymbolTableRecord
100
AcDbLayerTableRecord
  2
13_REF_GTOL
 70
0
 62
7
  6
CONTINUOUS
370
-3
390
F
  0
LAYER
  5
209
100
AcDbSymbolTableRecord
100
AcDbLayerTableRecord
  2
16_MISC
 70
0
 62
7
  6
CONTINUOUS
370
-3
390
F
  0
LAYER
  5
20A
100
AcDbSymbolTableRecord
100
AcDbLayerTableRecord
  2
17_NO_PRINT
 70
0
 62
7
  6
CONTINUOUS
370
-3
390
F
  0
LAYER
  5
20B
100
AcDbSymbolTableRecord
100
AcDbLayerTableRecord
  2
18_DATUM_CAMS_JOINTS
 70
0
 62
7
  6
CONTINUOUS
370
-3
390
F
  0
LAYER
  5
20C
100
AcDbSymbolTableRecord
100
AcDbLayerTableRecord
  2
19_DATUM_FUNCTIONAL
 70
0
 62
7
  6
CONTINUOUS
370
-3
390
F
  0
LAYER
  5
20D
100
AcDbSymbolTableRecord
100
AcDbLayerTableRecord
  2
20_DATUM_KINEMATIC_SCHEME
 70
0
 62
7
  6
CONTINUOUS
370
-3
390
F
  0
ENDTAB
  0
TABLE
  2
STYLE
  5
3
100
AcDbSymbolTable
 70
1
  0
STYLE
  5
11
100
AcDbSymbolTableRecord
100
AcDbTextStyleTableRecord
  2
STANDARD
 70
0
 40
0.0
 41
1.0
 50
0.0
 71
0
 42
0.2
  3
ARIAL.TTF
  4

  0
STYLE
  5
20E
100
AcDbSymbolTableRecord
100
AcDbTextStyleTableRecord
  2
TEXTSTYLE_1
 70
0
 40
0.0
 41
0.8
 50
0.0
 71
0
 42
0.2
  3
gdt
  4

  0
ENDTAB
  0
TABLE
  2
VIEW
  5
6
100
AcDbSymbolTable
 70
0
  0
ENDTAB
  0
TABLE
  2
UCS
  5
7
100
AcDbSymbolTable
 70
0
  0
ENDTAB
  0
TABLE
  2
APPID
  5
9
100
AcDbSymbolTable
 70
1
  0
APPID
  5
20F
100
AcDbSymbolTableRecord
100
AcDbRegAppTableRecord
  2
ACAD
 70
0
  0
ENDTAB
  0
TABLE
  2
BLOCK_RECORD
  5
1
100
AcDbSymbolTable
 70
0
  0
BLOCK_RECORD
  5
210
100
AcDbSymbolTableRecord
100
AcDbBlockTableRecord
  2
*Model_Space
  0
BLOCK_RECORD
  5
211
100
AcDbSymbolTableRecord
100
AcDbBlockTableRecord
  2
*Paper_Space
  0
BLOCK_RECORD
  5
212
100
AcDbSymbolTableRecord
100
AcDbBlockTableRecord
  2
_FILLED
  0
ENDTAB
  0
TABLE
  2
DIMSTYLE
  5
A
100
AcDbSymbolTable
 70
1
100
AcDbDimStyleTable
 71
0
  0
DIMSTYLE
105
213
100
AcDbSymbolTableRecord
100
AcDbDimStyleTableRecord
  2
STANDARD
 70
0
  3

  4

 40
1.0
 41
0.4557027087
 42
1.0
 43
0.38
 44
1.0
 45
0.0
 46
0.0
 47
0.01
 48
0.01
140
0.6379837921
141
0.09
142
0.0
143
25.4
144
1.0
145
0.0
146
1.0
147
0.625
 71
1
 72
0
 73
0
 74
0
 75
0
 76
0
 77
1
 78
8
 79
2
170
0
171
1
172
0
173
0
174
0
175
0
176
0
177
0
178
0
270
2
179
2
271
2
272
2
273
2
274
2
275
0
280
0
281
0
282
0
283
1
284
8
285
0
286
0
287
3
288
0
340
11
278
46
341
212
342
212
343
212
344
212
  0
ENDTAB
  0
ENDSEC
  0
SECTION
  2
BLOCKS
  0
BLOCK
  5
20
100
AcDbEntity
  8
0
100
AcDbBlockBegin
  2
*Model_Space
 70
0
 10
0.0
 20
0.0
 30
0.0
  3
*Model_Space
  1

  0
ENDBLK
  5
21
100
AcDbEntity
  8
0
100
AcDbBlockEnd
  0
BLOCK
  5
1C
100
AcDbEntity
  8
0
100
AcDbBlockBegin
  2
*Paper_Space
 70
0
 10
0.0
 20
0.0
 30
0.0
  3
*Paper_Space
  1

  0
ENDBLK
  5
1D
100
AcDbEntity
  8
0
100
AcDbBlockEnd
  0
BLOCK
  5
214
100
AcDbEntity
  8
0
100
AcDbBlockBegin
  2
_FILLED
 70
64
 10
0.0
 20
0.0
  3
_FILLED
  1

  0
SOLID
  5
215
100
AcDbEntity
  8
0
  6
BYBLOCK
 62
0
100
AcDbTrace
 10
0.0
 20
0.0
 11
-1.0
 21
0.25
 12
-1.0
 22
-0.25
 13
-1.0
 23
-0.25
  0
ENDBLK
  5
216
100
AcDbEntity
  8
0
  6
BYBLOCK
 62
0
100
AcDbBlockEnd
  0
ENDSEC
  0
SECTION
  2
ENTITIES
  0
LINE
  5
217
100
AcDbEntity
  8
0
100
AcDbLine
 62
7
  6
BYLAYER
 10
17.4878695076
 20
49.4087025272
 11
18.5485252634
 21
50.021068758
  0
LINE
  5
218
100
AcDbEntity
  8
0
100
AcDbLine
 62
7
  6
BYLAYER
 10
18.2378661499
 20
49.3344161087
 11
19.2985219057
 21
49.9467823395
  0
LINE
  5
219
100
AcDbEntity
  8
0
100
AcDbLine
 62
7
  6
BYLAYER
 10
8.6843634992
 20
10.3509408562
 11
18.9527110731
 21
4.4226417363
  0
LINE
  5
21A
100
AcDbEntity
  8
0
100
AcDbLine
 62
7
  6
BYLAYER
 10
8.6843634992
 20
11.5756944819
 11
18.9527110731
 21
5.647395362
  0
LINE
  5
21B
100
AcDbEntity
  8
0
100
AcDbLine
 62
7
  6
BYLAYER
 10
11.2375293296
 20
14.2656808713
 11
15.4801876805
 21
11.8162363442
  0
LINE
  5
21C
100
AcDbEntity
  8
0
100
AcDbLine
 62
7
  6
BYLAYER
 10
19.1811392174
 20
43.8955964832
 11
20.2417949732
 21
44.507962714
  0
LINE
  5
21D
100
AcDbEntity
  8
0
100
AcDbLine
 62
7
  6
BYLAYER
 10
13.5002616087
 20
14.347308538
 11
17.7429199596
 21
11.8978640109
  0
LINE
  5
21E
100
AcDbEntity
  8
0
100
AcDbLine
 62
7
  6
BYLAYER
 10
21.8624363441
 20
43.4064599262
 11
20.8017805883
 21
42.7940936954
  0
LINE
  5
21F
100
AcDbEntity
  8
0
100
AcDbLine
 62
7
  6
BYLAYER
 10
17.7429199596
 20
13.1226176366
 11
13.5002616087
 21
15.5720621637
  0
LINE
  5
220
100
AcDbEntity
  8
0
100
AcDbLine
 62
7
  6
BYLAYER
 10
8.2526201033
 20
12.1836407856
 11
8.2526201033
 21
10.9588871599
  0
LINE
  5
221
100
AcDbEntity
  8
0
100
AcDbLine
 62
7
  6
BYLAYER
 10
8.6843634992
 20
10.3509408562
 11
8.6843634992
 21
11.5756944819
  0
LINE
  5
222
100
AcDbEntity
  8
0
100
AcDbLine
 62
7
  6
BYLAYER
 10
21.8370614809
 20
14.0575026978
 11
23.2512809312
 21
13.2410211888
  0
LINE
  5
223
100
AcDbEntity
  8
0
100
AcDbLine
 62
7
  6
BYLAYER
 10
29.5516129204
 20
44.027291399
 11
28.4909571645
 21
43.4149251681
  0
LINE
  5
224
100
AcDbEntity
  8
0
100
AcDbLine
 62
7
  6
BYLAYER
 10
16.717584068
 20
17.4295730638
 11
22.0173706508
 21
14.3698090747
  0
LINE
  5
225
100
AcDbEntity
  8
0
100
AcDbLine
 62
7
  6
BYLAYER
 10
23.6119038882
 20
13.4492257073
 11
29.0920042581
 21
10.2853598597
  0
LINE
  5
226
100
AcDbEntity
  8
0
100
AcDbLine
 62
7
  6
BYLAYER
 10
29.5516217523
 20
11.0814451309
 11
24.0715213824
 21
14.2453109784
  0
LINE
  5
227
100
AcDbEntity
  8
0
100
AcDbLine
 62
7
  6
BYLAYER
 10
22.476988145
 20
15.1658943459
 11
17.1772015622
 21
18.225658335
  0
LINE
  5
228
100
AcDbEntity
  8
0
100
AcDbLine
 62
7
  6
BYLAYER
 10
24.0715213824
 20
14.6617272112
 11
22.6573019321
 21
15.4782087202
  0
LINE
  5
229
100
AcDbEntity
  8
0
100
AcDbLine
 62
7
  6
BYLAYER
 10
25.9270427262
 20
39.835089162
 11
26.987698482
 21
40.4474553928
  0
LINE
  5
22A
100
AcDbEntity
  8
0
100
AcDbLine
 62
7
  6
BYLAYER
 10
29.5516217523
 20
41.5778104107
 11
30.6122775081
 21
42.1901766415
  0
LINE
  5
22B
100
AcDbEntity
  8
0
100
AcDbLine
 62
7
  6
BYLAYER
 10
13.5002616087
 20
15.5720621637
 11
13.5002616087
 21
14.347308538
  0
LINE
  5
22C
100
AcDbEntity
  8
0
100
AcDbLine
 62
7
  6
BYLAYER
 10
28.4844834712
 20
39.6061369634
 11
27.5476840971
 21
39.0652788211
  0
LINE
  5
22D
100
AcDbEntity
  8
0
100
AcDbLine
 62
7
  6
BYLAYER
 10
20.9890458553
 20
22.1968592991
 11
19.3684044844
 21
22.96666964
  0
LINE
  5
22E
100
AcDbEntity
  8
0
100
AcDbLine
 62
7
  6
BYLAYER
 10
17.1772015622
 20
18.225658335
 11
17.1772015622
 21
48.7220236148
  0
LINE
  5
22F
100
AcDbEntity
  8
0
100
AcDbLine
 62
7
  6
BYLAYER
 10
17.7429199596
 20
13.1226176366
 11
17.7429199596
 21
11.8978640109
  0
LINE
  5
230
100
AcDbEntity
  8
0
100
AcDbLine
 62
7
  6
BYLAYER
 10
20.4290602402
 20
23.5790358708
 11
21.9542056214
 21
22.8545864603
  0
LINE
  5
231
100
AcDbEntity
  8
0
100
AcDbLine
 62
7
  6
BYLAYER
 10
19.1811392174
 20
25.5147290648
 11
20.8017805883
 21
24.7449187238
  0
LINE
  5
232
100
AcDbEntity
  8
0
100
AcDbLine
 62
7
  6
BYLAYER
 10
27.3604188301
 20
18.3525823907
 11
25.7397774592
 21
19.4540851786
  0
LINE
  5
233
100
AcDbEntity
  8
0
100
AcDbLine
 62
7
  6
BYLAYER
 10
26.800433215
 20
20.0664514094
 11
28.4210745859
 21
18.9649486215
  0
LINE
  5
234
100
AcDbEntity
  8
0
100
AcDbLine
 62
7
  6
BYLAYER
 10
18.9527110731
 20
5.647395362
 11
18.9527110731
 21
4.4226417363
  0
LINE
  5
235
100
AcDbEntity
  8
0
100
AcDbLine
 62
7
  6
BYLAYER
 10
19.0157416054
 20
7.8154425284
 11
19.0157416054
 21
9.0401961541
  0
LINE
  5
236
100
AcDbEntity
  8
0
100
AcDbLine
 62
7
  6
BYLAYER
 10
25.9270427262
 20
21.7859141905
 11
27.5476840971
 21
20.6844114026
  0
LINE
  5
237
100
AcDbEntity
  8
0
100
AcDbLine
 62
7
  6
BYLAYER
 10
21.0663757057
 20
4.4270350876
 11
21.0663757057
 21
5.6517887133
  0
LINE
  5
238
100
AcDbEntity
  8
0
100
AcDbLine
 62
7
  6
BYLAYER
 10
22.5512607914
 20
11.0814169234
 11
22.5512607914
 21
9.8566632977
  0
LINE
  5
239
100
AcDbEntity
  8
0
100
AcDbLine
 62
7
  6
BYLAYER
 10
19.3684044844
 20
22.96666964
 11
20.4290602402
 21
23.5790358708
  0
LINE
  5
23A
100
AcDbEntity
  8
0
100
AcDbLine
 62
7
  6
BYLAYER
 10
24.0715213824
 20
14.2453109784
 11
24.0715213824
 21
14.6617272112
  0
LINE
  5
23B
100
AcDbEntity
  8
0
100
AcDbLine
 62
7
  6
BYLAYER
 10
21.9258452293
 20
22.7377174414
 11
20.9890458553
 21
22.1968592991
  0
LINE
  5
23C
100
AcDbEntity
  8
0
100
AcDbLine
 62
7
  6
BYLAYER
 10
22.6573019321
 20
15.4782087202
 11
21.8370614809
 21
14.0575026978
  0
LINE
  5
23D
100
AcDbEntity
  8
0
100
AcDbLine
 62
7
  6
BYLAYER
 10
8.6919555156
 20
12.7960019174
 11
11.2375293296
 21
14.2656808713
  0
LINE
  5
23E
100
AcDbEntity
  8
0
100
AcDbLine
 62
7
  6
BYLAYER
 10
13.5002616087
 20
15.5720621637
 11
16.717584068
 21
17.4295730638
  0
LINE
  5
23F
100
AcDbEntity
  8
0
100
AcDbLine
 62
7
  6
BYLAYER
 10
29.5516217523
 20
11.0814451309
 11
29.5516217523
 21
41.5778104107
  0
LINE
  5
240
100
AcDbEntity
  8
0
100
AcDbLine
 62
7
  6
BYLAYER
 10
24.0715213824
 20
14.6617272112
 11
23.2512809312
 21
13.2410211888
  0
LINE
  5
241
100
AcDbEntity
  8
0
100
AcDbLine
 62
7
  6
BYLAYER
 10
25.7397774592
 20
19.4540851786
 11
26.800433215
 21
20.0664514094
  0
LINE
  5
242
100
AcDbEntity
  8
0
100
AcDbLine
 62
7
  6
BYLAYER
 10
30.6122775081
 20
10.7140084611
 11
30.6122775081
 21
42.1901766415
  0
LINE
  5
243
100
AcDbEntity
  8
0
100
AcDbLine
 62
7
  6
BYLAYER
 10
28.4210745859
 20
18.9649486215
 11
27.3604188301
 21
18.3525823907
  0
LINE
  5
244
100
AcDbEntity
  8
0
100
AcDbLine
 62
7
  6
BYLAYER
 10
20.8017805883
 20
42.7940936954
 11
19.1811392174
 21
43.8955964832
  0
LINE
  5
245
100
AcDbEntity
  8
0
100
AcDbLine
 62
7
  6
BYLAYER
 10
23.2512809312
 20
13.2410211888
 11
23.6119038882
 21
13.4492257073
  0
LINE
  5
246
100
AcDbEntity
  8
0
100
AcDbLine
 62
7
  6
BYLAYER
 10
22.5512607914
 20
11.0814169234
 11
19.0157416054
 21
9.0401961541
  0
LINE
  5
247
100
AcDbEntity
  8
0
100
AcDbLine
 62
7
  6
BYLAYER
 10
27.5476840971
 20
39.0652788211
 11
25.9270427262
 21
39.835089162
  0
LINE
  5
248
100
AcDbEntity
  8
0
100
AcDbLine
 62
7
  6
BYLAYER
 10
26.987698482
 20
40.4474553928
 11
28.5128438632
 21
39.7230059823
  0
LINE
  5
249
100
AcDbEntity
  8
0
100
AcDbLine
 62
7
  6
BYLAYER
 10
20.2417949732
 20
44.507962714
 11
21.8624363441
 21
43.4064599262
  0
LINE
  5
24A
100
AcDbEntity
  8
0
100
AcDbLine
 62
7
  6
BYLAYER
 10
19.0157416054
 20
7.8154425284
 11
22.5512607914
 21
9.8566632977
  0
LINE
  5
24B
100
AcDbEntity
  8
0
100
AcDbLine
 62
7
  6
BYLAYER
 10
25.7397774592
 20
42.3831485868
 11
27.3604188301
 21
41.6133382459
  0
LINE
  5
24C
100
AcDbEntity
  8
0
100
AcDbLine
 62
7
  6
BYLAYER
 10
19.3684044844
 20
46.2274254951
 11
20.9890458553
 21
45.1259227073
  0
LINE
  5
24D
100
AcDbEntity
  8
0
100
AcDbLine
 62
7
  6
BYLAYER
 10
21.2784927258
 20
7.7338257396
 11
24.8140119119
 21
9.775046509
  0
LINE
  5
24E
100
AcDbEntity
  8
0
100
AcDbLine
 62
7
  6
BYLAYER
 10
18.2378661499
 20
49.3344161087
 11
28.4909571645
 21
43.4149251681
  0
LINE
  5
24F
100
AcDbEntity
  8
0
100
AcDbLine
 62
7
  6
BYLAYER
 10
29.0920042581
 20
10.2853598597
 11
21.0663757057
 21
5.6517887133
  0
LINE
  5
250
100
AcDbEntity
  8
0
100
AcDbLine
 62
7
  6
BYLAYER
 10
29.9405288627
 20
9.5504992187
 11
21.0663757057
 21
4.4270350876
  0
LINE
  5
251
100
AcDbEntity
  8
0
100
AcDbLine
 62
7
  6
BYLAYER
 10
19.2985219057
 20
49.9467823395
 11
29.5516129204
 21
44.027291399
  0
ARC
  5
252
100
AcDbEntity
  8
0
100
AcDbCircle
 62
7
  6
BYLAYER
 10
29.2764923517
 20
20.2226681916
 40
1.5210516332
100
AcDbArc
 50
235.7790505463
 51
239.8688291845
  0
ARC
  5
253
100
AcDbEntity
  8
0
100
AcDbCircle
 62
7
  6
BYLAYER
 10
22.7178541099
 20
44.6641794962
 40
1.5210516332
100
AcDbArc
 50
235.7790505463
 51
239.8688291845
  0
ARC
  5
254
100
AcDbEntity
  8
0
100
AcDbCircle
 62
7
  6
BYLAYER
 10
27.2973823952
 20
21.8452475985
 40
1.4639831609
100
AcDbArc
 50
180.3351536063
 51
182.6672103234
  0
ARC
  5
255
100
AcDbEntity
  8
0
100
AcDbCircle
 62
7
  6
BYLAYER
 10
20.7387441534
 20
46.2867589032
 40
1.4639831609
100
AcDbArc
 50
180.3351536063
 51
182.6672103234
  0
ARC
  5
256
100
AcDbEntity
  8
0
100
AcDbCircle
 62
7
  6
BYLAYER
 10
17.0177164017
 20
10.6410920376
 40
1.4509982747
100
AcDbArc
 50
58.0308137448
 51
60.0134762768
  0
ARC
  5
257
100
AcDbEntity
  8
0
100
AcDbCircle
 62
7
  6
BYLAYER
 10
19.7395577278
 20
6.561297314
 40
1.4480296951
100
AcDbArc
 50
119.9909208037
 51
122.8504574759
  0
ARC
  5
258
100
AcDbEntity
  8
0
100
AcDbCircle
 62
7
  6
BYLAYER
 10
20.6825248538
 20
46.2862459819
 40
1.4077618348
100
AcDbArc
 50
180.0003105463
 51
180.3276624752
  0
ARC
  5
259
100
AcDbEntity
  8
0
100
AcDbCircle
 62
7
  6
BYLAYER
 10
27.2411630942
 20
21.8447346773
 40
1.4077618335
100
AcDbArc
 50
180.0003105462
 51
180.3276624754
  0
SPLINE
  5
25A
100
AcDbEntity
  8
0
100
AcDbSpline
 62
7
  6
BYLAYER
 70
0
 71
3
 72
14
 73
10
 74
0
 42
0.0000001
 43
0.0000001
 44
0.0000000001
 40
0.0
 40
0.0
 40
0.0
 40
0.0
 40
0.2892503458
 40
0.4225724161
 40
0.5485193008
 40
0.6678939084
 40
0.7818664649
 40
0.8919549669
 40
1.0
 40
1.0
 40
1.0
 40
1.0
 10
8.6919555156
 20
12.7960019174
 30
0.0
 10
8.6261202414
 20
12.757992131
 30
0.0
 10
8.5339138719
 20
12.6944924483
 30
0.0
 10
8.4295779189
 20
12.5946564995
 30
0.0
 10
8.3660827566
 20
12.5176871688
 30
0.0
 10
8.3159021714
 20
12.4373424038
 30
0.0
 10
8.2795845261
 20
12.3543239491
 30
0.0
 10
8.2575479702
 20
12.2694834024
 30
0.0
 10
8.25263122
 20
12.2120368566
 30
0.0
 10
8.2526309095
 20
12.1836407832
 30
0.0
  0
SPLINE
  5
25B
100
AcDbEntity
  8
0
100
AcDbSpline
 62
7
  6
BYLAYER
 70
0
 71
3
 72
15
 73
11
 74
0
 42
0.0000001
 43
0.0000001
 44
0.0000000001
 40
0.0
 40
0.0
 40
0.0
 40
0.0
 40
0.1141464977
 40
0.2373352781
 40
0.3669759338
 40
0.4999994786
 40
0.633023096
 40
0.7626639634
 40
0.8858530776
 40
1.0
 40
1.0
 40
1.0
 40
1.0
 10
17.7429293803
 20
11.8162417832
 30
0.0
 10
17.6654838203
 20
11.7715288352
 30
0.0
 10
17.496112891
 20
11.6926703725
 30
0.0
 10
17.2203230906
 20
11.6088290183
 30
0.0
 10
16.9217226422
 20
11.5572525319
 30
0.0
 10
16.6115604383
 20
11.5398294624
 30
0.0
 10
16.3013979866
 20
11.5572510598
 30
0.0
 10
16.0027968057
 20
11.6088261285
 30
0.0
 10
15.7270058179
 20
11.6926661716
 30
0.0
 10
15.557633851
 20
11.7715237883
 30
0.0
 10
15.4801876805
 20
11.8162363442
 30
0.0
  0
SPLINE
  5
25C
100
AcDbEntity
  8
0
100
AcDbSpline
 62
7
  6
BYLAYER
 70
0
 71
3
 72
22
 73
18
 74
0
 42
0.0000001
 43
0.0000001
 44
0.0000000001
 40
0.0
 40
0.0
 40
0.0
 40
0.0
 40
0.0623731325
 40
0.1287713747
 40
0.1983810094
 40
0.27037399
 40
0.4173935404
 40
0.4904369385
 40
0.5617460316
 40
0.6303626871
 40
0.6954705425
 40
0.7564351472
 40
0.8128878317
 40
0.8648051546
 40
0.9125926406
 40
0.9571804183
 40
1.0
 40
1.0
 40
1.0
 40
1.0
 10
21.2784927258
 20
7.7338257396
 30
0.0
 10
21.2210342736
 20
7.7006522847
 30
0.0
 10
21.0978181347
 20
7.6399389242
 30
0.0
 10
20.8991125778
 20
7.5678835206
 30
0.0
 10
20.6843093399
 20
7.5133653031
 30
0.0
 10
20.3807780188
 20
7.4652843836
 30
0.0
 10
20.0684155916
 20
7.4566600612
 30
0.0
 10
19.7597200877
 20
7.4873451357
 30
0.0
 10
19.5368075776
 20
7.5295238301
 30
0.0
 10
19.3269184518
 20
7.5900334558
 30
0.0
 10
19.1344449511
 20
7.6675539876
 30
0.0
 10
18.9634587143
 20
7.7605639429
 30
0.0
 10
18.8175293624
 20
7.8672035746
 30
0.0
 10
18.6997393553
 20
7.9854549381
 30
0.0
 10
18.6128739312
 20
8.1132798315
 30
0.0
 10
18.5592943265
 20
8.2480882169
 30
0.0
 10
18.5471348022
 20
8.3414631355
 30
0.0
 10
18.5471267348
 20
8.3870109456
 30
0.0
  0
SPLINE
  5
25D
100
AcDbEntity
  8
0
100
AcDbSpline
 62
7
  6
BYLAYER
 70
0
 71
3
 72
15
 73
11
 74
0
 42
0.0000001
 43
0.0000001
 44
0.0000000001
 40
0.0
 40
0.0
 40
0.0
 40
0.0
 40
0.1080124784
 40
0.2180695349
 40
0.3319961384
 40
0.4513316148
 40
0.5772492822
 40
0.7105613955
 40
0.8515577325
 40
1.0
 40
1.0
 40
1.0
 40
1.0
 10
25.2826267824
 20
10.4282317174
 30
0.0
 10
25.2826321473
 20
10.3979420908
 30
0.0
 10
25.2773660352
 20
10.3366649558
 30
0.0
 10
25.2538639691
 20
10.2461718271
 30
0.0
 10
25.2151488351
 20
10.1576098667
 30
0.0
 10
25.1616034078
 20
10.0719176517
 30
0.0
 10
25.0938840271
 20
9.9898084558
 30
0.0
 10
25.012617767
 20
9.9120607424
 30
0.0
 10
24.918709923
 20
9.839401136
 30
0.0
 10
24.8500622096
 20
9.7958600338
 30
0.0
 10
24.8140119119
 20
9.775046509
 30
0.0
  0
SPLINE
  5
25E
100
AcDbEntity
  8
0
100
AcDbSpline
 62
7
  6
BYLAYER
 70
0
 71
3
 72
15
 73
11
 74
0
 42
0.0000001
 43
0.0000001
 44
0.0000000001
 40
0.0
 40
0.0
 40
0.0
 40
0.0
 40
0.1127708575
 40
0.2351225806
 40
0.3645107769
 40
0.4977331294
 40
0.6312792323
 40
0.7615794006
 40
0.8854115267
 40
1.0
 40
1.0
 40
1.0
 40
1.0
 10
24.8531971987
 20
9.8332114769
 30
0.0
 10
24.7766372786
 20
9.880640113
 30
0.0
 10
24.6076170099
 20
9.9647098679
 30
0.0
 10
24.3299786634
 20
10.0549167846
 30
0.0
 10
24.0270486999
 20
10.111826668
 30
0.0
 10
23.7106891859
 20
10.133195202
 30
0.0
 10
23.393241605
 20
10.1181852875
 30
0.0
 10
23.0870371861
 20
10.0674282896
 30
0.0
 10
22.8041535251
 20
9.9828351119
 30
0.0
 10
22.6305127074
 20
9.9024191396
 30
0.0
 10
22.5512607914
 20
9.8566632977
 30
0.0
  0
SPLINE
  5
25F
100
AcDbEntity
  8
0
100
AcDbSpline
 62
7
  6
BYLAYER
 70
0
 71
3
 72
14
 73
10
 74
0
 42
0.0000001
 43
0.0000001
 44
0.0000000001
 40
0.0
 40
0.0
 40
0.0
 40
0.0
 40
0.1055103701
 40
0.2134730062
 40
0.3260667542
 40
0.4449847088
 40
0.7056778664
 40
0.848869894
 40
1.0
 40
1.0
 40
1.0
 40
1.0
 10
18.5247807309
 20
46.3605414156
 30
0.0
 10
18.5521556638
 20
46.3763416029
 30
0.0
 10
18.6107382295
 20
46.4030898758
 30
0.0
 10
18.7060750327
 20
46.4265674294
 30
0.0
 10
18.8080137842
 20
46.4334873321
 30
0.0
 10
18.9553682051
 20
46.4203391066
 30
0.0
 10
19.106704949
 20
46.3730832436
 30
0.0
 10
19.2558488915
 20
46.2993808825
 30
0.0
 10
19.3309607555
 20
46.2528749083
 30
0.0
 10
19.3684044844
 20
46.2274254951
 30
0.0
  0
SPLINE
  5
260
100
AcDbEntity
  8
0
100
AcDbSpline
 62
7
  6
BYLAYER
 70
0
 71
3
 72
15
 73
11
 74
0
 42
0.0000001
 43
0.0000001
 44
0.0000000001
 40
0.0
 40
0.0
 40
0.0
 40
0.0
 40
0.1141229605
 40
0.2373462928
 40
0.366971064
 40
0.4999983279
 40
0.633025824
 40
0.762651271
 40
0.8858756957
 40
1.0
 40
1.0
 40
1.0
 40
1.0
 10
16.717584068
 20
17.4295730638
 30
0.0
 10
16.7490398049
 20
17.4477339336
 30
0.0
 10
16.8111844491
 20
17.4913140267
 30
0.0
 10
16.8967098945
 20
17.571301203
 30
0.0
 10
16.9755085837
 20
17.6658889688
 30
0.0
 10
17.0446438126
 20
17.7714662544
 30
0.0
 10
17.1015083668
 20
17.8841282248
 30
0.0
 10
17.1440241829
 20
17.9996645395
 30
0.0
 10
17.1705323202
 20
18.1137263613
 30
0.0
 10
17.1772015622
 20
18.1893360052
 30
0.0
 10
17.1772015622
 20
18.225658335
 30
0.0
  0
SPLINE
  5
261
100
AcDbEntity
  8
0
100
AcDbSpline
 62
7
  6
BYLAYER
 70
0
 71
3
 72
13
 73
9
 74
0
 42
0.0000001
 43
0.0000001
 44
0.0000000001
 40
0.0
 40
0.0
 40
0.0
 40
0.0
 40
0.110726178
 40
0.2230900889
 40
0.3386202733
 40
0.4586600821
 40
0.7159478221
 40
1.0
 40
1.0
 40
1.0
 40
1.0
 10
25.0834193649
 20
42.4081486267
 30
0.0
 10
25.1052392806
 20
42.4207391233
 30
0.0
 10
25.1512034871
 20
42.4427969436
 30
0.0
 10
25.225088916
 20
42.4655264431
 30
0.0
 10
25.3035545014
 20
42.4778040313
 30
0.0
 10
25.4159491889
 20
42.4802591616
 30
0.0
 10
25.5657081649
 20
42.4551730094
 30
0.0
 10
25.681402245
 20
42.4108770184
 30
0.0
 10
25.7397774592
 20
42.3831485868
 30
0.0
  0
SPLINE
  5
262
100
AcDbEntity
  8
0
100
AcDbSpline
 62
7
  6
BYLAYER
 70
0
 71
3
 72
14
 73
10
 74
0
 42
0.0000001
 43
0.0000001
 44
0.0000000001
 40
0.0
 40
0.0
 40
0.0
 40
0.0
 40
0.2888422303
 40
0.4220531208
 40
0.5479647356
 40
0.6673839935
 40
0.7814756943
 40
0.8917436166
 40
1.0
 40
1.0
 40
1.0
 40
1.0
 10
8.6843634992
 20
10.3509408562
 30
0.0
 10
8.619587582
 20
10.3888802391
 30
0.0
 10
8.5289088535
 20
10.4521522104
 30
0.0
 10
8.426396041
 20
10.5513568688
 30
0.0
 10
8.3640220063
 20
10.6277739003
 30
0.0
 10
8.314740598
 20
10.7074731111
 30
0.0
 10
8.2790880555
 20
10.7897745751
 30
0.0
 10
8.2574557837
 20
10.8738439802
 30
0.0
 10
8.252630602
 20
10.9307518303
 30
0.0
 10
8.2526309095
 20
10.9588871576
 30
0.0
  0
SPLINE
  5
263
100
AcDbEntity
  8
0
100
AcDbSpline
 62
7
  6
BYLAYER
 70
0
 71
3
 72
15
 73
11
 74
0
 42
0.0000001
 43
0.0000001
 44
0.0000000001
 40
0.0
 40
0.0
 40
0.0
 40
0.0
 40
0.1140582526
 40
0.2371222446
 40
0.3666314108
 40
0.4995509945
 40
0.6325329586
 40
0.7622243561
 40
0.8855757125
 40
1.0
 40
1.0
 40
1.0
 40
1.0
 10
21.0663757057
 20
4.4270350876
 30
0.0
 10
20.9941163513
 20
4.3853163789
 30
0.0
 10
20.8361436139
 20
4.3116861973
 30
0.0
 10
20.5789430583
 20
4.2332325879
 30
0.0
 10
20.3004548417
 20
4.1847348865
 30
0.0
 10
20.0110767558
 20
4.167953418
 30
0.0
 10
19.7214994354
 20
4.1835466769
 30
0.0
 10
19.4424225361
 20
4.2308996295
 30
0.0
 10
19.1842675034
 20
4.3082939462
 30
0.0
 10
19.0254609653
 20
4.3812403621
 30
0.0
 10
18.9527110731
 20
4.4226417363
 30
0.0
  0
SPLINE
  5
264
100
AcDbEntity
  8
0
100
AcDbSpline
 62
7
  6
BYLAYER
 70
0
 71
3
 72
13
 73
9
 74
0
 42
0.0000001
 43
0.0000001
 44
0.0000000001
 40
0.0
 40
0.0
 40
0.0
 40
0.0
 40
0.110726178
 40
0.2230900889
 40
0.3386202733
 40
0.4586600821
 40
0.7159478221
 40
1.0
 40
1.0
 40
1.0
 40
1.0
 10
18.524781123
 20
25.5397291047
 30
0.0
 10
18.5466010388
 20
25.5523196013
 30
0.0
 10
18.5925652453
 20
25.5743774216
 30
0.0
 10
18.6664506742
 20
25.5971069211
 30
0.0
 10
18.7449162596
 20
25.6093845093
 30
0.0
 10
18.8573109471
 20
25.6118396396
 30
0.0
 10
19.0070699231
 20
25.5867534874
 30
0.0
 10
19.1227640032
 20
25.5424574964
 30
0.0
 10
19.1811392174
 20
25.5147290648
 30
0.0
  0
SPLINE
  5
265
100
AcDbEntity
  8
0
100
AcDbSpline
 62
7
  6
BYLAYER
 70
0
 71
3
 72
14
 73
10
 74
0
 42
0.0000001
 43
0.0000001
 44
0.0000000001
 40
0.0
 40
0.0
 40
0.0
 40
0.0
 40
0.1055103701
 40
0.2134730062
 40
0.3260667542
 40
0.4449847088
 40
0.7056778664
 40
0.848869894
 40
1.0
 40
1.0
 40
1.0
 40
1.0
 10
25.0834189727
 20
21.919030111
 30
0.0
 10
25.1107939057
 20
21.9348302982
 30
0.0
 10
25.1693764713
 20
21.9615785711
 30
0.0
 10
25.2647132745
 20
21.9850561247
 30
0.0
 10
25.366652026
 20
21.9919760274
 30
0.0
 10
25.5140064469
 20
21.978827802
 30
0.0
 10
25.6653431908
 20
21.9315719389
 30
0.0
 10
25.8144871333
 20
21.8578695778
 30
0.0
 10
25.8895989973
 20
21.8113636036
 30
0.0
 10
25.9270427262
 20
21.7859141905
 30
0.0
  0
SPLINE
  5
266
100
AcDbEntity
  8
0
100
AcDbSpline
 62
7
  6
BYLAYER
 70
0
 71
3
 72
15
 73
11
 74
0
 42
0.0000001
 43
0.0000001
 44
0.0000000001
 40
0.0
 40
0.0
 40
0.0
 40
0.0
 40
0.1141229605
 40
0.2373462928
 40
0.366971064
 40
0.4999983279
 40
0.633025824
 40
0.762651271
 40
0.8858756957
 40
1.0
 40
1.0
 40
1.0
 40
1.0
 10
29.9405288627
 20
9.5504992187
 30
0.0
 10
29.986502632
 20
9.5770420283
 30
0.0
 10
30.0773294197
 20
9.6407360105
 30
0.0
 10
30.2023281476
 20
9.7576403452
 30
0.0
 10
30.3174954627
 20
9.8958840028
 30
0.0
 10
30.4185392587
 20
10.0501892665
 30
0.0
 10
30.5016489917
 20
10.2148490693
 30
0.0
 10
30.5637874922
 20
10.3837098369
 30
0.0
 10
30.6025301544
 20
10.5504155765
 30
0.0
 10
30.6122775081
 20
10.6609219791
 30
0.0
 10
30.6122775081
 20
10.7140084611
 30
0.0
  0
SPLINE
  5
267
100
AcDbEntity
  8
0
100
AcDbSpline
 62
7
  6
BYLAYER
 70
0
 71
3
 72
14
 73
10
 74
0
 42
0.0000001
 43
0.0000001
 44
0.0000000001
 40
0.0
 40
0.0
 40
0.0
 40
0.0
 40
0.108046144
 40
0.2181359093
 40
0.3321085861
 40
0.4514831362
 40
0.5774302378
 40
0.7107534897
 40
1.0
 40
1.0
 40
1.0
 40
1.0
 10
18.5485307765
 20
50.0210592091
 30
0.0
 10
18.5731230075
 20
50.0352574564
 30
0.0
 10
18.6253325659
 20
50.0597234363
 30
0.0
 10
18.7098264731
 20
50.0830588711
 30
0.0
 10
18.7998822039
 20
50.0931189171
 30
0.0
 10
18.8945540888
 20
50.0898336753
 30
0.0
 10
18.9929605998
 20
50.0733317701
 30
0.0
 10
19.1315899308
 20
50.0328927004
 30
0.0
 10
19.2326866387
 20
49.9847914888
 30
0.0
 10
19.2985219057
 20
49.9467823395
 30
0.0
  0
SPLINE
  5
268
100
AcDbEntity
  8
0
100
AcDbSpline
 62
7
  6
BYLAYER
 70
0
 71
3
 72
14
 73
10
 74
0
 42
0.0000001
 43
0.0000001
 44
0.0000000001
 40
0.0
 40
0.0
 40
0.0
 40
0.0
 40
0.1080456362
 40
0.2181349707
 40
0.332107362
 40
0.4514818058
 40
0.577428993
 40
0.7107525123
 40
1.0
 40
1.0
 40
1.0
 40
1.0
 10
17.4878750206
 20
49.4086929783
 30
0.0
 10
17.4632822463
 20
49.3944944173
 30
0.0
 10
17.4159881246
 20
49.361512008
 30
0.0
 10
17.3535306561
 20
49.3000044046
 30
0.0
 10
17.2997894694
 20
49.2270419013
 30
0.0
 10
17.2552979413
 20
49.143408597
 30
0.0
 10
17.2203854793
 20
49.0499322799
 30
0.0
 10
17.1860922445
 20
48.9096518341
 30
0.0
 10
17.1772015622
 20
48.7980454965
 30
0.0
 10
17.1772015622
 20
48.7220236148
 30
0.0
  0
SPLINE
  5
269
100
AcDbEntity
  8
0
100
AcDbSpline
 62
7
  6
BYLAYER
 70
0
 71
3
 72
14
 73
10
 74
0
 42
0.0000001
 43
0.0000001
 44
0.0000000001
 40
0.0
 40
0.0
 40
0.0
 40
0.0
 40
0.2892282011
 40
0.4225747527
 40
0.548527493
 40
0.6678985339
 40
0.7818628277
 40
0.8919538559
 40
1.0
 40
1.0
 40
1.0
 40
1.0
 10
28.5147160513
 20
18.9061357649
 30
0.0
 10
28.5147160513
 20
18.8301191297
 30
0.0
 10
28.5058142802
 20
18.7185143637
 30
0.0
 10
28.4715371877
 20
18.5782272973
 30
0.0
 10
28.4366136721
 20
18.4847485909
 30
0.0
 10
28.3921339495
 20
18.4011106464
 30
0.0
 10
28.3383794527
 20
18.3281606689
 30
0.0
 10
28.2759268705
 20
18.2666531431
 30
0.0
 10
28.2286372226
 20
18.2336619352
 30
0.0
 10
28.2040425836
 20
18.2194664702
 30
0.0
  0
SPLINE
  5
26A
100
AcDbEntity
  8
0
100
AcDbSpline
 62
7
  6
BYLAYER
 70
0
 71
3
 72
15
 73
11
 74
0
 42
0.0000001
 43
0.0000001
 44
0.0000000001
 40
0.0
 40
0.0
 40
0.0
 40
0.0
 40
0.1174395229
 40
0.2425602518
 40
0.3727490079
 40
0.5052530429
 40
0.6370354322
 40
0.765111329
 40
0.886878377
 40
1.0
 40
1.0
 40
1.0
 40
1.0
 10
27.5476840971
 20
20.6844114026
 30
0.0
 10
27.6154501687
 20
20.6383527754
 30
0.0
 10
27.7482830611
 20
20.5324862952
 30
0.0
 10
27.9301562587
 20
20.3458082564
 30
0.0
 10
28.0960810431
 20
20.1313726476
 30
0.0
 10
28.2405229135
 20
19.8964937518
 30
0.0
 10
28.3586080956
 20
19.6489445034
 30
0.0
 10
28.4464828858
 20
19.3969829307
 30
0.0
 10
28.5010823335
 20
19.1490813387
 30
0.0
 10
28.5147160513
 20
18.9850599846
 30
0.0
 10
28.5147160513
 20
18.9061357649
 30
0.0
  0
SPLINE
  5
26B
100
AcDbEntity
  8
0
100
AcDbSpline
 62
7
  6
BYLAYER
 70
0
 71
3
 72
14
 73
10
 74
0
 42
0.0000001
 43
0.0000001
 44
0.0000000001
 40
0.0
 40
0.0
 40
0.0
 40
0.0
 40
0.2892063581
 40
0.4225696862
 40
0.5485281418
 40
0.6678985001
 40
0.7818564264
 40
0.891947173
 40
1.0
 40
1.0
 40
1.0
 40
1.0
 10
21.9560778095
 20
22.8585278797
 30
0.0
 10
21.9560778095
 20
22.7825171443
 30
0.0
 10
21.9471674133
 20
22.6709157267
 30
0.0
 10
21.9129038009
 20
22.5306252674
 30
0.0
 10
21.8779722035
 20
22.437143572
 30
0.0
 10
21.8334994966
 20
22.3535030531
 30
0.0
 10
21.7797447034
 20
22.2805544521
 30
0.0
 10
21.7172846911
 20
22.2190566485
 30
0.0
 10
21.6700017477
 20
22.1860526455
 30
0.0
 10
21.6454039496
 20
22.1718592592
 30
0.0
  0
SPLINE
  5
26C
100
AcDbEntity
  8
0
100
AcDbSpline
 62
7
  6
BYLAYER
 70
0
 71
3
 72
15
 73
11
 74
0
 42
0.0000001
 43
0.0000001
 44
0.0000000001
 40
0.0
 40
0.0
 40
0.0
 40
0.0
 40
0.1106451363
 40
0.2317311835
 40
0.3606780714
 40
0.4941954621
 40
0.6285315633
 40
0.7598618334
 40
0.8846769259
 40
1.0
 40
1.0
 40
1.0
 40
1.0
 10
20.8017805883
 20
24.7449187238
 30
0.0
 10
20.8787005323
 20
24.7083814804
 30
0.0
 10
21.032106305
 20
24.6152398189
 30
0.0
 10
21.2444417037
 20
24.4350755484
 30
0.0
 10
21.4421728053
 20
24.2147599099
 30
0.0
 10
21.617092746
 20
23.9635359902
 30
0.0
 10
21.7619290072
 20
23.6917778858
 30
0.0
 10
21.8707167947
 20
23.410778227
 30
0.0
 10
21.9388457891
 20
23.1322838309
 30
0.0
 10
21.9560778095
 20
22.9472848028
 30
0.0
 10
21.9560778095
 20
22.8585278797
 30
0.0
  0
SPLINE
  5
26D
100
AcDbEntity
  8
0
100
AcDbSpline
 62
7
  6
BYLAYER
 70
0
 71
3
 72
14
 73
10
 74
0
 42
0.0000001
 43
0.0000001
 44
0.0000000001
 40
0.0
 40
0.0
 40
0.0
 40
0.0
 40
0.2892063581
 40
0.4225696862
 40
0.5485281418
 40
0.6678985001
 40
0.7818564264
 40
0.891947173
 40
1.0
 40
1.0
 40
1.0
 40
1.0
 10
28.5147160513
 20
39.7269474017
 30
0.0
 10
28.5147160513
 20
39.6509366663
 30
0.0
 10
28.5058056551
 20
39.5393352488
 30
0.0
 10
28.4715420427
 20
39.3990447894
 30
0.0
 10
28.4366104453
 20
39.3055630941
 30
0.0
 10
28.3921377384
 20
39.2219225751
 30
0.0
 10
28.3383829452
 20
39.1489739741
 30
0.0
 10
28.2759229329
 20
39.0874761705
 30
0.0
 10
28.2286399895
 20
39.0544721675
 30
0.0
 10
28.2040421914
 20
39.0402787812
 30
0.0
  0
SPLINE
  5
26E
100
AcDbEntity
  8
0
100
AcDbSpline
 62
7
  6
BYLAYER
 70
0
 71
3
 72
15
 73
11
 74
0
 42
0.0000001
 43
0.0000001
 44
0.0000000001
 40
0.0
 40
0.0
 40
0.0
 40
0.0
 40
0.1106451363
 40
0.2317311835
 40
0.3606780714
 40
0.4941954621
 40
0.6285315633
 40
0.7598618334
 40
0.8846769259
 40
1.0
 40
1.0
 40
1.0
 40
1.0
 10
27.3604188301
 20
41.6133382459
 30
0.0
 10
27.4373387742
 20
41.5768010024
 30
0.0
 10
27.5907445468
 20
41.483659341
 30
0.0
 10
27.8030799455
 20
41.3034950704
 30
0.0
 10
28.0008110471
 20
41.0831794319
 30
0.0
 10
28.1757309878
 20
40.8319555122
 30
0.0
 10
28.320567249
 20
40.5601974078
 30
0.0
 10
28.4293550365
 20
40.279197749
 30
0.0
 10
28.4974840309
 20
40.0007033529
 30
0.0
 10
28.5147160513
 20
39.8157043249
 30
0.0
 10
28.5147160513
 20
39.7269474017
 30
0.0
  0
SPLINE
  5
26F
100
AcDbEntity
  8
0
100
AcDbSpline
 62
7
  6
BYLAYER
 70
0
 71
3
 72
14
 73
10
 74
0
 42
0.0000001
 43
0.0000001
 44
0.0000000001
 40
0.0
 40
0.0
 40
0.0
 40
0.0
 40
0.2892282011
 40
0.4225747527
 40
0.548527493
 40
0.6678985339
 40
0.7818628277
 40
0.8919538559
 40
1.0
 40
1.0
 40
1.0
 40
1.0
 10
21.9560778095
 20
43.3476470696
 30
0.0
 10
21.9560778095
 20
43.2716304344
 30
0.0
 10
21.9471760384
 20
43.1600256683
 30
0.0
 10
21.9128989459
 20
43.019738602
 30
0.0
 10
21.8779754303
 20
42.9262598956
 30
0.0
 10
21.8334957077
 20
42.842621951
 30
0.0
 10
21.7797412109
 20
42.7696719736
 30
0.0
 10
21.7172886287
 20
42.7081644477
 30
0.0
 10
21.6699989808
 20
42.6751732399
 30
0.0
 10
21.6454043418
 20
42.6609777749
 30
0.0
  0
SPLINE
  5
270
100
AcDbEntity
  8
0
100
AcDbSpline
 62
7
  6
BYLAYER
 70
0
 71
3
 72
15
 73
11
 74
0
 42
0.0000001
 43
0.0000001
 44
0.0000000001
 40
0.0
 40
0.0
 40
0.0
 40
0.0
 40
0.1174395229
 40
0.2425602518
 40
0.3727490079
 40
0.5052530429
 40
0.6370354322
 40
0.765111329
 40
0.886878377
 40
1.0
 40
1.0
 40
1.0
 40
1.0
 10
20.9890458553
 20
45.1259227073
 30
0.0
 10
21.0568119269
 20
45.07986408
 30
0.0
 10
21.1896448193
 20
44.9739975998
 30
0.0
 10
21.3715180168
 20
44.7873195611
 30
0.0
 10
21.5374428013
 20
44.5728839522
 30
0.0
 10
21.6818846717
 20
44.3380050564
 30
0.0
 10
21.7999698538
 20
44.090455808
 30
0.0
 10
21.887844644
 20
43.8384942354
 30
0.0
 10
21.9424440917
 20
43.5905926434
 30
0.0
 10
21.9560778095
 20
43.4265712893
 30
0.0
 10
21.9560778095
 20
43.3476470696
 30
0.0
  0
SPLINE
  5
271
100
AcDbEntity
  8
0
100
AcDbSpline
 62
7
  6
BYLAYER
 70
0
 71
3
 72
15
 73
11
 74
0
 42
0.0000001
 43
0.0000001
 44
0.0000000001
 40
0.0
 40
0.0
 40
0.0
 40
0.0
 40
0.1141465952
 40
0.2373352439
 40
0.366975646
 40
0.4999989181
 40
0.6330223406
 40
0.7626631822
 40
0.8858525235
 40
1.0
 40
1.0
 40
1.0
 40
1.0
 10
29.5516129204
 20
44.027291399
 30
0.0
 10
29.6242186307
 20
43.9853734208
 30
0.0
 10
29.7676377145
 20
43.8848276441
 30
0.0
 10
29.9649865258
 20
43.7002161552
 30
0.0
 10
30.1468313972
 20
43.4819600393
 30
0.0
 10
30.3063660699
 20
43.2383069746
 30
0.0
 10
30.437609855
 20
42.9783196988
 30
0.0
 10
30.5357044834
 20
42.7117090006
 30
0.0
 10
30.5969103203
 20
42.4484931306
 30
0.0
 10
30.6122775081
 20
42.2740146675
 30
0.0
 10
30.6122775081
 20
42.1901766415
 30
0.0
  0
SPLINE
  5
272
100
AcDbEntity
  8
0
100
AcDbSpline
 62
7
  6
BYLAYER
 70
0
 71
3
 72
14
 73
10
 74
0
 42
0.0000001
 43
0.0000001
 44
0.0000000001
 40
0.0
 40
0.0
 40
0.0
 40
0.0
 40
0.1080450031
 40
0.2181337829
 40
0.3321057623
 40
0.4514799957
 40
0.5774272149
 40
0.7107510372
 40
1.0
 40
1.0
 40
1.0
 40
1.0
 10
18.2115420588
 20
12.4694269904
 30
0.0
 10
18.2115420592
 20
12.4391378586
 30
0.0
 10
18.2062977536
 20
12.3778613485
 30
0.0
 10
18.182790623
 20
12.2873653534
 30
0.0
 10
18.1440537242
 20
12.1988117439
 30
0.0
 10
18.0905268707
 20
12.1131113601
 30
0.0
 10
18.0227990401
 20
12.0310099107
 30
0.0
 10
17.911506285
 20
11.9245190317
 30
0.0
 10
17.8131533262
 20
11.8567853553
 30
0.0
 10
17.7429293803
 20
11.8162417832
 30
0.0
  0
SPLINE
  5
273
100
AcDbEntity
  8
0
100
AcDbSpline
 62
7
  6
BYLAYER
 70
0
 71
3
 72
15
 73
11
 74
0
 42
0.0000001
 43
0.0000001
 44
0.0000000001
 40
0.0
 40
0.0
 40
0.0
 40
0.0
 40
0.1152095821
 40
0.2381274166
 40
0.366584354
 40
0.4980850344
 40
0.6298477304
 40
0.7590775278
 40
0.8832672852
 40
1.0
 40
1.0
 40
1.0
 40
1.0
 10
25.8349852114
 20
21.7771214488
 30
0.0
 10
25.8385746187
 20
21.6994145174
 30
0.0
 10
25.8580818837
 20
21.5392268524
 30
0.0
 10
25.9185398787
 20
21.298662559
 30
0.0
 10
26.0093406564
 20
21.0560687323
 30
0.0
 10
26.1276162828
 20
20.8189767006
 30
0.0
 10
26.2697598844
 20
20.5947624701
 30
0.0
 10
26.4313299078
 20
20.3903180826
 30
0.0
 10
26.6073101056
 20
20.2121346529
 30
0.0
 10
26.7352463744
 20
20.1107570084
 30
0.0
 10
26.800433215
 20
20.0664514094
 30
0.0
  0
SPLINE
  5
274
100
AcDbEntity
  8
0
100
AcDbSpline
 62
7
  6
BYLAYER
 70
0
 71
3
 72
15
 73
11
 74
0
 42
0.0000001
 43
0.0000001
 44
0.0000000001
 40
0.0
 40
0.0
 40
0.0
 40
0.0
 40
0.1153230741
 40
0.2401381666
 40
0.3714684367
 40
0.5058045379
 40
0.6393219286
 40
0.7682688165
 40
0.8893548637
 40
1.0
 40
1.0
 40
1.0
 40
1.0
 10
19.274763019
 20
25.465426715
 30
0.0
 10
19.274763019
 20
25.3766697918
 30
0.0
 10
19.2919950394
 20
25.1916707638
 30
0.0
 10
19.3601240338
 20
24.9131763677
 30
0.0
 10
19.4689118213
 20
24.6321767089
 30
0.0
 10
19.6137480825
 20
24.3604186044
 30
0.0
 10
19.7886680232
 20
24.1091946847
 30
0.0
 10
19.9863991248
 20
23.8888790462
 30
0.0
 10
20.1987345235
 20
23.7087147757
 30
0.0
 10
20.3521402961
 20
23.6155731143
 30
0.0
 10
20.4290602402
 20
23.5790358708
 30
0.0
  0
SPLINE
  5
275
100
AcDbEntity
  8
0
100
AcDbSpline
 62
7
  6
BYLAYER
 70
0
 71
3
 72
15
 73
11
 74
0
 42
0.0000001
 43
0.0000001
 44
0.0000000001
 40
0.0
 40
0.0
 40
0.0
 40
0.0
 40
0.1153230741
 40
0.2401381666
 40
0.3714684367
 40
0.5058045379
 40
0.6393219286
 40
0.7682688165
 40
0.8893548637
 40
1.0
 40
1.0
 40
1.0
 40
1.0
 10
25.8334012608
 20
42.333846237
 30
0.0
 10
25.8334012608
 20
42.2450893138
 30
0.0
 10
25.8506332812
 20
42.0600902858
 30
0.0
 10
25.9187622756
 20
41.7815958897
 30
0.0
 10
26.0275500631
 20
41.5005962309
 30
0.0
 10
26.1723863243
 20
41.2288381265
 30
0.0
 10
26.347306265
 20
40.9776142068
 30
0.0
 10
26.5450373666
 20
40.7572985683
 30
0.0
 10
26.7573727653
 20
40.5771342977
 30
0.0
 10
26.9107785379
 20
40.4839926363
 30
0.0
 10
26.987698482
 20
40.4474553928
 30
0.0
  0
SPLINE
  5
276
100
AcDbEntity
  8
0
100
AcDbSpline
 62
7
  6
BYLAYER
 70
0
 71
3
 72
15
 73
11
 74
0
 42
0.0000001
 43
0.0000001
 44
0.0000000001
 40
0.0
 40
0.0
 40
0.0
 40
0.0
 40
0.1152095821
 40
0.2381274166
 40
0.366584354
 40
0.4980850344
 40
0.6298477304
 40
0.7590775278
 40
0.8832672852
 40
1.0
 40
1.0
 40
1.0
 40
1.0
 10
19.2763469696
 20
46.2186327535
 30
0.0
 10
19.2799363769
 20
46.1409258221
 30
0.0
 10
19.2994436419
 20
45.9807381571
 30
0.0
 10
19.3599016369
 20
45.7401738636
 30
0.0
 10
19.4507024145
 20
45.497580037
 30
0.0
 10
19.5689780409
 20
45.2604880052
 30
0.0
 10
19.7111216425
 20
45.0362737748
 30
0.0
 10
19.872691666
 20
44.8318293873
 30
0.0
 10
20.0486718638
 20
44.6536459575
 30
0.0
 10
20.1766081326
 20
44.552268313
 30
0.0
 10
20.2417949732
 20
44.507962714
 30
0.0
  0
SPLINE
  5
277
100
AcDbEntity
  8
0
100
AcDbSpline
 62
7
  6
BYLAYER
 70
0
 71
3
 72
13
 73
9
 74
0
 42
0.0000001
 43
0.0000001
 44
0.0000000001
 40
0.0
 40
0.0
 40
0.0
 40
0.0
 40
0.110726178
 40
0.2230900889
 40
0.3386202733
 40
0.4586600821
 40
0.7159478221
 40
1.0
 40
1.0
 40
1.0
 40
1.0
 10
28.2040421914
 20
39.0402787812
 30
0.0
 10
28.1822222757
 20
39.0276882846
 30
0.0
 10
28.1362580692
 20
39.0056304643
 30
0.0
 10
28.0623726403
 20
38.9829009648
 30
0.0
 10
27.9839070549
 20
38.9706233766
 30
0.0
 10
27.8715123673
 20
38.9681682463
 30
0.0
 10
27.7217533914
 20
38.9932543985
 30
0.0
 10
27.6060593113
 20
39.0375503894
 30
0.0
 10
27.5476840971
 20
39.0652788211
 30
0.0
  0
SPLINE
  5
278
100
AcDbEntity
  8
0
100
AcDbSpline
 62
7
  6
BYLAYER
 70
0
 71
3
 72
15
 73
11
 74
0
 42
0.0000001
 43
0.0000001
 44
0.0000000001
 40
0.0
 40
0.0
 40
0.0
 40
0.0
 40
0.1144242875
 40
0.2377756439
 40
0.3674670414
 40
0.5004490055
 40
0.6333685892
 40
0.7628777554
 40
0.8859417474
 40
1.0
 40
1.0
 40
1.0
 40
1.0
 10
18.9527110731
 20
5.647395362
 30
0.0
 10
19.0254609653
 20
5.6059939878
 30
0.0
 10
19.1842675034
 20
5.5330475719
 30
0.0
 10
19.4424225361
 20
5.4556532552
 30
0.0
 10
19.7214994354
 20
5.4083003026
 30
0.0
 10
20.0110767558
 20
5.3927070437
 30
0.0
 10
20.3004548417
 20
5.4094885122
 30
0.0
 10
20.5789430583
 20
5.4579862135
 30
0.0
 10
20.8361436139
 20
5.536439823
 30
0.0
 10
20.9941163513
 20
5.6100700046
 30
0.0
 10
21.0663757057
 20
5.6517887133
 30
0.0
  0
SPLINE
  5
279
100
AcDbEntity
  8
0
100
AcDbSpline
 62
7
  6
BYLAYER
 70
0
 71
3
 72
14
 73
10
 74
0
 42
0.0000001
 43
0.0000001
 44
0.0000000001
 40
0.0
 40
0.0
 40
0.0
 40
0.0
 40
0.2892063581
 40
0.4225696862
 40
0.5485281418
 40
0.6678985001
 40
0.7818564264
 40
0.891947173
 40
1.0
 40
1.0
 40
1.0
 40
1.0
 10
18.2141072632
 20
24.8530604842
 30
0.0
 10
18.2141072632
 20
24.9290712196
 30
0.0
 10
18.2230176594
 20
25.0406726371
 30
0.0
 10
18.2572812718
 20
25.1809630965
 30
0.0
 10
18.2922128692
 20
25.2744447918
 30
0.0
 10
18.3366855761
 20
25.3580853107
 30
0.0
 10
18.3904403693
 20
25.4310339118
 30
0.0
 10
18.4529003816
 20
25.4925317154
 30
0.0
 10
18.500183325
 20
25.5255357184
 30
0.0
 10
18.524781123
 20
25.5397291047
 30
0.0
  0
SPLINE
  5
27A
100
AcDbEntity
  8
0
100
AcDbSpline
 62
7
  6
BYLAYER
 70
0
 71
3
 72
15
 73
11
 74
0
 42
0.0000001
 43
0.0000001
 44
0.0000000001
 40
0.0
 40
0.0
 40
0.0
 40
0.0
 40
0.1106451363
 40
0.2317311835
 40
0.3606780714
 40
0.4941954621
 40
0.6285315633
 40
0.7598618334
 40
0.8846769259
 40
1.0
 40
1.0
 40
1.0
 40
1.0
 10
19.3684044844
 20
22.96666964
 30
0.0
 10
19.2914845403
 20
23.0032068835
 30
0.0
 10
19.1380787677
 20
23.0963485449
 30
0.0
 10
18.925743369
 20
23.2765128154
 30
0.0
 10
18.7280122673
 20
23.4968284539
 30
0.0
 10
18.5530923267
 20
23.7480523736
 30
0.0
 10
18.4082560654
 20
24.0198104781
 30
0.0
 10
18.2994682779
 20
24.3008101369
 30
0.0
 10
18.2313392836
 20
24.579304533
 30
0.0
 10
18.2141072632
 20
24.764303561
 30
0.0
 10
18.2141072632
 20
24.8530604842
 30
0.0
  0
SPLINE
  5
27B
100
AcDbEntity
  8
0
100
AcDbSpline
 62
7
  6
BYLAYER
 70
0
 71
3
 72
13
 73
9
 74
0
 42
0.0000001
 43
0.0000001
 44
0.0000000001
 40
0.0
 40
0.0
 40
0.0
 40
0.0
 40
0.110726178
 40
0.2230900889
 40
0.3386202733
 40
0.4586600821
 40
0.7159478221
 40
1.0
 40
1.0
 40
1.0
 40
1.0
 10
21.6454039496
 20
22.1718592592
 30
0.0
 10
21.6235840339
 20
22.1592687626
 30
0.0
 10
21.5776198274
 20
22.1372109422
 30
0.0
 10
21.5037343985
 20
22.1144814428
 30
0.0
 10
21.4252688131
 20
22.1022038546
 30
0.0
 10
21.3128741255
 20
22.0997487243
 30
0.0
 10
21.1631151496
 20
22.1248348765
 30
0.0
 10
21.0474210694
 20
22.1691308674
 30
0.0
 10
20.9890458553
 20
22.1968592991
 30
0.0
  0
SPLINE
  5
27C
100
AcDbEntity
  8
0
100
AcDbSpline
 62
7
  6
BYLAYER
 70
0
 71
3
 72
14
 73
10
 74
0
 42
0.0000001
 43
0.0000001
 44
0.0000000001
 40
0.0
 40
0.0
 40
0.0
 40
0.0
 40
0.2892063581
 40
0.4225696862
 40
0.5485281418
 40
0.6678985001
 40
0.7818564264
 40
0.891947173
 40
1.0
 40
1.0
 40
1.0
 40
1.0
 10
24.772745505
 20
41.7214800062
 30
0.0
 10
24.772745505
 20
41.7974907416
 30
0.0
 10
24.7816559012
 20
41.9090921591
 30
0.0
 10
24.8159195136
 20
42.0493826185
 30
0.0
 10
24.850851111
 20
42.1428643138
 30
0.0
 10
24.8953238179
 20
42.2265048328
 30
0.0
 10
24.9490786111
 20
42.2994534338
 30
0.0
 10
25.0115386234
 20
42.3609512374
 30
0.0
 10
25.0588215668
 20
42.3939552404
 30
0.0
 10
25.0834193649
 20
42.4081486267
 30
0.0
  0
SPLINE
  5
27D
100
AcDbEntity
  8
0
100
AcDbSpline
 62
7
  6
BYLAYER
 70
0
 71
3
 72
15
 73
11
 74
0
 42
0.0000001
 43
0.0000001
 44
0.0000000001
 40
0.0
 40
0.0
 40
0.0
 40
0.0
 40
0.1106451363
 40
0.2317311835
 40
0.3606780714
 40
0.4941954621
 40
0.6285315633
 40
0.7598618334
 40
0.8846769259
 40
1.0
 40
1.0
 40
1.0
 40
1.0
 10
25.9270427262
 20
39.835089162
 30
0.0
 10
25.8501227821
 20
39.8716264055
 30
0.0
 10
25.6967170095
 20
39.9647680669
 30
0.0
 10
25.4843816108
 20
40.1449323374
 30
0.0
 10
25.2866505092
 20
40.3652479759
 30
0.0
 10
25.1117305685
 20
40.6164718957
 30
0.0
 10
24.9668943073
 20
40.8882300001
 30
0.0
 10
24.8581065198
 20
41.1692296589
 30
0.0
 10
24.7899775254
 20
41.447724055
 30
0.0
 10
24.772745505
 20
41.632723083
 30
0.0
 10
24.772745505
 20
41.7214800062
 30
0.0
  0
SPLINE
  5
27E
100
AcDbEntity
  8
0
100
AcDbSpline
 62
7
  6
BYLAYER
 70
0
 71
3
 72
14
 73
10
 74
0
 42
0.0000001
 43
0.0000001
 44
0.0000000001
 40
0.0
 40
0.0
 40
0.0
 40
0.0
 40
0.1055103701
 40
0.2134730062
 40
0.3260667542
 40
0.4449847088
 40
0.7056778664
 40
0.848869894
 40
1.0
 40
1.0
 40
1.0
 40
1.0
 10
28.2040425836
 20
18.2194664702
 30
0.0
 10
28.1766676506
 20
18.203666283
 30
0.0
 10
28.118085085
 20
18.1769180101
 30
0.0
 10
28.0227482818
 20
18.1534404565
 30
0.0
 10
27.9208095302
 20
18.1465205538
 30
0.0
 10
27.7734551094
 20
18.1596687792
 30
0.0
 10
27.6221183655
 20
18.2069246423
 30
0.0
 10
27.472974423
 20
18.2806270034
 30
0.0
 10
27.397862559
 20
18.3271329776
 30
0.0
 10
27.3604188301
 20
18.3525823907
 30
0.0
  0
SPLINE
  5
27F
100
AcDbEntity
  8
0
100
AcDbSpline
 62
7
  6
BYLAYER
 70
0
 71
3
 72
14
 73
10
 74
0
 42
0.0000001
 43
0.0000001
 44
0.0000000001
 40
0.0
 40
0.0
 40
0.0
 40
0.0
 40
0.2892494338
 40
0.4225733849
 40
0.5485206453
 40
0.6678948276
 40
0.7818666694
 40
0.8919552416
 40
1.0
 40
1.0
 40
1.0
 40
1.0
 10
17.7429199596
 20
13.1226176366
 30
0.0
 10
17.8131452187
 20
13.0820739815
 30
0.0
 10
17.9115000718
 20
13.0143400289
 30
0.0
 10
18.0227950891
 20
12.9078483745
 30
0.0
 10
18.0905243113
 20
12.8257462449
 30
0.0
 10
18.1440522813
 20
12.7400450645
 30
0.0
 10
18.1827900062
 20
12.6514905693
 30
0.0
 10
18.2062976391
 20
12.5609936209
 30
0.0
 10
18.2115420584
 20
12.4997164446
 30
0.0
 10
18.2115420588
 20
12.4694269904
 30
0.0
  0
SPLINE
  5
280
100
AcDbEntity
  8
0
100
AcDbSpline
 62
7
  6
BYLAYER
 70
0
 71
3
 72
14
 73
10
 74
0
 42
0.0000001
 43
0.0000001
 44
0.0000000001
 40
0.0
 40
0.0
 40
0.0
 40
0.0
 40
0.2892282011
 40
0.4225747527
 40
0.548527493
 40
0.6678985339
 40
0.7818628277
 40
0.8919538559
 40
1.0
 40
1.0
 40
1.0
 40
1.0
 10
18.2141072632
 20
45.673872121
 30
0.0
 10
18.2141072632
 20
45.7498887561
 30
0.0
 10
18.2230090342
 20
45.8614935222
 30
0.0
 10
18.2572861267
 20
46.0017805886
 30
0.0
 10
18.2922096424
 20
46.0952592949
 30
0.0
 10
18.336689365
 20
46.1788972395
 30
0.0
 10
18.3904438618
 20
46.2518472169
 30
0.0
 10
18.452896444
 20
46.3133547428
 30
0.0
 10
18.5001860918
 20
46.3463459507
 30
0.0
 10
18.5247807309
 20
46.3605414156
 30
0.0
  0
SPLINE
  5
281
100
AcDbEntity
  8
0
100
AcDbSpline
 62
7
  6
BYLAYER
 70
0
 71
3
 72
15
 73
11
 74
0
 42
0.0000001
 43
0.0000001
 44
0.0000000001
 40
0.0
 40
0.0
 40
0.0
 40
0.0
 40
0.1174395229
 40
0.2425602518
 40
0.3727490079
 40
0.5052530429
 40
0.6370354322
 40
0.765111329
 40
0.886878377
 40
1.0
 40
1.0
 40
1.0
 40
1.0
 10
19.1811392174
 20
43.8955964832
 30
0.0
 10
19.1133731457
 20
43.9416551105
 30
0.0
 10
18.9805402534
 20
44.0475215907
 30
0.0
 10
18.7986670558
 20
44.2341996294
 30
0.0
 10
18.6327422714
 20
44.4486352383
 30
0.0
 10
18.488300401
 20
44.6835141341
 30
0.0
 10
18.3702152189
 20
44.9310633825
 30
0.0
 10
18.2823404286
 20
45.1830249552
 30
0.0
 10
18.2277409809
 20
45.4309265472
 30
0.0
 10
18.2141072632
 20
45.5949479013
 30
0.0
 10
18.2141072632
 20
45.673872121
 30
0.0
  0
SPLINE
  5
282
100
AcDbEntity
  8
0
100
AcDbSpline
 62
7
  6
BYLAYER
 70
0
 71
3
 72
15
 73
11
 74
0
 42
0.0000001
 43
0.0000001
 44
0.0000000001
 40
0.0
 40
0.0
 40
0.0
 40
0.0
 40
0.1141242661
 40
0.2373486253
 40
0.3669740476
 40
0.5000015346
 40
0.6330288076
 40
0.7626536034
 40
0.8858770013
 40
1.0
 40
1.0
 40
1.0
 40
1.0
 10
29.5516217523
 20
11.0814451309
 30
0.0
 10
29.5516217523
 20
11.0451228133
 30
0.0
 10
29.5449525246
 20
10.9695132014
 30
0.0
 10
29.5184443949
 20
10.8554514196
 30
0.0
 10
29.4759286035
 20
10.7399151302
 30
0.0
 10
29.419064066
 20
10.62725316
 30
0.0
 10
29.3499288454
 20
10.5216758598
 30
0.0
 10
29.2711301465
 20
10.4270880601
 30
0.0
 10
29.1856046703
 20
10.3471008571
 30
0.0
 10
29.1234600055
 20
10.3035207356
 30
0.0
 10
29.0920042581
 20
10.2853598597
 30
0.0
  0
SPLINE
  5
283
100
AcDbEntity
  8
0
100
AcDbSpline
 62
7
  6
BYLAYER
 70
0
 71
3
 72
14
 73
10
 74
0
 42
0.0000001
 43
0.0000001
 44
0.0000000001
 40
0.0
 40
0.0
 40
0.0
 40
0.0
 40
0.1055103701
 40
0.2134730062
 40
0.3260667542
 40
0.4449847088
 40
0.7056778664
 40
0.848869894
 40
1.0
 40
1.0
 40
1.0
 40
1.0
 10
21.6454043418
 20
42.6609777749
 30
0.0
 10
21.6180294088
 20
42.6451775877
 30
0.0
 10
21.5594468431
 20
42.6184293147
 30
0.0
 10
21.46411004
 20
42.5949517612
 30
0.0
 10
21.3621712884
 20
42.5880318585
 30
0.0
 10
21.2148168676
 20
42.6011800839
 30
0.0
 10
21.0634801236
 20
42.6484359469
 30
0.0
 10
20.9143361812
 20
42.7221383081
 30
0.0
 10
20.8392243172
 20
42.7686442823
 30
0.0
 10
20.8017805883
 20
42.7940936954
 30
0.0
  0
SPLINE
  5
284
100
AcDbEntity
  8
0
100
AcDbSpline
 62
7
  6
BYLAYER
 70
0
 71
3
 72
15
 73
11
 74
0
 42
0.0000001
 43
0.0000001
 44
0.0000000001
 40
0.0
 40
0.0
 40
0.0
 40
0.0
 40
0.1080124784
 40
0.2180695349
 40
0.3319961384
 40
0.4513316148
 40
0.5772492822
 40
0.7105613955
 40
0.8515577325
 40
1.0
 40
1.0
 40
1.0
 40
1.0
 10
18.5471267348
 20
8.3870109456
 30
0.0
 10
18.54712137
 20
8.4173005722
 30
0.0
 10
18.552387482
 20
8.4785777072
 30
0.0
 10
18.5758895481
 20
8.5690708359
 30
0.0
 10
18.6146046822
 20
8.6576327963
 30
0.0
 10
18.6681501095
 20
8.7433250113
 30
0.0
 10
18.7358694902
 20
8.8254342072
 30
0.0
 10
18.8171357503
 20
8.9031819207
 30
0.0
 10
18.9110435942
 20
8.975841527
 30
0.0
 10
18.9796913076
 20
9.0193826292
 30
0.0
 10
19.0157416054
 20
9.0401961541
 30
0.0
  0
SPLINE
  5
285
100
AcDbEntity
  8
0
100
AcDbSpline
 62
7
  6
BYLAYER
 70
0
 71
3
 72
22
 73
18
 74
0
 42
0.0000001
 43
0.0000001
 44
0.0000000001
 40
0.0
 40
0.0
 40
0.0
 40
0.0
 40
0.0623731325
 40
0.1287713747
 40
0.1983810094
 40
0.27037399
 40
0.4173935404
 40
0.4904369385
 40
0.5617460316
 40
0.6303626871
 40
0.6954705425
 40
0.7564351472
 40
0.8128878317
 40
0.8648051546
 40
0.9125926406
 40
0.9571804183
 40
1.0
 40
1.0
 40
1.0
 40
1.0
 10
22.5512607914
 20
11.0814169234
 30
0.0
 10
22.6087192437
 20
11.1145903783
 30
0.0
 10
22.7319353825
 20
11.1753037388
 30
0.0
 10
22.9306409395
 20
11.2473591424
 30
0.0
 10
23.1454441774
 20
11.3018773599
 30
0.0
 10
23.4489754984
 20
11.3499582794
 30
0.0
 10
23.7613379256
 20
11.3585826018
 30
0.0
 10
24.0700334295
 20
11.3278975274
 30
0.0
 10
24.2929459396
 20
11.2857188329
 30
0.0
 10
24.5028350655
 20
11.2252092073
 30
0.0
 10
24.6953085662
 20
11.1476886754
 30
0.0
 10
24.8662948029
 20
11.0546787201
 30
0.0
 10
25.0122241548
 20
10.9480390884
 30
0.0
 10
25.1300141619
 20
10.8297877249
 30
0.0
 10
25.216879586
 20
10.7019628315
 30
0.0
 10
25.2704591907
 20
10.5671544461
 30
0.0
 10
25.2826187151
 20
10.4737795275
 30
0.0
 10
25.2826267824
 20
10.4282317174
 30
0.0
  0
SPLINE
  5
286
100
AcDbEntity
  8
0
100
AcDbSpline
 62
7
  6
BYLAYER
 70
0
 71
3
 72
15
 73
11
 74
0
 42
0.0000001
 43
0.0000001
 44
0.0000000001
 40
0.0
 40
0.0
 40
0.0
 40
0.0
 40
0.1141229605
 40
0.2373462928
 40
0.366971064
 40
0.4999983279
 40
0.633025824
 40
0.762651271
 40
0.8858756957
 40
1.0
 40
1.0
 40
1.0
 40
1.0
 10
23.6119038882
 20
13.4492257073
 30
0.0
 10
23.6433596251
 20
13.467386577
 30
0.0
 10
23.7055042693
 20
13.5109666701
 30
0.0
 10
23.7910297146
 20
13.5909538465
 30
0.0
 10
23.8698284039
 20
13.6855416122
 30
0.0
 10
23.9389636328
 20
13.7911188979
 30
0.0
 10
23.995828187
 20
13.9037808682
 30
0.0
 10
24.0383440031
 20
14.0193171829
 30
0.0
 10
24.0648521404
 20
14.1333790047
 30
0.0
 10
24.0715213824
 20
14.2089886486
 30
0.0
 10
24.0715213824
 20
14.2453109784
 30
0.0
  0
SPLINE
  5
287
100
AcDbEntity
  8
0
100
AcDbSpline
 62
7
  6
BYLAYER
 70
0
 71
3
 72
14
 73
10
 74
0
 42
0.0000001
 43
0.0000001
 44
0.0000000001
 40
0.0
 40
0.0
 40
0.0
 40
0.0
 40
0.1082563834
 40
0.2185243057
 40
0.3326160065
 40
0.4520352644
 40
0.5779468792
 40
0.7111577697
 40
1.0
 40
1.0
 40
1.0
 40
1.0
 10
8.2526309095
 20
12.1836407832
 30
0.0
 10
8.252630602
 20
12.155505456
 30
0.0
 10
8.2574557837
 20
12.0985976059
 30
0.0
 10
8.2790880555
 20
12.0145282008
 30
0.0
 10
8.314740598
 20
11.9322267368
 30
0.0
 10
8.3640220063
 20
11.852527526
 30
0.0
 10
8.426396041
 20
11.7761104945
 30
0.0
 10
8.5289088535
 20
11.6769058361
 30
0.0
 10
8.619587582
 20
11.6136338648
 30
0.0
 10
8.6843634992
 20
11.5756944819
 30
0.0
  0
SPLINE
  5
288
100
AcDbEntity
  8
0
100
AcDbSpline
 62
7
  6
BYLAYER
 70
0
 71
3
 72
14
 73
10
 74
0
 42
0.0000001
 43
0.0000001
 44
0.0000000001
 40
0.0
 40
0.0
 40
0.0
 40
0.0
 40
0.2892465103
 40
0.4225697622
 40
0.5485168638
 40
0.6678914139
 40
0.7818640907
 40
0.891953856
 40
1.0
 40
1.0
 40
1.0
 40
1.0
 10
18.2378661499
 20
49.3344161087
 30
0.0
 10
18.1720308829
 20
49.372425258
 30
0.0
 10
18.0709341749
 20
49.4205264696
 30
0.0
 10
17.932304844
 20
49.4609655393
 30
0.0
 10
17.8338983329
 20
49.4774674445
 30
0.0
 10
17.7392264481
 20
49.4807526863
 30
0.0
 10
17.6491707172
 20
49.4706926403
 30
0.0
 10
17.5646768101
 20
49.4473572055
 30
0.0
 10
17.5124672517
 20
49.4228912256
 30
0.0
 10
17.4878750206
 20
49.4086929783
 30
0.0
  0
SPLINE
  5
289
100
AcDbEntity
  8
0
100
AcDbSpline
 62
7
  6
BYLAYER
 70
0
 71
3
 72
15
 73
11
 74
0
 42
0.0000001
 43
0.0000001
 44
0.0000000001
 40
0.0
 40
0.0
 40
0.0
 40
0.0
 40
0.1141474765
 40
0.2373368178
 40
0.3669776594
 40
0.5000010819
 40
0.633024354
 40
0.7626647561
 40
0.8858534048
 40
1.0
 40
1.0
 40
1.0
 40
1.0
 10
29.5516217523
 20
41.5778104107
 30
0.0
 10
29.5516217523
 20
41.6616484367
 30
0.0
 10
29.5362545645
 20
41.8361268998
 30
0.0
 10
29.4750487275
 20
42.0993427697
 30
0.0
 10
29.3769540991
 20
42.365953468
 30
0.0
 10
29.2457103141
 20
42.6259407438
 30
0.0
 10
29.0861756414
 20
42.8695938085
 30
0.0
 10
28.90433077
 20
43.0878499244
 30
0.0
 10
28.7069819587
 20
43.2724614133
 30
0.0
 10
28.5635628749
 20
43.37300719
 30
0.0
 10
28.4909571645
 20
43.4149251681
 30
0.0
  0
SPLINE
  5
28A
100
AcDbEntity
  8
0
100
AcDbSpline
 62
7
  6
BYLAYER
 70
0
 71
3
 72
14
 73
10
 74
0
 42
0.0000001
 43
0.0000001
 44
0.0000000001
 40
0.0
 40
0.0
 40
0.0
 40
0.0
 40
0.2892282011
 40
0.4225747527
 40
0.548527493
 40
0.6678985339
 40
0.7818628277
 40
0.8919538559
 40
1.0
 40
1.0
 40
1.0
 40
1.0
 10
24.772745505
 20
21.2323608163
 30
0.0
 10
24.772745505
 20
21.3083774515
 30
0.0
 10
24.7816472761
 20
21.4199822175
 30
0.0
 10
24.8159243685
 20
21.5602692839
 30
0.0
 10
24.8508478842
 20
21.6537479903
 30
0.0
 10
24.8953276068
 20
21.7373859348
 30
0.0
 10
24.9490821036
 20
21.8103359123
 30
0.0
 10
25.0115346858
 20
21.8718434381
 30
0.0
 10
25.0588243336
 20
21.904834646
 30
0.0
 10
25.0834189727
 20
21.919030111
 30
0.0
  0
SPLINE
  5
28B
100
AcDbEntity
  8
0
100
AcDbSpline
 62
7
  6
BYLAYER
 70
0
 71
3
 72
15
 73
11
 74
0
 42
0.0000001
 43
0.0000001
 44
0.0000000001
 40
0.0
 40
0.0
 40
0.0
 40
0.0
 40
0.1174395229
 40
0.2425602518
 40
0.3727490079
 40
0.5052530429
 40
0.6370354322
 40
0.765111329
 40
0.886878377
 40
1.0
 40
1.0
 40
1.0
 40
1.0
 10
25.7397774592
 20
19.4540851786
 30
0.0
 10
25.6720113875
 20
19.5001438058
 30
0.0
 10
25.5391784952
 20
19.606010286
 30
0.0
 10
25.3573052976
 20
19.7926883248
 30
0.0
 10
25.1913805132
 20
20.0071239337
 30
0.0
 10
25.0469386428
 20
20.2420028294
 30
0.0
 10
24.9288534607
 20
20.4895520778
 30
0.0
 10
24.8409786704
 20
20.7415136505
 30
0.0
 10
24.7863792228
 20
20.9894152425
 30
0.0
 10
24.772745505
 20
21.1534365966
 30
0.0
 10
24.772745505
 20
21.2323608163
 30
0.0
  0
ENDSEC
  0
SECTION
  2
OBJECTS
  0
DICTIONARY
  5
C
100
AcDbDictionary
280
0
281
1
  3
ACAD_GROUP
350
D
  3
ACAD_MLINESTYLE
350
17
  3
ACAD_LAYOUT
350
1A
  3
ACAD_PLOTSETTINGS
350
19
  3
ACAD_PLOTSTYLENAME
350
E
  0
DICTIONARY
  5
D
102
{ACAD_REACTORS
330
C
102
}
100
AcDbDictionary
280
0
281
1
  0
ACDBDICTIONARYWDFLT
  5
E
102
{ACAD_REACTORS
330
C
102
}
100
AcDbDictionary
281
1
  3
Normal
350
F
100
AcDbDictionaryWithDefault
340
F
  0
DICTIONARY
  5
17
102
{ACAD_REACTORS
330
C
102
}
100
AcDbDictionary
280
0
281
1
  3
Standard
350
18
  0
DICTIONARY
  5
19
102
{ACAD_REACTORS
330
C
102
}
100
AcDbDictionary
281
1
  0
DICTIONARY
  5
1A
102
{ACAD_REACTORS
330
C
102
}
100
AcDbDictionary
281
1
  3
Model
350
28C
  3
Layout1
350
28D
  0
ACDBPLACEHOLDER
  5
F
102
{ACAD_REACTORS
330
E
102
}
  0
MLINESTYLE
  5
18
102
{ACAD_REACTORS
330
17
102
}
100
AcDbMlineStyle
  2
STANDARD
 70
0
  3

 62
256
 51
90.0
 52
90.0
 71
2
 49
0.5
 62
256
  6
BYLAYER
 49
-0.5
 62
256
  6
BYLAYER
  0
LAYOUT
  5
28C
102
{ACAD_REACTORS
330
1A
102
}
100
AcDbPlotSettings
  1

  2
none_device
  4

  6

 40
0.0
 41
0.0
 42
0.0
 43
0.0
 44
210.0
 45
297.0
 46
0.0
 47
0.0
 48
0.0
 49
0.0
140
0.0
141
0.0
142
1.0
143
1.0
 70
1024
 72
1
 73
0
 74
0
  7

 75
0
147
1.0
148
0.0
149
0.0
100
AcDbLayout
  1
Model
 70
0
 71
0
 10
0.0
 20
0.0
 11
210.0
 21
297.0
 12
0.0
 22
0.0
 32
0.0
 14
0.0
 24
0.0
 34
0.0
 15
0.0
 25
0.0
 35
0.0
146
0.0
 13
0.0
 23
0.0
 33
0.0
 16
1.0
 26
0.0
 36
0.0
 17
0.0
 27
1.0
 37
0.0
 76
0
330
210
345
0
346
0
  0
LAYOUT
  5
28D
102
{ACAD_REACTORS
330
1A
102
}
100
AcDbPlotSettings
  1

  2
none_device
  4

  6

 40
0.0
 41
0.0
 42
0.0
 43
0.0
 44
210.0
 45
297.0
 46
0.0
 47
0.0
 48
0.0
 49
0.0
140
0.0
141
0.0
142
1.0
143
1.0
 70
0
 72
1
 73
0
 74
0
  7

 75
0
147
1.0
148
0.0
149
0.0
100
AcDbLayout
  1
Layout1
 70
0
 71
1
 10
0.0
 20
0.0
 11
210.0
 21
297.0
 12
0.0
 22
0.0
 32
0.0
 14
0.0
 24
0.0
 34
0.0
 15
0.0
 25
0.0
 35
0.0
146
0.0
 13
0.0
 23
0.0
 33
0.0
 16
1.0
 26
0.0
 36
0.0
 17
0.0
 27
1.0
 37
0.0
 76
0
330
211
345
0
346
0
  0
ENDSEC
  0
EOF
