999
DXF file: C:\Users\sesa63760\Dev\_Creo\CAD\MCADID0003384_3D-CAD\drw0001_6.dxf
999
Pro/ENGINEER 2019471 by Parametric Technology Corporation
  0
SECTION
  2
HEADER
  9
$ACADVER
  1
AC1024
  9
$DWGCODEPAGE
  3
ANSI_1252
  9
$EXTMAX
 10
75.2898369713
 20
106.4813408594
 30
0.0
  9
$EXTMIN
 10
0.0
 20
0.0
 30
0.0
  9
$LIMMIN
 10
0.0
 20
0.0
  9
$LIMMAX
 10
75.2898369713
 20
106.4813408594
  9
$VIEWCTR
 10
37.6449184856
 20
53.2406704297
  9
$VIEWSIZE
 40
106.4813408594
  9
$CLAYER
  8
0
  9
$LTSCALE
 40
6.9410059227
  9
$CELTYPE
  6
BYLAYER
  9
$DIMSCALE
 40
1.0
  9
$DIMASZ
 40
0.896307583
  9
$DIMEXO
 40
1.0
  9
$DIMDLI
 40
4.795604092
  9
$DIMEXE
 40
1.0
  9
$DIMCEN
 40
1.1358009692
  9
$DIMLFAC
 40
1.0
  9
$DIMBLK
  1
_FILLED
  9
$DIMALT
 70
0
  9
$DIMALTF
 40
0.0393700787
  9
$DIMTXT
 40
1.2548306162
  9
$DIMTOL
 70
1
  9
$DIMLIM
 70
0
  9
$DIMTFAC
 40
1.0
  9
$DIMTP
 40
0.01
  9
$DIMTM
 40
0.01
  9
$DIMGAP
 40
0.625
  9
$DIMDSEP
 70
46
  9
$AUNITS
 70
0
  9
$PDMODE
 70
3
  9
$PDSIZE
 40
0.3125
  9
$HANDSEED
  5
27F
  9
$TILEMODE
 70
1
  9
$MEASUREMENT
 70
1
  9
$INSUNITS
 70
4
  0
ENDSEC
  0
SECTION
  2
CLASSES
  0
CLASS
  1
ACDBDICTIONARYWDFLT
  2
AcDbDictionaryWithDefault
  3
AutoCAD 2000
 90
0
 91
1
280
0
281
0
  0
CLASS
  1
ACDBPLACEHOLDER
  2
AcDbPlaceHolder
  3
AutoCAD 2000
 90
0
 91
1
280
0
281
0
  0
CLASS
  1
LAYOUT
  2
AcDbLayout
  3
AutoCAD 2000
 90
0
 91
0
280
0
281
0
  0
ENDSEC
  0
SECTION
  2
TABLES
  0
TABLE
  2
VPORT
  5
8
100
AcDbSymbolTable
 70
2
  0
VPORT
  5
1F4
100
AcDbSymbolTableRecord
100
AcDbViewportTableRecord
  2
*ACTIVE
 70
0
 10
0.0
 20
0.0
 11
1.0
 21
1.0
 12
37.6449184856
 22
53.2406704297
 13
0.0
 23
0.0
 14
1.0
 24
1.0
 15
0.0
 25
0.0
 16
0.0
 26
0.0
 36
1.0
 17
0.0
 27
0.0
 37
0.0
 40
106.4813408594
 41
0.7070707071
 42
50.0
 43
0.0
 44
0.0
 50
0.0
 51
0.0
 71
0
 72
100
 73
1
 74
1
 75
0
 76
0
 77
0
 78
0
  0
ENDTAB
  0
TABLE
  2
LTYPE
  5
5
100
AcDbSymbolTable
 70
6
  0
LTYPE
  5
14
100
AcDbSymbolTableRecord
100
AcDbLinetypeTableRecord
  2
BYBLOCK
 70
0
  3

 72
65
 73
0
 40
0.0
  0
LTYPE
  5
15
100
AcDbSymbolTableRecord
100
AcDbLinetypeTableRecord
  2
BYLAYER
 70
0
  3

 72
65
 73
0
 40
0.0
  0
LTYPE
  5
16
100
AcDbSymbolTableRecord
100
AcDbLinetypeTableRecord
  2
CONTINUOUS
 70
64
  3
Solid line
 72
65
 73
0
 40
0.0
  0
LTYPE
  5
1F5
100
AcDbSymbolTableRecord
100
AcDbLinetypeTableRecord
  2
CENTER
 70
64
  3
____ _ ____ _ ____ _ ____ _ ____ _ ____ _ ____
 72
65
 73
4
 40
0.6
 49
0.375
 74
0
 49
-0.075
 74
0
 49
0.075
 74
0
 49
-0.075
 74
0
  0
LTYPE
  5
1F6
100
AcDbSymbolTableRecord
100
AcDbLinetypeTableRecord
  2
HIDDEN
 70
64
  3
- - - - - - - - - - - - - - - - - - - -
 72
65
 73
2
 40
0.2
 49
0.1
 74
0
 49
-0.1
 74
0
  0
LTYPE
  5
1F7
100
AcDbSymbolTableRecord
100
AcDbLinetypeTableRecord
  2
PHANTOM
 70
64
  3
_____ _ _ _____ _ _ _____ _ _ _____
 72
65
 73
6
 40
0.8
 49
0.45
 74
0
 49
-0.05
 74
0
 49
0.1
 74
0
 49
-0.05
 74
0
 49
0.1
 74
0
 49
-0.05
 74
0
  0
LTYPE
  5
1F8
100
AcDbSymbolTableRecord
100
AcDbLinetypeTableRecord
  2
DOT
 70
64
  3
. . . . . . . . . . . . . . . . . . . .
 72
65
 73
2
 40
0.2
 49
0.1
 74
0
 49
-0.1
 74
0
  0
LTYPE
  5
1F9
100
AcDbSymbolTableRecord
100
AcDbLinetypeTableRecord
  2
DASHED
 70
64
  3
- - - - - - - - - - - - - - - - - - - -
 72
65
 73
2
 40
0.2
 49
0.1
 74
0
 49
-0.1
 74
0
  0
ENDTAB
  0
TABLE
  2
LAYER
  5
2
100
AcDbSymbolTable
 70
36
  0
LAYER
  5
10
100
AcDbSymbolTableRecord
100
AcDbLayerTableRecord
  2
0
 70
0
 62
7
  6
CONTINUOUS
370
-3
390
F
  0
LAYER
  5
1FA
100
AcDbSymbolTableRecord
100
AcDbLayerTableRecord
  2
DEFAULT_1
 70
0
 62
7
  6
CENTER
370
-3
390
F
  0
LAYER
  5
1FB
100
AcDbSymbolTableRecord
100
AcDbLayerTableRecord
  2
DEFAULT_2
 70
0
 62
7
  6
HIDDEN
370
-3
390
F
  0
LAYER
  5
1FC
100
AcDbSymbolTableRecord
100
AcDbLayerTableRecord
  2
DEFAULT_3
 70
0
 62
7
  6
PHANTOM
370
-3
390
F
  0
LAYER
  5
1FD
100
AcDbSymbolTableRecord
100
AcDbLayerTableRecord
  2
00_COMPONENTS
 70
0
 62
7
  6
CONTINUOUS
370
-3
390
F
  0
LAYER
  5
1FE
100
AcDbSymbolTableRecord
100
AcDbLayerTableRecord
  2
01_1_DEFAULT_DATUMS
 70
0
 62
7
  6
CONTINUOUS
370
-3
390
F
  0
LAYER
  5
1FF
100
AcDbSymbolTableRecord
100
AcDbLayerTableRecord
  2
01_PLANES
 70
0
 62
7
  6
CONTINUOUS
370
-3
390
F
  0
LAYER
  5
200
100
AcDbSymbolTableRecord
100
AcDbLayerTableRecord
  2
02_COORD_SYS
 70
0
 62
7
  6
CONTINUOUS
370
-3
390
F
  0
LAYER
  5
201
100
AcDbSymbolTableRecord
100
AcDbLayerTableRecord
  2
03_AXES
 70
0
 62
7
  6
CONTINUOUS
370
-3
390
F
  0
LAYER
  5
202
100
AcDbSymbolTableRecord
100
AcDbLayerTableRecord
  2
04_POINTS
 70
0
 62
7
  6
CONTINUOUS
370
-3
390
F
  0
LAYER
  5
203
100
AcDbSymbolTableRecord
100
AcDbLayerTableRecord
  2
05_CURVES
 70
0
 62
7
  6
CONTINUOUS
370
-3
390
F
  0
LAYER
  5
204
100
AcDbSymbolTableRecord
100
AcDbLayerTableRecord
  2
06_SURFS
 70
0
 62
7
  6
CONTINUOUS
370
-3
390
F
  0
LAYER
  5
205
100
AcDbSymbolTableRecord
100
AcDbLayerTableRecord
  2
07_COSMETICS
 70
0
 62
7
  6
CONTINUOUS
370
-3
390
F
  0
LAYER
  5
206
100
AcDbSymbolTableRecord
100
AcDbLayerTableRecord
  2
10_NOTES
 70
0
 62
7
  6
CONTINUOUS
370
-3
390
F
  0
LAYER
  5
207
100
AcDbSymbolTableRecord
100
AcDbLayerTableRecord
  2
11_NOTES_PUB
 70
0
 62
7
  6
CONTINUOUS
370
-3
390
F
  0
LAYER
  5
208
100
AcDbSymbolTableRecord
100
AcDbLayerTableRecord
  2
13_REF_GTOL
 70
0
 62
7
  6
CONTINUOUS
370
-3
390
F
  0
LAYER
  5
209
100
AcDbSymbolTableRecord
100
AcDbLayerTableRecord
  2
16_MISC
 70
0
 62
7
  6
CONTINUOUS
370
-3
390
F
  0
LAYER
  5
20A
100
AcDbSymbolTableRecord
100
AcDbLayerTableRecord
  2
17_NO_PRINT
 70
0
 62
7
  6
CONTINUOUS
370
-3
390
F
  0
LAYER
  5
20B
100
AcDbSymbolTableRecord
100
AcDbLayerTableRecord
  2
18_DATUM_CAMS_JOINTS
 70
0
 62
7
  6
CONTINUOUS
370
-3
390
F
  0
LAYER
  5
20C
100
AcDbSymbolTableRecord
100
AcDbLayerTableRecord
  2
19_DATUM_FUNCTIONAL
 70
0
 62
7
  6
CONTINUOUS
370
-3
390
F
  0
LAYER
  5
20D
100
AcDbSymbolTableRecord
100
AcDbLayerTableRecord
  2
20_DATUM_KINEMATIC_SCHEME
 70
0
 62
7
  6
CONTINUOUS
370
-3
390
F
  0
ENDTAB
  0
TABLE
  2
STYLE
  5
3
100
AcDbSymbolTable
 70
1
  0
STYLE
  5
11
100
AcDbSymbolTableRecord
100
AcDbTextStyleTableRecord
  2
STANDARD
 70
0
 40
0.0
 41
1.0
 50
0.0
 71
0
 42
0.2
  3
ARIAL.TTF
  4

  0
STYLE
  5
20E
100
AcDbSymbolTableRecord
100
AcDbTextStyleTableRecord
  2
TEXTSTYLE_1
 70
0
 40
0.0
 41
0.8
 50
0.0
 71
0
 42
0.2
  3
gdt
  4

  0
ENDTAB
  0
TABLE
  2
VIEW
  5
6
100
AcDbSymbolTable
 70
0
  0
ENDTAB
  0
TABLE
  2
UCS
  5
7
100
AcDbSymbolTable
 70
0
  0
ENDTAB
  0
TABLE
  2
APPID
  5
9
100
AcDbSymbolTable
 70
1
  0
APPID
  5
20F
100
AcDbSymbolTableRecord
100
AcDbRegAppTableRecord
  2
ACAD
 70
0
  0
ENDTAB
  0
TABLE
  2
BLOCK_RECORD
  5
1
100
AcDbSymbolTable
 70
0
  0
BLOCK_RECORD
  5
210
100
AcDbSymbolTableRecord
100
AcDbBlockTableRecord
  2
*Model_Space
  0
BLOCK_RECORD
  5
211
100
AcDbSymbolTableRecord
100
AcDbBlockTableRecord
  2
*Paper_Space
  0
BLOCK_RECORD
  5
212
100
AcDbSymbolTableRecord
100
AcDbBlockTableRecord
  2
_FILLED
  0
ENDTAB
  0
TABLE
  2
DIMSTYLE
  5
A
100
AcDbSymbolTable
 70
1
100
AcDbDimStyleTable
 71
0
  0
DIMSTYLE
105
213
100
AcDbSymbolTableRecord
100
AcDbDimStyleTableRecord
  2
STANDARD
 70
0
  3

  4

 40
1.0
 41
0.896307583
 42
1.0
 43
0.38
 44
1.0
 45
0.0
 46
0.0
 47
0.01
 48
0.01
140
1.2548306162
141
0.09
142
0.0
143
25.4
144
1.0
145
0.0
146
1.0
147
0.625
 71
1
 72
0
 73
0
 74
0
 75
0
 76
0
 77
1
 78
8
 79
2
170
0
171
1
172
0
173
0
174
0
175
0
176
0
177
0
178
0
270
2
179
2
271
2
272
2
273
2
274
2
275
0
280
0
281
0
282
0
283
1
284
8
285
0
286
0
287
3
288
0
340
11
278
46
341
212
342
212
343
212
344
212
  0
ENDTAB
  0
ENDSEC
  0
SECTION
  2
BLOCKS
  0
BLOCK
  5
20
100
AcDbEntity
  8
0
100
AcDbBlockBegin
  2
*Model_Space
 70
0
 10
0.0
 20
0.0
 30
0.0
  3
*Model_Space
  1

  0
ENDBLK
  5
21
100
AcDbEntity
  8
0
100
AcDbBlockEnd
  0
BLOCK
  5
1C
100
AcDbEntity
  8
0
100
AcDbBlockBegin
  2
*Paper_Space
 70
0
 10
0.0
 20
0.0
 30
0.0
  3
*Paper_Space
  1

  0
ENDBLK
  5
1D
100
AcDbEntity
  8
0
100
AcDbBlockEnd
  0
BLOCK
  5
214
100
AcDbEntity
  8
0
100
AcDbBlockBegin
  2
_FILLED
 70
64
 10
0.0
 20
0.0
  3
_FILLED
  1

  0
SOLID
  5
215
100
AcDbEntity
  8
0
  6
BYBLOCK
 62
0
100
AcDbTrace
 10
0.0
 20
0.0
 11
-1.0
 21
0.25
 12
-1.0
 22
-0.25
 13
-1.0
 23
-0.25
  0
ENDBLK
  5
216
100
AcDbEntity
  8
0
  6
BYBLOCK
 62
0
100
AcDbBlockEnd
  0
ENDSEC
  0
SECTION
  2
ENTITIES
  0
LINE
  5
217
100
AcDbEntity
  8
0
100
AcDbLine
 62
7
  6
BYLAYER
 10
52.3162623279
 20
8.7974180025
 11
30.6162913824
 21
8.7974180025
  0
LINE
  5
218
100
AcDbEntity
  8
0
100
AcDbLine
 62
7
  6
BYLAYER
 10
29.9662768551
 20
12.2974180025
 11
53.9662768551
 21
12.2974180025
  0
LINE
  5
219
100
AcDbEntity
  8
0
100
AcDbLine
 62
7
  6
BYLAYER
 10
44.1865232859
 20
13.2974180025
 11
36.7791788041
 21
13.2974180025
  0
LINE
  5
21A
100
AcDbEntity
  8
0
100
AcDbLine
 62
7
  6
BYLAYER
 10
38.3466731362
 20
15.1974180025
 11
40.9292967266
 21
15.1974180025
  0
LINE
  5
21B
100
AcDbEntity
  8
0
100
AcDbLine
 62
7
  6
BYLAYER
 10
40.9392967266
 20
15.2974180025
 11
38.4504275868
 21
15.2974180025
  0
LINE
  5
21C
100
AcDbEntity
  8
0
100
AcDbLine
 62
7
  6
BYLAYER
 10
27.3888598186
 20
15.5332580948
 11
31.1871463107
 21
14.3725290389
  0
LINE
  5
21D
100
AcDbEntity
  8
0
100
AcDbLine
 62
7
  6
BYLAYER
 10
24.278429933
 20
16.7922910386
 11
27.3888598186
 21
15.5332580948
  0
LINE
  5
21E
100
AcDbEntity
  8
0
100
AcDbLine
 62
7
  6
BYLAYER
 10
36.0481977687
 20
16.2974180025
 11
38.2756837973
 21
16.2974180025
  0
LINE
  5
21F
100
AcDbEntity
  8
0
100
AcDbLine
 62
7
  6
BYLAYER
 10
42.0030195919
 20
16.9827686466
 11
42.7428618647
 21
16.9827686466
  0
LINE
  5
220
100
AcDbEntity
  8
0
100
AcDbLine
 62
7
  6
BYLAYER
 10
53.9662768551
 20
18.2974180025
 11
41.940032421
 21
18.2974180025
  0
LINE
  5
221
100
AcDbEntity
  8
0
100
AcDbLine
 62
7
  6
BYLAYER
 10
23.9562768551
 20
17.3497368082
 11
24.278429933
 21
16.7922910386
  0
LINE
  5
222
100
AcDbEntity
  8
0
100
AcDbLine
 62
7
  6
BYLAYER
 10
34.2162768551
 20
78.7974180025
 11
33.7162768551
 21
78.2974180025
  0
LINE
  5
223
100
AcDbEntity
  8
0
100
AcDbLine
 62
7
  6
BYLAYER
 10
43.5853096867
 20
16.2680602236
 11
43.3890620786
 21
16.5598911928
  0
LINE
  5
224
100
AcDbEntity
  8
0
100
AcDbLine
 62
7
  6
BYLAYER
 10
29.3037974634
 20
14.9480669121
 11
29.9662768551
 21
12.2974180025
  0
LINE
  5
225
100
AcDbEntity
  8
0
100
AcDbLine
 62
7
  6
BYLAYER
 10
24.1663274763
 20
68.852068528
 11
24.1662704354
 21
69.0068534671
  0
LINE
  5
226
100
AcDbEntity
  8
0
100
AcDbLine
 62
7
  6
BYLAYER
 10
23.1794027609
 20
68.3378669359
 11
23.1793035493
 21
68.6967511755
  0
LINE
  5
227
100
AcDbEntity
  8
0
100
AcDbLine
 62
7
  6
BYLAYER
 10
23.1793033936
 20
63.8980851229
 11
23.1794027609
 21
67.5600494766
  0
LINE
  5
228
100
AcDbEntity
  8
0
100
AcDbLine
 62
7
  6
BYLAYER
 10
23.4662768551
 20
67.7313947154
 11
23.4662768551
 21
68.5092121747
  0
LINE
  5
229
100
AcDbEntity
  8
0
100
AcDbLine
 62
7
  6
BYLAYER
 10
23.5744856914
 20
63.6397575558
 11
23.5744856914
 21
68.9550784492
  0
LINE
  5
22A
100
AcDbEntity
  8
0
100
AcDbLine
 62
7
  6
BYLAYER
 10
23.9562768551
 20
17.3497368082
 11
23.9562768551
 21
64.7737895192
  0
LINE
  5
22B
100
AcDbEntity
  8
0
100
AcDbLine
 62
7
  6
BYLAYER
 10
28.9062768551
 20
73.8829366315
 11
28.9062768551
 21
63.4675839516
  0
LINE
  5
22C
100
AcDbEntity
  8
0
100
AcDbLine
 62
7
  6
BYLAYER
 10
28.9662768551
 20
60.583049481
 11
28.9662768551
 21
77.2972086848
  0
LINE
  5
22D
100
AcDbEntity
  8
0
100
AcDbLine
 62
7
  6
BYLAYER
 10
35.4662759862
 20
90.3974180025
 11
35.5230457476
 21
90.6434153073
  0
LINE
  5
22E
100
AcDbEntity
  8
0
100
AcDbLine
 62
7
  6
BYLAYER
 10
44.4256476496
 20
14.5164307058
 11
43.5853096867
 21
16.2680602236
  0
LINE
  5
22F
100
AcDbEntity
  8
0
100
AcDbLine
 62
7
  6
BYLAYER
 10
30.6162768551
 20
8.7974180025
 11
30.6162768551
 21
12.2974180025
  0
LINE
  5
230
100
AcDbEntity
  8
0
100
AcDbLine
 62
7
  6
BYLAYER
 10
33.7162768551
 20
77.2974180025
 11
33.7162768551
 21
78.2974180025
  0
LINE
  5
231
100
AcDbEntity
  8
0
100
AcDbLine
 62
7
  6
BYLAYER
 10
35.4662768551
 20
78.7974180025
 11
35.4662768551
 21
90.3974180025
  0
LINE
  5
232
100
AcDbEntity
  8
0
100
AcDbLine
 62
7
  6
BYLAYER
 10
38.3466731362
 20
15.1974180025
 11
38.2756837973
 21
16.2974180025
  0
LINE
  5
233
100
AcDbEntity
  8
0
100
AcDbLine
 62
7
  6
BYLAYER
 10
37.9662768551
 20
92.8974180025
 11
37.9662768551
 21
94.5974180025
  0
LINE
  5
234
100
AcDbEntity
  8
0
100
AcDbLine
 62
7
  6
BYLAYER
 10
39.4662768551
 20
83.0974180025
 11
39.4662768551
 21
91.6435213441
  0
LINE
  5
235
100
AcDbEntity
  8
0
100
AcDbLine
 62
7
  6
BYLAYER
 10
39.6662768551
 20
86.0974683896
 11
39.6662768551
 21
97.6973676153
  0
LINE
  5
236
100
AcDbEntity
  8
0
100
AcDbLine
 62
7
  6
BYLAYER
 10
43.2662768551
 20
97.6973676153
 11
43.2662768551
 21
86.0974683896
  0
LINE
  5
237
100
AcDbEntity
  8
0
100
AcDbLine
 62
7
  6
BYLAYER
 10
43.4662768551
 20
83.0974180025
 11
43.4662768551
 21
91.6435213441
  0
LINE
  5
238
100
AcDbEntity
  8
0
100
AcDbLine
 62
7
  6
BYLAYER
 10
44.9662768551
 20
92.8974180025
 11
44.9662768551
 21
94.5974180025
  0
LINE
  5
239
100
AcDbEntity
  8
0
100
AcDbLine
 62
7
  6
BYLAYER
 10
47.4662768551
 20
78.7974180025
 11
47.4662768551
 21
90.3974180025
  0
LINE
  5
23A
100
AcDbEntity
  8
0
100
AcDbLine
 62
7
  6
BYLAYER
 10
31.2598308501
 20
60.583049481
 11
28.9662768551
 21
60.583049481
  0
LINE
  5
23B
100
AcDbEntity
  8
0
100
AcDbLine
 62
7
  6
BYLAYER
 10
23.9562768551
 20
60.583049481
 11
28.9562768551
 21
60.583049481
  0
LINE
  5
23C
100
AcDbEntity
  8
0
100
AcDbLine
 62
7
  6
BYLAYER
 10
23.9562768551
 20
61.4093226484
 11
28.695798639
 21
61.4093226484
  0
LINE
  5
23D
100
AcDbEntity
  8
0
100
AcDbLine
 62
7
  6
BYLAYER
 10
23.9562768551
 20
62.9745190419
 11
28.1885051739
 21
62.9745190419
  0
LINE
  5
23E
100
AcDbEntity
  8
0
100
AcDbLine
 62
7
  6
BYLAYER
 10
23.5744856914
 20
63.6397575558
 11
23.9562768551
 21
63.6063551571
  0
LINE
  5
23F
100
AcDbEntity
  8
0
100
AcDbLine
 62
7
  6
BYLAYER
 10
49.2162768551
 20
77.2974180025
 11
49.2162768551
 21
78.2974180025
  0
LINE
  5
240
100
AcDbEntity
  8
0
100
AcDbLine
 62
7
  6
BYLAYER
 10
28.0249299204
 20
63.4675839516
 11
28.9062768551
 21
63.4675839516
  0
LINE
  5
241
100
AcDbEntity
  8
0
100
AcDbLine
 62
7
  6
BYLAYER
 10
28.9062768551
 20
64.1454248135
 11
23.9562768551
 21
64.1454248135
  0
LINE
  5
242
100
AcDbEntity
  8
0
100
AcDbLine
 62
7
  6
BYLAYER
 10
22.7784485847
 20
65.5196005432
 11
22.6268813017
 21
65.5196005432
  0
LINE
  5
243
100
AcDbEntity
  8
0
100
AcDbLine
 62
7
  6
BYLAYER
 10
52.3162768551
 20
8.7974180025
 11
52.3162768551
 21
12.2974180025
  0
LINE
  5
244
100
AcDbEntity
  8
0
100
AcDbLine
 62
7
  6
BYLAYER
 10
53.9662768551
 20
12.2974180025
 11
53.9662768551
 21
77.2972086848
  0
LINE
  5
245
100
AcDbEntity
  8
0
100
AcDbLine
 62
7
  6
BYLAYER
 10
40.9392967266
 20
15.2974180025
 11
41.940032421
 21
18.2974180025
  0
LINE
  5
246
100
AcDbEntity
  8
0
100
AcDbLine
 62
7
  6
BYLAYER
 10
41.4276352937
 20
16.6913346376
 11
40.9292967266
 21
15.1974180025
  0
LINE
  5
247
100
AcDbEntity
  8
0
100
AcDbLine
 62
7
  6
BYLAYER
 10
22.8847762713
 20
67.0752354618
 11
22.6268813017
 21
67.0752354618
  0
LINE
  5
248
100
AcDbEntity
  8
0
100
AcDbLine
 62
7
  6
BYLAYER
 10
24.0289086649
 20
67.3167184227
 11
28.9062768551
 21
67.3167184227
  0
LINE
  5
249
100
AcDbEntity
  8
0
100
AcDbLine
 62
7
  6
BYLAYER
 10
23.5744856914
 20
68.9550784492
 11
24.1662768551
 21
69.0068534671
  0
LINE
  5
24A
100
AcDbEntity
  8
0
100
AcDbLine
 62
7
  6
BYLAYER
 10
47.4095078682
 20
90.643415379
 11
47.4662777241
 21
90.3974180025
  0
LINE
  5
24B
100
AcDbEntity
  8
0
100
AcDbLine
 62
7
  6
BYLAYER
 10
24.9403006868
 20
73.0311482415
 11
28.9062768551
 21
73.0311482415
  0
LINE
  5
24C
100
AcDbEntity
  8
0
100
AcDbLine
 62
7
  6
BYLAYER
 10
28.9062768551
 20
73.8831340984
 11
26.2931041794
 21
73.8831340984
  0
LINE
  5
24D
100
AcDbEntity
  8
0
100
AcDbLine
 62
7
  6
BYLAYER
 10
28.9662768551
 20
74.5974180025
 11
53.9662768551
 21
74.5974180025
  0
LINE
  5
24E
100
AcDbEntity
  8
0
100
AcDbLine
 62
7
  6
BYLAYER
 10
28.9662768551
 20
75.1807059482
 11
53.9662768551
 21
75.1807059482
  0
LINE
  5
24F
100
AcDbEntity
  8
0
100
AcDbLine
 62
7
  6
BYLAYER
 10
53.9662768551
 20
77.2974180025
 11
49.2162768551
 21
77.2974180025
  0
LINE
  5
250
100
AcDbEntity
  8
0
100
AcDbLine
 62
7
  6
BYLAYER
 10
33.7162768551
 20
77.2974180025
 11
28.9662768551
 21
77.2974180025
  0
LINE
  5
251
100
AcDbEntity
  8
0
100
AcDbLine
 62
7
  6
BYLAYER
 10
33.7162768551
 20
78.2974180025
 11
49.2162768551
 21
78.2974180025
  0
LINE
  5
252
100
AcDbEntity
  8
0
100
AcDbLine
 62
7
  6
BYLAYER
 10
48.7162768551
 20
78.7974180025
 11
49.2162768551
 21
78.2974180025
  0
LINE
  5
253
100
AcDbEntity
  8
0
100
AcDbLine
 62
7
  6
BYLAYER
 10
34.2162906627
 20
78.7974180025
 11
48.7162630476
 21
78.7974180025
  0
LINE
  5
254
100
AcDbEntity
  8
0
100
AcDbLine
 62
7
  6
BYLAYER
 10
39.4662768551
 20
83.0974180025
 11
43.4662768551
 21
83.0974180025
  0
LINE
  5
255
100
AcDbEntity
  8
0
100
AcDbLine
 62
7
  6
BYLAYER
 10
43.2662768551
 20
86.0974180025
 11
39.6662768551
 21
86.0974180025
  0
LINE
  5
256
100
AcDbEntity
  8
0
100
AcDbLine
 62
7
  6
BYLAYER
 10
43.4662768551
 20
89.1974180025
 11
43.2662768551
 21
89.1974180025
  0
LINE
  5
257
100
AcDbEntity
  8
0
100
AcDbLine
 62
7
  6
BYLAYER
 10
39.6662768551
 20
89.1974180025
 11
39.4662768551
 21
89.1974180025
  0
LINE
  5
258
100
AcDbEntity
  8
0
100
AcDbLine
 62
7
  6
BYLAYER
 10
35.5228985456
 20
90.6435213441
 11
39.4662768551
 21
90.6435213441
  0
LINE
  5
259
100
AcDbEntity
  8
0
100
AcDbLine
 62
7
  6
BYLAYER
 10
43.4662768551
 20
90.6435213441
 11
47.4096557719
 21
90.6435213441
  0
LINE
  5
25A
100
AcDbEntity
  8
0
100
AcDbLine
 62
7
  6
BYLAYER
 10
36.689828016
 20
91.6435213441
 11
39.4662768551
 21
91.6435213441
  0
LINE
  5
25B
100
AcDbEntity
  8
0
100
AcDbLine
 62
7
  6
BYLAYER
 10
43.4662768551
 20
91.6435213441
 11
46.2427256943
 21
91.6435213441
  0
LINE
  5
25C
100
AcDbEntity
  8
0
100
AcDbLine
 62
7
  6
BYLAYER
 10
37.9663312332
 20
94.5974180025
 11
39.6662768551
 21
94.5974180025
  0
LINE
  5
25D
100
AcDbEntity
  8
0
100
AcDbLine
 62
7
  6
BYLAYER
 10
43.2662768551
 20
94.5974180025
 11
44.9662224771
 21
94.5974180025
  0
LINE
  5
25E
100
AcDbEntity
  8
0
100
AcDbLine
 62
7
  6
BYLAYER
 10
43.2662768551
 20
97.6974180025
 11
39.6662768551
 21
97.6974180025
  0
ARC
  5
25F
100
AcDbEntity
  8
0
100
AcDbCircle
 62
7
  6
BYLAYER
 10
-147.3793652518
 20
9.0044605511
 40
185.9363149573
100
AcDbArc
 50
1.9395284503
 51
16.1050432352
  0
ARC
  5
260
100
AcDbEntity
  8
0
100
AcDbCircle
 62
7
  6
BYLAYER
 10
-120.3859547814
 20
13.9566499982
 40
156.4516643533
100
AcDbArc
 50
0.8572688067
 51
18.4490679316
  0
ARC
  5
261
100
AcDbEntity
  8
0
100
AcDbCircle
 62
7
  6
BYLAYER
 10
57.6258634842
 20
65.0846115726
 40
33.6710212813
100
AcDbArc
 50
166.9585187538
 51
180.5289131157
  0
ARC
  5
262
100
AcDbEntity
  8
0
100
AcDbCircle
 62
7
  6
BYLAYER
 10
38.4594928973
 20
37.1179497567
 40
23.8797233758
100
AcDbArc
 50
252.2694692756
 51
265.965006376
  0
ARC
  5
263
100
AcDbEntity
  8
0
100
AcDbCircle
 62
7
  6
BYLAYER
 10
27.5660107796
 20
66.2974180025
 40
5.0
100
AcDbArc
 50
151.3209389296
 51
171.0505216142
  0
ARC
  5
264
100
AcDbEntity
  8
0
100
AcDbCircle
 62
7
  6
BYLAYER
 10
27.5660107796
 20
66.2974180025
 40
5.0
100
AcDbArc
 50
188.9494783858
 51
208.679061055
  0
ARC
  5
265
100
AcDbEntity
  8
0
100
AcDbCircle
 62
7
  6
BYLAYER
 10
48.1957674334
 20
91.899499724
 40
3.3753892539
100
AcDbArc
 50
180.0353363289
 51
184.39524326
  0
ARC
  5
266
100
AcDbEntity
  8
0
100
AcDbCircle
 62
7
  6
BYLAYER
 10
25.1267024293
 20
67.0047189773
 40
2.459671143
100
AcDbArc
 50
180.0045235619
 51
189.1020309367
  0
ARC
  5
267
100
AcDbEntity
  8
0
100
AcDbCircle
 62
7
  6
BYLAYER
 10
25.1171287494
 20
67.0045172335
 40
2.4500974553
100
AcDbArc
 50
178.3717887289
 51
179.9998234386
  0
ARC
  5
268
100
AcDbEntity
  8
0
100
AcDbCircle
 62
7
  6
BYLAYER
 10
25.173891761
 20
65.3074685088
 40
2.4078812787
100
AcDbArc
 50
170.7051620055
 51
189.2948379945
  0
ARC
  5
269
100
AcDbEntity
  8
0
100
AcDbCircle
 62
7
  6
BYLAYER
 10
26.2931041794
 20
72.3831338048
 40
1.5
100
AcDbArc
 50
90.0
 51
168.480192919
  0
ARC
  5
26A
100
AcDbEntity
  8
0
100
AcDbCircle
 62
7
  6
BYLAYER
 10
43.3984929843
 20
14.084959804
 40
1.114097772
100
AcDbArc
 50
315.0177643356
 51
22.7855324308
  0
ARC
  5
26B
100
AcDbEntity
  8
0
100
AcDbCircle
 62
7
  6
BYLAYER
 10
42.7256090454
 20
16.2512356659
 40
0.7317364017
100
AcDbArc
 50
24.9490682396
 51
88.6489597328
  0
ARC
  5
26C
100
AcDbEntity
  8
0
100
AcDbCircle
 62
7
  6
BYLAYER
 10
42.0009798922
 20
16.2730819986
 40
0.7096895791
100
AcDbArc
 50
89.8353275163
 51
143.8893954579
  0
ARC
  5
26D
100
AcDbEntity
  8
0
100
AcDbCircle
 62
7
  6
BYLAYER
 10
23.6180635627
 20
64.1378549048
 40
0.5
100
AcDbArc
 50
208.6790611446
 51
265.0
  0
ARC
  5
26E
100
AcDbEntity
  8
0
100
AcDbCircle
 62
7
  6
BYLAYER
 10
23.6180635627
 20
68.4569811001
 40
0.5
100
AcDbArc
 50
95.0
 51
151.3209388554
  0
SPLINE
  5
26F
100
AcDbEntity
  8
0
100
AcDbSpline
 62
7
  6
BYLAYER
 70
0
 71
3
 72
9
 73
5
 74
0
 42
0.0000001
 43
0.0000001
 44
0.0000000001
 40
0.0
 40
0.0
 40
0.0
 40
0.0
 40
0.2464096152
 40
1.0
 40
1.0
 40
1.0
 40
1.0
 10
38.1022371907
 20
91.6406673947
 30
0.0
 10
38.1038322908
 20
91.6617141433
 30
0.0
 10
38.1095394428
 20
91.7471829714
 30
0.0
 10
38.1121748889
 20
91.8328664914
 30
0.0
 10
38.1121748889
 20
91.8974180025
 30
0.0
  0
SPLINE
  5
270
100
AcDbEntity
  8
0
100
AcDbSpline
 62
7
  6
BYLAYER
 70
0
 71
3
 72
34
 73
30
 74
0
 42
0.0000001
 43
0.0000001
 44
0.0000000001
 40
0.0
 40
0.0
 40
0.0
 40
0.0
 40
0.1934166128
 40
0.3794394501
 40
0.4674755175
 40
0.5511454727
 40
0.6296832192
 40
0.7023726467
 40
0.7685453017
 40
0.8275509099
 40
0.8541711999
 40
0.8787651428
 40
0.9012620407
 40
0.9215983717
 40
0.9397105628
 40
0.9555348015
 40
0.9690155023
 40
0.9801139719
 40
0.9847583869
 40
0.9887934498
 40
0.9922145497
 40
0.9950170705
 40
0.9971972585
 40
0.9980537284
 40
0.9987544544
 40
0.9992994404
 40
0.9996886907
 40
0.9999222091
 40
1.0
 40
1.0
 40
1.0
 40
1.0
 10
38.1121748889
 20
91.8974180025
 30
0.0
 10
38.1121748889
 20
91.9627804809
 30
0.0
 10
38.1081766509
 20
92.0910277734
 30
0.0
 10
38.0948068966
 20
92.2485143454
 30
0.0
 10
38.0796496023
 20
92.3684627934
 30
0.0
 10
38.0669288939
 20
92.4520753447
 30
0.0
 10
38.0532400433
 20
92.5302723204
 30
0.0
 10
38.0391098156
 20
92.6023726389
 30
0.0
 10
38.0250417447
 20
92.6677461114
 30
0.0
 10
38.0134240575
 20
92.7177136801
 30
0.0
 10
38.0045954435
 20
92.7538997359
 30
0.0
 10
37.9985412915
 20
92.7780626425
 30
0.0
 10
37.9928792409
 20
92.8001341579
 30
0.0
 10
37.9876564842
 20
92.8200567039
 30
0.0
 10
37.9829206927
 20
92.8377755368
 30
0.0
 10
37.9787189969
 20
92.8532388563
 30
0.0
 10
37.9750939468
 20
92.8664026574
 30
0.0
 10
37.9724413625
 20
92.8759154383
 30
0.0
 10
37.9706316428
 20
92.8823495192
 30
0.0
 10
37.9695196431
 20
92.8862844957
 30
0.0
 10
37.9685730271
 20
92.8896199731
 30
0.0
 10
37.96779709
 20
92.892350654
 30
0.0
 10
37.9672549074
 20
92.8942507573
 30
0.0
 10
37.9669131262
 20
92.8954623957
 30
0.0
 10
37.9667112692
 20
92.896152452
 30
0.0
 10
37.9665798734
 20
92.8966665615
 30
0.0
 10
37.9664276203
 20
92.8970854332
 30
0.0
 10
37.966440865
 20
92.897244339
 30
0.0
 10
37.9663316025
 20
92.8974167906
 30
0.0
 10
37.9663575959
 20
92.897412864
 30
0.0
  0
SPLINE
  5
271
100
AcDbEntity
  8
0
100
AcDbSpline
 62
7
  6
BYLAYER
 70
0
 71
3
 72
35
 73
31
 74
0
 42
0.0000001
 43
0.0000001
 44
0.0000000001
 40
0.0
 40
0.0
 40
0.0
 40
0.0
 40
0.0000779326
 40
0.0003115835
 40
0.0007009488
 40
0.0012460244
 40
0.0019468064
 40
0.0028032905
 40
0.0049833493
 40
0.0077856344
 40
0.011206563
 40
0.0152414969
 40
0.0198858019
 40
0.0309840138
 40
0.0444642485
 40
0.0602878637
 40
0.0783996936
 40
0.098735786
 40
0.1212324037
 40
0.1458259066
 40
0.1724457978
 40
0.2314509534
 40
0.2976238345
 40
0.3703141849
 40
0.4488527002
 40
0.5325243444
 40
0.6205614851
 40
0.7121899338
 40
0.8065951669
 40
1.0
 40
1.0
 40
1.0
 40
1.0
 10
44.9661961144
 20
92.897412864
 30
0.0
 10
44.9661700732
 20
92.8974089301
 30
0.0
 10
44.9661867601
 20
92.8972556656
 30
0.0
 10
44.9660777924
 20
92.8970780915
 30
0.0
 10
44.9659947807
 20
92.8966698006
 30
0.0
 10
44.9658323866
 20
92.8961509644
 30
0.0
 10
44.9656422224
 20
92.8954627225
 30
0.0
 10
44.9652945414
 20
92.894250276
 30
0.0
 10
44.9647560376
 20
92.8923508441
 30
0.0
 10
44.9639786623
 20
92.8896200005
 30
0.0
 10
44.9630329036
 20
92.8862846644
 30
0.0
 10
44.9619210598
 20
92.8823496302
 30
0.0
 10
44.9601119991
 20
92.87591546
 30
0.0
 10
44.9574601463
 20
92.866402575
 30
0.0
 10
44.9538359158
 20
92.8532387946
 30
0.0
 10
44.9496345347
 20
92.8377756193
 30
0.0
 10
44.9448983853
 20
92.8200569961
 30
0.0
 10
44.9396750082
 20
92.8001345659
 30
0.0
 10
44.9340123608
 20
92.7780631466
 30
0.0
 10
44.9279580308
 20
92.7539002467
 30
0.0
 10
44.9191294308
 20
92.7177139986
 30
0.0
 10
44.9075120297
 20
92.6677457047
 30
0.0
 10
44.8934440177
 20
92.6023708388
 30
0.0
 10
44.8793140519
 20
92.5302685762
 30
0.0
 10
44.8656259038
 20
92.4520689104
 30
0.0
 10
44.8529069323
 20
92.3684537133
 30
0.0
 10
44.8417399969
 20
92.2801542244
 30
0.0
 10
44.8326205418
 20
92.1879714932
 30
0.0
 10
44.8234055191
 20
92.0600667005
 30
0.0
 10
44.8203788214
 20
91.9627775868
 30
0.0
 10
44.8203788214
 20
91.8974180025
 30
0.0
  0
SPLINE
  5
272
100
AcDbEntity
  8
0
100
AcDbSpline
 62
7
  6
BYLAYER
 70
0
 71
3
 72
9
 73
5
 74
0
 42
0.0000001
 43
0.0000001
 44
0.0000000001
 40
0.0
 40
0.0
 40
0.0
 40
0.0
 40
0.2534519264
 40
1.0
 40
1.0
 40
1.0
 40
1.0
 10
22.7976253086
 20
65.6963772384
 30
0.0
 10
22.7773561752
 20
65.7451933862
 30
0.0
 10
22.7028613732
 20
65.9400158814
 30
0.0
 10
22.651101167
 20
66.1436222124
 30
0.0
 10
22.6268813017
 20
66.2974180025
 30
0.0
  0
SPLINE
  5
273
100
AcDbEntity
  8
0
100
AcDbSpline
 62
7
  6
BYLAYER
 70
0
 71
3
 72
9
 73
5
 74
0
 42
0.0000001
 43
0.0000001
 44
0.0000000001
 40
0.0
 40
0.0
 40
0.0
 40
0.0
 40
0.4706972139
 40
1.0
 40
1.0
 40
1.0
 40
1.0
 10
23.1793256582
 20
67.5599293982
 30
0.0
 10
23.2113470819
 20
67.602455002
 30
0.0
 10
23.3003479249
 20
67.6774139944
 30
0.0
 10
23.4079431995
 20
67.717930224
 30
0.0
 10
23.4662768551
 20
67.7313680301
 30
0.0
  0
SPLINE
  5
274
100
AcDbEntity
  8
0
100
AcDbSpline
 62
7
  6
BYLAYER
 70
0
 71
3
 72
9
 73
5
 74
0
 42
0.0000001
 43
0.0000001
 44
0.0000000001
 40
0.0
 40
0.0
 40
0.0
 40
0.0
 40
0.4951030969
 40
1.0
 40
1.0
 40
1.0
 40
1.0
 10
22.6268813017
 20
66.2974180025
 30
0.0
 10
22.645301613
 20
66.41438671
 30
0.0
 10
22.6992209431
 20
66.648277656
 30
0.0
 10
22.7842651604
 20
66.8726430706
 30
0.0
 10
22.8341818326
 20
66.9825953633
 30
0.0
  0
SPLINE
  5
275
100
AcDbEntity
  8
0
100
AcDbSpline
 62
7
  6
BYLAYER
 70
0
 71
3
 72
9
 73
5
 74
0
 42
0.0000001
 43
0.0000001
 44
0.0000000001
 40
0.0
 40
0.0
 40
0.0
 40
0.0
 40
0.2451146928
 40
1.0
 40
1.0
 40
1.0
 40
1.0
 10
22.8341818326
 20
66.9825953633
 30
0.0
 10
22.8569262033
 20
67.0326947707
 30
0.0
 10
22.9556365039
 20
67.2343713275
 30
0.0
 10
23.0773978857
 20
67.4245656986
 30
0.0
 10
23.1793256582
 20
67.5599293982
 30
0.0
  0
SPLINE
  5
276
100
AcDbEntity
  8
0
100
AcDbSpline
 62
7
  6
BYLAYER
 70
0
 71
3
 72
9
 73
5
 74
0
 42
0.0000001
 43
0.0000001
 44
0.0000000001
 40
0.0
 40
0.0
 40
0.0
 40
0.0
 40
0.4655775857
 40
1.0
 40
1.0
 40
1.0
 40
1.0
 10
35.5230457476
 20
90.6434153073
 30
0.0
 10
35.7075380075
 20
90.7945763637
 30
0.0
 10
36.1011994141
 20
91.1224310686
 30
0.0
 10
36.4872521416
 20
91.4593541911
 30
0.0
 10
36.6898283678
 20
91.6435213441
 30
0.0
  0
SPLINE
  5
277
100
AcDbEntity
  8
0
100
AcDbSpline
 62
7
  6
BYLAYER
 70
0
 71
3
 72
9
 73
5
 74
0
 42
0.0000001
 43
0.0000001
 44
0.0000000001
 40
0.0
 40
0.0
 40
0.0
 40
0.0
 40
0.5344224065
 40
1.0
 40
1.0
 40
1.0
 40
1.0
 10
46.2427253425
 20
91.6435213441
 30
0.0
 10
46.4453015501
 20
91.459354208
 30
0.0
 10
46.8313542478
 20
91.1224311114
 30
0.0
 10
47.2250156218
 20
90.7945764292
 30
0.0
 10
47.4095078682
 20
90.643415379
 30
0.0
  0
SPLINE
  5
278
100
AcDbEntity
  8
0
100
AcDbSpline
 62
7
  6
BYLAYER
 70
0
 71
3
 72
9
 73
5
 74
0
 42
0.0000001
 43
0.0000001
 44
0.0000000001
 40
0.0
 40
0.0
 40
0.0
 40
0.0
 40
0.5121339556
 40
1.0
 40
1.0
 40
1.0
 40
1.0
 10
23.1793275771
 20
68.337749846
 30
0.0
 10
23.0367404766
 20
68.1483891157
 30
0.0
 10
22.7965016421
 20
67.7473494194
 30
0.0
 10
22.6620089182
 20
67.2982953125
 30
0.0
 10
22.6268813017
 20
67.0752354618
 30
0.0
  0
SPLINE
  5
279
100
AcDbEntity
  8
0
100
AcDbSpline
 62
7
  6
BYLAYER
 70
0
 71
3
 72
9
 73
5
 74
0
 42
0.0000001
 43
0.0000001
 44
0.0000000001
 40
0.0
 40
0.0
 40
0.0
 40
0.0
 40
0.5293013096
 40
1.0
 40
1.0
 40
1.0
 40
1.0
 10
23.4662768551
 20
68.5091847958
 30
0.0
 10
23.4079441277
 20
68.4957472033
 30
0.0
 10
23.3003522618
 20
68.4552283262
 30
0.0
 10
23.2113486813
 20
68.380275025
 30
0.0
 10
23.1793275771
 20
68.337749846
 30
0.0
  0
SPLINE
  5
27A
100
AcDbEntity
  8
0
100
AcDbSpline
 62
7
  6
BYLAYER
 70
0
 71
3
 72
9
 73
5
 74
0
 42
0.0000001
 43
0.0000001
 44
0.0000000001
 40
0.0
 40
0.0
 40
0.0
 40
0.0
 40
0.2473882755
 40
1.0
 40
1.0
 40
1.0
 40
1.0
 10
22.6268813017
 20
65.5196005432
 30
0.0
 10
22.6349073609
 20
65.4686351842
 30
0.0
 10
22.6736264803
 20
65.2636429719
 30
0.0
 10
22.7374359284
 20
65.0635197837
 30
0.0
 10
22.7976253086
 20
64.9185597791
 30
0.0
  0
SPLINE
  5
27B
100
AcDbEntity
  8
0
100
AcDbSpline
 62
7
  6
BYLAYER
 70
0
 71
3
 72
32
 73
28
 74
0
 42
0.0000001
 43
0.0000001
 44
0.0000000001
 40
0.0
 40
0.0
 40
0.0
 40
0.0
 40
0.0000761566
 40
0.0003046081
 40
0.0006851527
 40
0.0012175885
 40
0.0027373265
 40
0.0048622081
 40
0.0075906196
 40
0.0109209479
 40
0.0148515803
 40
0.0193809013
 40
0.0302237663
 40
0.0434148873
 40
0.0589165626
 40
0.0766911395
 40
0.0966962195
 40
0.1188748374
 40
0.1695142309
 40
0.2281096475
 40
0.2940732073
 40
0.3667777303
 40
0.4455242202
 40
0.5295773831
 40
0.6181226749
 40
0.805329128
 40
1.0
 40
1.0
 40
1.0
 40
1.0
 10
33.7162768801
 20
77.297421815
 30
0.0
 10
33.7161015936
 20
77.2975126005
 30
0.0
 10
33.7177857595
 20
77.2971113243
 30
0.0
 10
33.7186724127
 20
77.2971386229
 30
0.0
 10
33.7220943694
 20
77.2965616673
 30
0.0
 10
33.7280370566
 20
77.295766241
 30
0.0
 10
33.7389788253
 20
77.294168576
 30
0.0
 10
33.7552269059
 20
77.2918823222
 30
0.0
 10
33.7762721826
 20
77.2888996381
 30
0.0
 10
33.80189696
 20
77.2852930507
 30
0.0
 10
33.8321665805
 20
77.2810445724
 30
0.0
 10
33.8817162872
 20
77.2741174489
 30
0.0
 10
33.9550512831
 20
77.2639322462
 30
0.0
 10
34.0565793292
 20
77.2500121516
 30
0.0
 10
34.175942171
 20
77.2338953828
 30
0.0
 10
34.3128494081
 20
77.2157241007
 30
0.0
 10
34.4669628734
 20
77.1956526631
 30
0.0
 10
34.7056394648
 20
77.1652725102
 30
0.0
 10
35.0437599386
 20
77.1239758788
 30
0.0
 10
35.4949391434
 20
77.072311043
 30
0.0
 10
36.0034293624
 20
77.018553537
 30
0.0
 10
36.5644132161
 20
76.9647408125
 30
0.0
 10
37.1726596027
 20
76.9129086371
 30
0.0
 10
37.8224185018
 20
76.8651115735
 30
0.0
 10
38.7533226805
 20
76.8080289093
 30
0.0
 10
39.9717821909
 20
76.7574289577
 30
0.0
 10
40.9616804149
 20
76.7435213441
 30
0.0
 10
41.4662768551
 20
76.7435213441
 30
0.0
  0
SPLINE
  5
27C
100
AcDbEntity
  8
0
100
AcDbSpline
 62
7
  6
BYLAYER
 70
0
 71
3
 72
32
 73
28
 74
0
 42
0.0000001
 43
0.0000001
 44
0.0000000001
 40
0.0
 40
0.0
 40
0.0
 40
0.0
 40
0.1946749258
 40
0.3818821546
 40
0.4704259277
 40
0.554477756
 40
0.633223136
 40
0.7059266862
 40
0.7718898681
 40
0.8304853354
 40
0.8811248465
 40
0.9033034771
 40
0.9233087957
 40
0.9410836179
 40
0.9565851848
 40
0.9697761673
 40
0.9806191949
 40
0.9851487082
 40
0.9890793787
 40
0.9924096314
 40
0.995137906
 40
0.9972626417
 40
0.9987822772
 40
0.9993146943
 40
0.9996952507
 40
0.999923751
 40
1.0
 40
1.0
 40
1.0
 40
1.0
 10
41.4662768551
 20
76.7435213441
 30
0.0
 10
41.9708838022
 20
76.7435213441
 30
0.0
 10
42.9607945811
 20
76.7574278333
 30
0.0
 10
44.1792625585
 20
76.8080309914
 30
0.0
 10
45.1101613151
 20
76.8651140953
 30
0.0
 10
45.7599098186
 20
76.9129123724
 30
0.0
 10
46.3681474668
 20
76.9647427111
 30
0.0
 10
46.9291249442
 20
77.0185551052
 30
0.0
 10
47.4376119561
 20
77.0723108529
 30
0.0
 10
47.8887907336
 20
77.1239746495
 30
0.0
 10
48.2269118489
 20
77.1652698474
 30
0.0
 10
48.4655894933
 20
77.1956493664
 30
0.0
 10
48.6197041386
 20
77.2157215655
 30
0.0
 10
48.7566122307
 20
77.2338942691
 30
0.0
 10
48.875974862
 20
77.2500111553
 30
0.0
 10
48.9775031807
 20
77.2639317119
 30
0.0
 10
49.0508373674
 20
77.2741170147
 30
0.0
 10
49.1003900112
 20
77.2810464535
 30
0.0
 10
49.1306551467
 20
77.2852925896
 30
0.0
 10
49.1562937653
 20
77.2889062917
 30
0.0
 10
49.1772986665
 20
77.2918680012
 30
0.0
 10
49.1936473204
 20
77.2942061712
 30
0.0
 10
49.2043777655
 20
77.2956944234
 30
0.0
 10
49.2106036556
 20
77.2966363182
 30
0.0
 10
49.213559323
 20
77.2969720111
 30
0.0
 10
49.2152704656
 20
77.2973712109
 30
0.0
 10
49.216101331
 20
77.2973309193
 30
0.0
 10
49.2162768301
 20
77.297421815
 30
0.0
  0
ENDSEC
  0
SECTION
  2
OBJECTS
  0
DICTIONARY
  5
C
100
AcDbDictionary
280
0
281
1
  3
ACAD_GROUP
350
D
  3
ACAD_MLINESTYLE
350
17
  3
ACAD_LAYOUT
350
1A
  3
ACAD_PLOTSETTINGS
350
19
  3
ACAD_PLOTSTYLENAME
350
E
  0
DICTIONARY
  5
D
102
{ACAD_REACTORS
330
C
102
}
100
AcDbDictionary
280
0
281
1
  0
ACDBDICTIONARYWDFLT
  5
E
102
{ACAD_REACTORS
330
C
102
}
100
AcDbDictionary
281
1
  3
Normal
350
F
100
AcDbDictionaryWithDefault
340
F
  0
DICTIONARY
  5
17
102
{ACAD_REACTORS
330
C
102
}
100
AcDbDictionary
280
0
281
1
  3
Standard
350
18
  0
DICTIONARY
  5
19
102
{ACAD_REACTORS
330
C
102
}
100
AcDbDictionary
281
1
  0
DICTIONARY
  5
1A
102
{ACAD_REACTORS
330
C
102
}
100
AcDbDictionary
281
1
  3
Model
350
27D
  3
Layout1
350
27E
  0
ACDBPLACEHOLDER
  5
F
102
{ACAD_REACTORS
330
E
102
}
  0
MLINESTYLE
  5
18
102
{ACAD_REACTORS
330
17
102
}
100
AcDbMlineStyle
  2
STANDARD
 70
0
  3

 62
256
 51
90.0
 52
90.0
 71
2
 49
0.5
 62
256
  6
BYLAYER
 49
-0.5
 62
256
  6
BYLAYER
  0
LAYOUT
  5
27D
102
{ACAD_REACTORS
330
1A
102
}
100
AcDbPlotSettings
  1

  2
none_device
  4

  6

 40
0.0
 41
0.0
 42
0.0
 43
0.0
 44
210.0
 45
297.0
 46
0.0
 47
0.0
 48
0.0
 49
0.0
140
0.0
141
0.0
142
1.0
143
1.0
 70
1024
 72
1
 73
0
 74
0
  7

 75
0
147
1.0
148
0.0
149
0.0
100
AcDbLayout
  1
Model
 70
0
 71
0
 10
0.0
 20
0.0
 11
210.0
 21
297.0
 12
0.0
 22
0.0
 32
0.0
 14
0.0
 24
0.0
 34
0.0
 15
0.0
 25
0.0
 35
0.0
146
0.0
 13
0.0
 23
0.0
 33
0.0
 16
1.0
 26
0.0
 36
0.0
 17
0.0
 27
1.0
 37
0.0
 76
0
330
210
345
0
346
0
  0
LAYOUT
  5
27E
102
{ACAD_REACTORS
330
1A
102
}
100
AcDbPlotSettings
  1

  2
none_device
  4

  6

 40
0.0
 41
0.0
 42
0.0
 43
0.0
 44
210.0
 45
297.0
 46
0.0
 47
0.0
 48
0.0
 49
0.0
140
0.0
141
0.0
142
1.0
143
1.0
 70
0
 72
1
 73
0
 74
0
  7

 75
0
147
1.0
148
0.0
149
0.0
100
AcDbLayout
  1
Layout1
 70
0
 71
1
 10
0.0
 20
0.0
 11
210.0
 21
297.0
 12
0.0
 22
0.0
 32
0.0
 14
0.0
 24
0.0
 34
0.0
 15
0.0
 25
0.0
 35
0.0
146
0.0
 13
0.0
 23
0.0
 33
0.0
 16
1.0
 26
0.0
 36
0.0
 17
0.0
 27
1.0
 37
0.0
 76
0
330
211
345
0
346
0
  0
ENDSEC
  0
EOF
