999
DXF file: C:\Users\sesa63760\Dev\_Creo\CAD\MCADID0002996_3D-CAD\drw0001_5.dxf
999
Pro/ENGINEER 2019471 by Parametric Technology Corporation
  0
SECTION
  2
HEADER
  9
$ACADVER
  1
AC1024
  9
$DWGCODEPAGE
  3
ANSI_1252
  9
$EXTMAX
 10
69.9102473043
 20
98.8730640447
 30
0.0
  9
$EXTMIN
 10
0.0
 20
0.0
 30
0.0
  9
$LIMMIN
 10
0.0
 20
0.0
  9
$LIMMAX
 10
69.9102473043
 20
98.8730640447
  9
$VIEWCTR
 10
34.9551236522
 20
49.4365320223
  9
$VIEWSIZE
 40
98.8730640447
  9
$CLAYER
  8
0
  9
$LTSCALE
 40
6.4450589896
  9
$CELTYPE
  6
BYLAYER
  9
$DIMSCALE
 40
1.0
  9
$DIMASZ
 40
0.8322648489
  9
$DIMEXO
 40
1.0
  9
$DIMDLI
 40
4.4529498473
  9
$DIMEXE
 40
1.0
  9
$DIMCEN
 40
1.0546460165
  9
$DIMLFAC
 40
1.0
  9
$DIMBLK
  1
_FILLED
  9
$DIMALT
 70
0
  9
$DIMALTF
 40
0.0393700787
  9
$DIMTXT
 40
1.1651707884
  9
$DIMTOL
 70
1
  9
$DIMLIM
 70
0
  9
$DIMTFAC
 40
1.0
  9
$DIMTP
 40
0.01
  9
$DIMTM
 40
0.01
  9
$DIMGAP
 40
0.625
  9
$DIMDSEP
 70
46
  9
$AUNITS
 70
0
  9
$PDMODE
 70
3
  9
$PDSIZE
 40
0.3125
  9
$HANDSEED
  5
24E
  9
$TILEMODE
 70
1
  9
$MEASUREMENT
 70
1
  9
$INSUNITS
 70
4
  0
ENDSEC
  0
SECTION
  2
CLASSES
  0
CLASS
  1
ACDBDICTIONARYWDFLT
  2
AcDbDictionaryWithDefault
  3
AutoCAD 2000
 90
0
 91
1
280
0
281
0
  0
CLASS
  1
ACDBPLACEHOLDER
  2
AcDbPlaceHolder
  3
AutoCAD 2000
 90
0
 91
1
280
0
281
0
  0
CLASS
  1
LAYOUT
  2
AcDbLayout
  3
AutoCAD 2000
 90
0
 91
0
280
0
281
0
  0
ENDSEC
  0
SECTION
  2
TABLES
  0
TABLE
  2
VPORT
  5
8
100
AcDbSymbolTable
 70
2
  0
VPORT
  5
1F4
100
AcDbSymbolTableRecord
100
AcDbViewportTableRecord
  2
*ACTIVE
 70
0
 10
0.0
 20
0.0
 11
1.0
 21
1.0
 12
34.9551236522
 22
49.4365320223
 13
0.0
 23
0.0
 14
1.0
 24
1.0
 15
0.0
 25
0.0
 16
0.0
 26
0.0
 36
1.0
 17
0.0
 27
0.0
 37
0.0
 40
98.8730640447
 41
0.7070707071
 42
50.0
 43
0.0
 44
0.0
 50
0.0
 51
0.0
 71
0
 72
100
 73
1
 74
1
 75
0
 76
0
 77
0
 78
0
  0
ENDTAB
  0
TABLE
  2
LTYPE
  5
5
100
AcDbSymbolTable
 70
6
  0
LTYPE
  5
14
100
AcDbSymbolTableRecord
100
AcDbLinetypeTableRecord
  2
BYBLOCK
 70
0
  3

 72
65
 73
0
 40
0.0
  0
LTYPE
  5
15
100
AcDbSymbolTableRecord
100
AcDbLinetypeTableRecord
  2
BYLAYER
 70
0
  3

 72
65
 73
0
 40
0.0
  0
LTYPE
  5
16
100
AcDbSymbolTableRecord
100
AcDbLinetypeTableRecord
  2
CONTINUOUS
 70
64
  3
Solid line
 72
65
 73
0
 40
0.0
  0
LTYPE
  5
1F5
100
AcDbSymbolTableRecord
100
AcDbLinetypeTableRecord
  2
CENTER
 70
64
  3
____ _ ____ _ ____ _ ____ _ ____ _ ____ _ ____
 72
65
 73
4
 40
0.6
 49
0.375
 74
0
 49
-0.075
 74
0
 49
0.075
 74
0
 49
-0.075
 74
0
  0
LTYPE
  5
1F6
100
AcDbSymbolTableRecord
100
AcDbLinetypeTableRecord
  2
HIDDEN
 70
64
  3
- - - - - - - - - - - - - - - - - - - -
 72
65
 73
2
 40
0.2
 49
0.1
 74
0
 49
-0.1
 74
0
  0
LTYPE
  5
1F7
100
AcDbSymbolTableRecord
100
AcDbLinetypeTableRecord
  2
PHANTOM
 70
64
  3
_____ _ _ _____ _ _ _____ _ _ _____
 72
65
 73
6
 40
0.8
 49
0.45
 74
0
 49
-0.05
 74
0
 49
0.1
 74
0
 49
-0.05
 74
0
 49
0.1
 74
0
 49
-0.05
 74
0
  0
LTYPE
  5
1F8
100
AcDbSymbolTableRecord
100
AcDbLinetypeTableRecord
  2
DOT
 70
64
  3
. . . . . . . . . . . . . . . . . . . .
 72
65
 73
2
 40
0.2
 49
0.1
 74
0
 49
-0.1
 74
0
  0
LTYPE
  5
1F9
100
AcDbSymbolTableRecord
100
AcDbLinetypeTableRecord
  2
DASHED
 70
64
  3
- - - - - - - - - - - - - - - - - - - -
 72
65
 73
2
 40
0.2
 49
0.1
 74
0
 49
-0.1
 74
0
  0
ENDTAB
  0
TABLE
  2
LAYER
  5
2
100
AcDbSymbolTable
 70
36
  0
LAYER
  5
10
100
AcDbSymbolTableRecord
100
AcDbLayerTableRecord
  2
0
 70
0
 62
7
  6
CONTINUOUS
370
-3
390
F
  0
LAYER
  5
1FA
100
AcDbSymbolTableRecord
100
AcDbLayerTableRecord
  2
DEFAULT_1
 70
0
 62
7
  6
CENTER
370
-3
390
F
  0
LAYER
  5
1FB
100
AcDbSymbolTableRecord
100
AcDbLayerTableRecord
  2
DEFAULT_2
 70
0
 62
7
  6
HIDDEN
370
-3
390
F
  0
LAYER
  5
1FC
100
AcDbSymbolTableRecord
100
AcDbLayerTableRecord
  2
DEFAULT_3
 70
0
 62
7
  6
PHANTOM
370
-3
390
F
  0
LAYER
  5
1FD
100
AcDbSymbolTableRecord
100
AcDbLayerTableRecord
  2
00_COMPONENTS
 70
0
 62
7
  6
CONTINUOUS
370
-3
390
F
  0
LAYER
  5
1FE
100
AcDbSymbolTableRecord
100
AcDbLayerTableRecord
  2
01_1_DEFAULT_DATUMS
 70
0
 62
7
  6
CONTINUOUS
370
-3
390
F
  0
LAYER
  5
1FF
100
AcDbSymbolTableRecord
100
AcDbLayerTableRecord
  2
01_PLANES
 70
0
 62
7
  6
CONTINUOUS
370
-3
390
F
  0
LAYER
  5
200
100
AcDbSymbolTableRecord
100
AcDbLayerTableRecord
  2
02_COORD_SYS
 70
0
 62
7
  6
CONTINUOUS
370
-3
390
F
  0
LAYER
  5
201
100
AcDbSymbolTableRecord
100
AcDbLayerTableRecord
  2
03_AXES
 70
0
 62
7
  6
CONTINUOUS
370
-3
390
F
  0
LAYER
  5
202
100
AcDbSymbolTableRecord
100
AcDbLayerTableRecord
  2
04_POINTS
 70
0
 62
7
  6
CONTINUOUS
370
-3
390
F
  0
LAYER
  5
203
100
AcDbSymbolTableRecord
100
AcDbLayerTableRecord
  2
05_CURVES
 70
0
 62
7
  6
CONTINUOUS
370
-3
390
F
  0
LAYER
  5
204
100
AcDbSymbolTableRecord
100
AcDbLayerTableRecord
  2
06_SURFS
 70
0
 62
7
  6
CONTINUOUS
370
-3
390
F
  0
LAYER
  5
205
100
AcDbSymbolTableRecord
100
AcDbLayerTableRecord
  2
07_COSMETICS
 70
0
 62
7
  6
CONTINUOUS
370
-3
390
F
  0
LAYER
  5
206
100
AcDbSymbolTableRecord
100
AcDbLayerTableRecord
  2
10_NOTES
 70
0
 62
7
  6
CONTINUOUS
370
-3
390
F
  0
LAYER
  5
207
100
AcDbSymbolTableRecord
100
AcDbLayerTableRecord
  2
11_NOTES_PUB
 70
0
 62
7
  6
CONTINUOUS
370
-3
390
F
  0
LAYER
  5
208
100
AcDbSymbolTableRecord
100
AcDbLayerTableRecord
  2
13_REF_GTOL
 70
0
 62
7
  6
CONTINUOUS
370
-3
390
F
  0
LAYER
  5
209
100
AcDbSymbolTableRecord
100
AcDbLayerTableRecord
  2
16_MISC
 70
0
 62
7
  6
CONTINUOUS
370
-3
390
F
  0
LAYER
  5
20A
100
AcDbSymbolTableRecord
100
AcDbLayerTableRecord
  2
17_NO_PRINT
 70
0
 62
7
  6
CONTINUOUS
370
-3
390
F
  0
LAYER
  5
20B
100
AcDbSymbolTableRecord
100
AcDbLayerTableRecord
  2
18_DATUM_CAMS_JOINTS
 70
0
 62
7
  6
CONTINUOUS
370
-3
390
F
  0
LAYER
  5
20C
100
AcDbSymbolTableRecord
100
AcDbLayerTableRecord
  2
19_DATUM_FUNCTIONAL
 70
0
 62
7
  6
CONTINUOUS
370
-3
390
F
  0
LAYER
  5
20D
100
AcDbSymbolTableRecord
100
AcDbLayerTableRecord
  2
20_DATUM_KINEMATIC_SCHEME
 70
0
 62
7
  6
CONTINUOUS
370
-3
390
F
  0
ENDTAB
  0
TABLE
  2
STYLE
  5
3
100
AcDbSymbolTable
 70
1
  0
STYLE
  5
11
100
AcDbSymbolTableRecord
100
AcDbTextStyleTableRecord
  2
STANDARD
 70
0
 40
0.0
 41
1.0
 50
0.0
 71
0
 42
0.2
  3
ARIAL.TTF
  4

  0
STYLE
  5
20E
100
AcDbSymbolTableRecord
100
AcDbTextStyleTableRecord
  2
TEXTSTYLE_1
 70
0
 40
0.0
 41
0.8
 50
0.0
 71
0
 42
0.2
  3
gdt
  4

  0
ENDTAB
  0
TABLE
  2
VIEW
  5
6
100
AcDbSymbolTable
 70
0
  0
ENDTAB
  0
TABLE
  2
UCS
  5
7
100
AcDbSymbolTable
 70
0
  0
ENDTAB
  0
TABLE
  2
APPID
  5
9
100
AcDbSymbolTable
 70
1
  0
APPID
  5
20F
100
AcDbSymbolTableRecord
100
AcDbRegAppTableRecord
  2
ACAD
 70
0
  0
ENDTAB
  0
TABLE
  2
BLOCK_RECORD
  5
1
100
AcDbSymbolTable
 70
0
  0
BLOCK_RECORD
  5
210
100
AcDbSymbolTableRecord
100
AcDbBlockTableRecord
  2
*Model_Space
  0
BLOCK_RECORD
  5
211
100
AcDbSymbolTableRecord
100
AcDbBlockTableRecord
  2
*Paper_Space
  0
BLOCK_RECORD
  5
212
100
AcDbSymbolTableRecord
100
AcDbBlockTableRecord
  2
_FILLED
  0
ENDTAB
  0
TABLE
  2
DIMSTYLE
  5
A
100
AcDbSymbolTable
 70
1
100
AcDbDimStyleTable
 71
0
  0
DIMSTYLE
105
213
100
AcDbSymbolTableRecord
100
AcDbDimStyleTableRecord
  2
STANDARD
 70
0
  3

  4

 40
1.0
 41
0.8322648489
 42
1.0
 43
0.38
 44
1.0
 45
0.0
 46
0.0
 47
0.01
 48
0.01
140
1.1651707884
141
0.09
142
0.0
143
25.4
144
1.0
145
0.0
146
1.0
147
0.625
 71
1
 72
0
 73
0
 74
0
 75
0
 76
0
 77
1
 78
8
 79
2
170
0
171
1
172
0
173
0
174
0
175
0
176
0
177
0
178
0
270
2
179
2
271
2
272
2
273
2
274
2
275
0
280
0
281
0
282
0
283
1
284
8
285
0
286
0
287
3
288
0
340
11
278
46
341
212
342
212
343
212
344
212
  0
ENDTAB
  0
ENDSEC
  0
SECTION
  2
BLOCKS
  0
BLOCK
  5
20
100
AcDbEntity
  8
0
100
AcDbBlockBegin
  2
*Model_Space
 70
0
 10
0.0
 20
0.0
 30
0.0
  3
*Model_Space
  1

  0
ENDBLK
  5
21
100
AcDbEntity
  8
0
100
AcDbBlockEnd
  0
BLOCK
  5
1C
100
AcDbEntity
  8
0
100
AcDbBlockBegin
  2
*Paper_Space
 70
0
 10
0.0
 20
0.0
 30
0.0
  3
*Paper_Space
  1

  0
ENDBLK
  5
1D
100
AcDbEntity
  8
0
100
AcDbBlockEnd
  0
BLOCK
  5
214
100
AcDbEntity
  8
0
100
AcDbBlockBegin
  2
_FILLED
 70
64
 10
0.0
 20
0.0
  3
_FILLED
  1

  0
SOLID
  5
215
100
AcDbEntity
  8
0
  6
BYBLOCK
 62
0
100
AcDbTrace
 10
0.0
 20
0.0
 11
-1.0
 21
0.25
 12
-1.0
 22
-0.25
 13
-1.0
 23
-0.25
  0
ENDBLK
  5
216
100
AcDbEntity
  8
0
  6
BYBLOCK
 62
0
100
AcDbBlockEnd
  0
ENDSEC
  0
SECTION
  2
ENTITIES
  0
LINE
  5
217
100
AcDbEntity
  8
0
100
AcDbLine
 62
7
  6
BYLAYER
 10
8.1348026128
 20
66.8216141846
 11
8.1348026128
 21
58.8841141846
  0
LINE
  5
218
100
AcDbEntity
  8
0
100
AcDbLine
 62
7
  6
BYLAYER
 10
10.4596425371
 20
58.8841141846
 11
10.4596425371
 21
66.8216141846
  0
LINE
  5
219
100
AcDbEntity
  8
0
100
AcDbLine
 62
7
  6
BYLAYER
 10
58.9347246588
 20
30.3091141846
 11
49.4098805668
 21
30.3091141846
  0
LINE
  5
21A
100
AcDbEntity
  8
0
100
AcDbLine
 62
7
  6
BYLAYER
 10
63.6972893825
 20
32.2934891846
 11
44.6473158431
 21
32.2934891846
  0
LINE
  5
21B
100
AcDbEntity
  8
0
100
AcDbLine
 62
7
  6
BYLAYER
 10
23.1117770007
 20
58.8841141846
 11
23.1117770007
 21
59.0297673328
  0
LINE
  5
21C
100
AcDbEntity
  8
0
100
AcDbLine
 62
7
  6
BYLAYER
 10
23.1117770007
 20
66.6759610363
 11
23.1117770007
 21
66.8216141846
  0
LINE
  5
21D
100
AcDbEntity
  8
0
100
AcDbLine
 62
7
  6
BYLAYER
 10
44.6473158431
 20
37.8497391846
 11
63.6972893825
 21
37.8497391846
  0
LINE
  5
21E
100
AcDbEntity
  8
0
100
AcDbLine
 62
7
  6
BYLAYER
 10
54.8073026128
 20
39.4372391846
 11
45.0044901128
 21
39.4372391846
  0
LINE
  5
21F
100
AcDbEntity
  8
0
100
AcDbLine
 62
7
  6
BYLAYER
 10
45.0044901128
 20
41.8184891846
 11
58.9347923998
 21
41.8184891846
  0
LINE
  5
220
100
AcDbEntity
  8
0
100
AcDbLine
 62
7
  6
BYLAYER
 10
30.3598026128
 20
58.8841141846
 11
30.3598026128
 21
66.8216141846
  0
LINE
  5
221
100
AcDbEntity
  8
0
100
AcDbLine
 62
7
  6
BYLAYER
 10
30.4106026128
 20
66.8216141846
 11
30.4106026128
 21
64.4403641846
  0
LINE
  5
222
100
AcDbEntity
  8
0
100
AcDbLine
 62
7
  6
BYLAYER
 10
31.1218026128
 20
68.8059891846
 11
31.1218026128
 21
66.8216141846
  0
LINE
  5
223
100
AcDbEntity
  8
0
100
AcDbLine
 62
7
  6
BYLAYER
 10
31.1218026128
 20
64.4403641846
 11
31.1218026128
 21
64.4149641846
  0
LINE
  5
224
100
AcDbEntity
  8
0
100
AcDbLine
 62
7
  6
BYLAYER
 10
31.1218026128
 20
58.8841141846
 11
31.1218026128
 21
57.6934891846
  0
LINE
  5
225
100
AcDbEntity
  8
0
100
AcDbLine
 62
7
  6
BYLAYER
 10
31.4181359461
 20
58.8841141846
 11
31.4181359461
 21
64.4149641846
  0
LINE
  5
226
100
AcDbEntity
  8
0
100
AcDbLine
 62
7
  6
BYLAYER
 10
31.4181359461
 20
64.4403641846
 11
31.4181359461
 21
66.8216141846
  0
LINE
  5
227
100
AcDbEntity
  8
0
100
AcDbLine
 62
7
  6
BYLAYER
 10
35.8843026128
 20
68.8059891846
 11
35.8843026128
 21
66.8216141846
  0
LINE
  5
228
100
AcDbEntity
  8
0
100
AcDbLine
 62
7
  6
BYLAYER
 10
35.8843026128
 20
64.4403641846
 11
35.8843026128
 21
64.4149641846
  0
LINE
  5
229
100
AcDbEntity
  8
0
100
AcDbLine
 62
7
  6
BYLAYER
 10
35.8843026128
 20
58.8841141846
 11
35.8843026128
 21
57.6934891846
  0
LINE
  5
22A
100
AcDbEntity
  8
0
100
AcDbLine
 62
7
  6
BYLAYER
 10
40.8119026128
 20
59.6778641846
 11
40.8119026128
 21
58.8841141846
  0
LINE
  5
22B
100
AcDbEntity
  8
0
100
AcDbLine
 62
7
  6
BYLAYER
 10
40.8373026128
 20
43.6044266846
 11
40.8373026128
 21
59.6778641846
  0
LINE
  5
22C
100
AcDbEntity
  8
0
100
AcDbLine
 62
7
  6
BYLAYER
 10
43.2185526128
 20
59.6778641846
 11
43.2185526128
 21
43.6044266846
  0
LINE
  5
22D
100
AcDbEntity
  8
0
100
AcDbLine
 62
7
  6
BYLAYER
 10
44.6473026128
 20
32.2934891846
 11
44.6473026128
 21
37.8497391846
  0
LINE
  5
22E
100
AcDbEntity
  8
0
100
AcDbLine
 62
7
  6
BYLAYER
 10
35.8841508446
 20
57.6934891846
 11
31.1219543811
 21
57.6934891846
  0
LINE
  5
22F
100
AcDbEntity
  8
0
100
AcDbLine
 62
7
  6
BYLAYER
 10
40.8119026128
 20
58.8841141846
 11
8.1350200489
 21
58.8841141846
  0
LINE
  5
230
100
AcDbEntity
  8
0
100
AcDbLine
 62
7
  6
BYLAYER
 10
14.9497705977
 20
59.6778641846
 11
17.1948346279
 21
59.6778641846
  0
LINE
  5
231
100
AcDbEntity
  8
0
100
AcDbLine
 62
7
  6
BYLAYER
 10
49.4098026128
 20
30.3091141846
 11
49.4098026128
 21
32.2934891846
  0
LINE
  5
232
100
AcDbEntity
  8
0
100
AcDbLine
 62
7
  6
BYLAYER
 10
49.4098026128
 20
37.8497391846
 11
49.4098026128
 21
39.4372391846
  0
LINE
  5
233
100
AcDbEntity
  8
0
100
AcDbLine
 62
7
  6
BYLAYER
 10
30.3598026128
 20
64.4149641846
 11
36.0748026128
 21
64.4149641846
  0
LINE
  5
234
100
AcDbEntity
  8
0
100
AcDbLine
 62
7
  6
BYLAYER
 10
36.0748026128
 20
64.4403641846
 11
30.4106026128
 21
64.4403641846
  0
LINE
  5
235
100
AcDbEntity
  8
0
100
AcDbLine
 62
7
  6
BYLAYER
 10
14.9497705977
 20
66.0278641846
 11
17.1948346279
 21
66.0278641846
  0
LINE
  5
236
100
AcDbEntity
  8
0
100
AcDbLine
 62
7
  6
BYLAYER
 10
8.1350076051
 20
66.8216141846
 11
30.3598026128
 21
66.8216141846
  0
LINE
  5
237
100
AcDbEntity
  8
0
100
AcDbLine
 62
7
  6
BYLAYER
 10
30.4106026128
 20
66.8216141846
 11
36.0748026128
 21
66.8216141846
  0
LINE
  5
238
100
AcDbEntity
  8
0
100
AcDbLine
 62
7
  6
BYLAYER
 10
54.8073026128
 20
41.8184891846
 11
54.8073026128
 21
39.4372391846
  0
LINE
  5
239
100
AcDbEntity
  8
0
100
AcDbLine
 62
7
  6
BYLAYER
 10
31.1219543811
 20
68.8059891846
 11
35.8841508446
 21
68.8059891846
  0
LINE
  5
23A
100
AcDbEntity
  8
0
100
AcDbLine
 62
7
  6
BYLAYER
 10
58.9348026128
 20
30.3091141846
 11
58.9348026128
 21
32.2934891846
  0
LINE
  5
23B
100
AcDbEntity
  8
0
100
AcDbLine
 62
7
  6
BYLAYER
 10
58.9348026128
 20
37.8497391846
 11
58.9348026128
 21
41.8184891846
  0
LINE
  5
23C
100
AcDbEntity
  8
0
100
AcDbLine
 62
7
  6
BYLAYER
 10
63.6973026128
 20
32.2934891846
 11
63.6973026128
 21
37.8497391846
  0
ARC
  5
23D
100
AcDbEntity
  8
0
100
AcDbCircle
 62
7
  6
BYLAYER
 10
36.0748026128
 20
59.6778641846
 40
7.14375
100
AcDbArc
 50
0.0
 51
90.0
  0
ARC
  5
23E
100
AcDbEntity
  8
0
100
AcDbCircle
 62
7
  6
BYLAYER
 10
36.0748026128
 20
59.6778641846
 40
4.7625
100
AcDbArc
 50
0.0
 51
90.0
  0
ARC
  5
23F
100
AcDbEntity
  8
0
100
AcDbCircle
 62
7
  6
BYLAYER
 10
36.0748026128
 20
59.6778641846
 40
4.7371
100
AcDbArc
 50
0.0
 51
90.0
  0
ARC
  5
240
100
AcDbEntity
  8
0
100
AcDbCircle
 62
7
  6
BYLAYER
 10
45.0044901128
 20
43.6044266846
 40
4.1671875
100
AcDbArc
 50
180.0
 51
270.0
  0
ARC
  5
241
100
AcDbEntity
  8
0
100
AcDbCircle
 62
7
  6
BYLAYER
 10
45.0044901128
 20
43.6044266846
 40
1.7859375
100
AcDbArc
 50
180.0
 51
270.0
  0
SPLINE
  5
242
100
AcDbEntity
  8
0
100
AcDbSpline
 62
7
  6
BYLAYER
 70
0
 71
3
 72
15
 73
11
 74
0
 42
0.0000001
 43
0.0000001
 44
0.0000000001
 40
0.0
 40
0.0
 40
0.0
 40
0.0
 40
0.1032874455
 40
0.2103255249
 40
0.3239690811
 40
0.4457004969
 40
0.5756297179
 40
0.7126818572
 40
0.854986346
 40
1.0
 40
1.0
 40
1.0
 40
1.0
 10
14.9497705974
 20
66.0278539466
 30
0.0
 10
14.8023661655
 20
66.0278521165
 30
0.0
 10
14.5006764123
 20
65.9850747148
 30
0.0
 10
14.0725727356
 20
65.7978783501
 30
0.0
 10
13.6816549881
 20
65.4976151978
 30
0.0
 10
13.3419132028
 20
65.0977783606
 30
0.0
 10
13.0646504074
 20
64.6141287047
 30
0.0
 10
12.8592301971
 20
64.0648189785
 30
0.0
 10
12.7330335
 20
63.470439791
 30
0.0
 10
12.7047065674
 20
63.0598172675
 30
0.0
 10
12.7047065674
 20
62.8528641846
 30
0.0
  0
SPLINE
  5
243
100
AcDbEntity
  8
0
100
AcDbSpline
 62
7
  6
BYLAYER
 70
0
 71
3
 72
15
 73
11
 74
0
 42
0.0000001
 43
0.0000001
 44
0.0000000001
 40
0.0
 40
0.0
 40
0.0
 40
0.0
 40
0.1450134258
 40
0.2873146372
 40
0.4243650198
 40
0.5542927173
 40
0.6760247162
 40
0.789670438
 40
0.8967109489
 40
1.0
 40
1.0
 40
1.0
 40
1.0
 10
12.7047065674
 20
62.8528641846
 30
0.0
 10
12.7047065674
 20
62.6459114105
 30
0.0
 10
12.7330320976
 20
62.2352937406
 30
0.0
 10
12.8592270855
 20
61.6409220137
 30
0.0
 10
13.0646389873
 20
61.0916192623
 30
0.0
 10
13.341897045
 20
60.6079711979
 30
0.0
 10
13.6816365796
 20
60.2081303976
 30
0.0
 10
14.0725577245
 20
59.9078585854
 30
0.0
 10
14.5006683573
 20
59.7206578782
 30
0.0
 10
14.8023638629
 20
59.6778725924
 30
0.0
 10
14.949770598
 20
59.6778744225
 30
0.0
  0
SPLINE
  5
244
100
AcDbEntity
  8
0
100
AcDbSpline
 62
7
  6
BYLAYER
 70
0
 71
3
 72
27
 73
23
 74
0
 42
0.0000001
 43
0.0000001
 44
0.0000000001
 40
0.0
 40
0.0
 40
0.0
 40
0.0
 40
0.0257326957
 40
0.0517401278
 40
0.0782126305
 40
0.1053475842
 40
0.1621425342
 40
0.2229812423
 40
0.2879140751
 40
0.3564130941
 40
0.4275198071
 40
0.4999982731
 40
0.57247647
 40
0.6435825211
 40
0.7120810357
 40
0.7770141283
 40
0.8378539722
 40
0.8946501572
 40
0.9217858267
 40
0.9482591426
 40
0.9742671373
 40
1.0
 40
1.0
 40
1.0
 40
1.0
 10
21.4604562855
 20
66.8216141846
 30
0.0
 10
21.5523086461
 20
66.8216141846
 30
0.0
 10
21.737239371
 20
66.8086394862
 30
0.0
 10
22.0112340297
 20
66.7509839291
 30
0.0
 10
22.2797644806
 20
66.6553985529
 30
0.0
 10
22.6319153435
 20
66.4764706675
 30
0.0
 10
23.0457468969
 20
66.1587512268
 30
0.0
 10
23.470253833
 20
65.6590207678
 30
0.0
 10
23.8169039262
 20
65.0544235638
 30
0.0
 10
24.0735901966
 20
64.3678305725
 30
0.0
 10
24.2313846128
 20
63.6247533842
 30
0.0
 10
24.2846234231
 20
62.8528844645
 30
0.0
 10
24.2313900574
 20
62.081017589
 30
0.0
 10
24.0736027682
 20
61.3379441621
 30
0.0
 10
23.8169239027
 20
60.6513520299
 30
0.0
 10
23.4702801328
 20
60.046747523
 30
0.0
 10
23.0457729426
 20
59.5470050271
 30
0.0
 10
22.6319376988
 20
59.2292720614
 30
0.0
 10
22.2797796744
 20
59.0503361695
 30
0.0
 10
22.0112424184
 20
58.9547473886
 30
0.0
 10
21.7372425264
 20
58.8970901024
 30
0.0
 10
21.5523092423
 20
58.8841141846
 30
0.0
 10
21.4604562855
 20
58.8841141846
 30
0.0
  0
SPLINE
  5
245
100
AcDbEntity
  8
0
100
AcDbSpline
 62
7
  6
BYLAYER
 70
0
 71
3
 72
15
 73
11
 74
0
 42
0.0000001
 43
0.0000001
 44
0.0000000001
 40
0.0
 40
0.0
 40
0.0
 40
0.0
 40
0.1032874455
 40
0.2103255249
 40
0.3239690811
 40
0.4457004969
 40
0.5756297179
 40
0.7126818572
 40
0.854986346
 40
1.0
 40
1.0
 40
1.0
 40
1.0
 10
17.1948346283
 20
66.0278539466
 30
0.0
 10
17.3422390601
 20
66.0278521165
 30
0.0
 10
17.6439288133
 20
65.9850747148
 30
0.0
 10
18.07203249
 20
65.7978783501
 30
0.0
 10
18.4629502376
 20
65.4976151978
 30
0.0
 10
18.8026920228
 20
65.0977783606
 30
0.0
 10
19.0799548182
 20
64.6141287047
 30
0.0
 10
19.2853750285
 20
64.0648189785
 30
0.0
 10
19.4115717256
 20
63.470439791
 30
0.0
 10
19.4398986582
 20
63.0598172675
 30
0.0
 10
19.4398986582
 20
62.8528641846
 30
0.0
  0
SPLINE
  5
246
100
AcDbEntity
  8
0
100
AcDbSpline
 62
7
  6
BYLAYER
 70
0
 71
3
 72
15
 73
11
 74
0
 42
0.0000001
 43
0.0000001
 44
0.0000000001
 40
0.0
 40
0.0
 40
0.0
 40
0.0
 40
0.1450134258
 40
0.2873146372
 40
0.4243650198
 40
0.5542927173
 40
0.6760247162
 40
0.789670438
 40
0.8967109489
 40
1.0
 40
1.0
 40
1.0
 40
1.0
 10
17.1948346279
 20
62.8528641846
 30
0.0
 10
17.1948346279
 20
63.0598169586
 30
0.0
 10
17.1665090977
 20
63.4704346285
 30
0.0
 10
17.0403141099
 20
64.0648063554
 30
0.0
 10
16.834902208
 20
64.6141091068
 30
0.0
 10
16.5576441504
 20
65.0977571712
 30
0.0
 10
16.2179046157
 20
65.4975979715
 30
0.0
 10
15.8269834709
 20
65.7978697837
 30
0.0
 10
15.398872838
 20
65.9850704909
 30
0.0
 10
15.0971773325
 20
66.0278557767
 30
0.0
 10
14.9497705974
 20
66.0278539466
 30
0.0
  0
SPLINE
  5
247
100
AcDbEntity
  8
0
100
AcDbSpline
 62
7
  6
BYLAYER
 70
0
 71
3
 72
15
 73
11
 74
0
 42
0.0000001
 43
0.0000001
 44
0.0000000001
 40
0.0
 40
0.0
 40
0.0
 40
0.0
 40
0.1450134258
 40
0.2873146372
 40
0.4243650198
 40
0.5542927173
 40
0.6760247162
 40
0.789670438
 40
0.8967109489
 40
1.0
 40
1.0
 40
1.0
 40
1.0
 10
19.4398986582
 20
62.8528641846
 30
0.0
 10
19.4398986582
 20
62.6459114105
 30
0.0
 10
19.411573128
 20
62.2352937406
 30
0.0
 10
19.2853781401
 20
61.6409220137
 30
0.0
 10
19.0799662383
 20
61.0916192623
 30
0.0
 10
18.8027081806
 20
60.6079711979
 30
0.0
 10
18.462968646
 20
60.2081303976
 30
0.0
 10
18.0720475012
 20
59.9078585854
 30
0.0
 10
17.6439368683
 20
59.7206578782
 30
0.0
 10
17.3422413627
 20
59.6778725924
 30
0.0
 10
17.1948346276
 20
59.6778744225
 30
0.0
  0
SPLINE
  5
248
100
AcDbEntity
  8
0
100
AcDbSpline
 62
7
  6
BYLAYER
 70
0
 71
3
 72
27
 73
23
 74
0
 42
0.0000001
 43
0.0000001
 44
0.0000000001
 40
0.0
 40
0.0
 40
0.0
 40
0.0
 40
0.0257326957
 40
0.0517401278
 40
0.0782126305
 40
0.1053475842
 40
0.1621425342
 40
0.2229812423
 40
0.2879140751
 40
0.3564130941
 40
0.4275198071
 40
0.4999982731
 40
0.57247647
 40
0.6435825211
 40
0.7120810357
 40
0.7770141283
 40
0.8378539722
 40
0.8946501572
 40
0.9217858267
 40
0.9482591426
 40
0.9742671373
 40
1.0
 40
1.0
 40
1.0
 40
1.0
 10
17.1948346279
 20
58.8841141846
 30
0.0
 10
17.2866869886
 20
58.8841141846
 30
0.0
 10
17.4716177135
 20
58.8970888829
 30
0.0
 10
17.7456123722
 20
58.95474444
 30
0.0
 10
18.0141428231
 20
59.0503298162
 30
0.0
 10
18.3662936859
 20
59.2292577017
 30
0.0
 10
18.7801252394
 20
59.5469771424
 30
0.0
 10
19.2046321755
 20
60.0467076013
 30
0.0
 10
19.5512822687
 20
60.6513048053
 30
0.0
 10
19.8079685391
 20
61.3378977966
 30
0.0
 10
19.9657629553
 20
62.080974985
 30
0.0
 10
20.0190017656
 20
62.8528439046
 30
0.0
 10
19.9657683999
 20
63.6247107801
 30
0.0
 10
19.8079811107
 20
64.367784207
 30
0.0
 10
19.5513022452
 20
65.0543763392
 30
0.0
 10
19.2046584753
 20
65.6589808462
 30
0.0
 10
18.7801512851
 20
66.158723342
 30
0.0
 10
18.3663160413
 20
66.4764563077
 30
0.0
 10
18.0141580169
 20
66.6553921996
 30
0.0
 10
17.7456207609
 20
66.7509809806
 30
0.0
 10
17.4716208689
 20
66.8086382667
 30
0.0
 10
17.2866875848
 20
66.8216141846
 30
0.0
 10
17.1948346279
 20
66.8216141846
 30
0.0
  0
SPLINE
  5
249
100
AcDbEntity
  8
0
100
AcDbSpline
 62
7
  6
BYLAYER
 70
0
 71
3
 72
15
 73
11
 74
0
 42
0.0000001
 43
0.0000001
 44
0.0000000001
 40
0.0
 40
0.0
 40
0.0
 40
0.0
 40
0.1032874455
 40
0.2103255249
 40
0.3239690811
 40
0.4457004969
 40
0.5756297179
 40
0.7126818572
 40
0.854986346
 40
1.0
 40
1.0
 40
1.0
 40
1.0
 10
14.949770598
 20
59.6778744225
 30
0.0
 10
15.0971750298
 20
59.6778762527
 30
0.0
 10
15.3988647831
 20
59.7206536543
 30
0.0
 10
15.8269684597
 20
59.907850019
 30
0.0
 10
16.2178862073
 20
60.2081131713
 30
0.0
 10
16.5576279925
 20
60.6079500085
 30
0.0
 10
16.8348907879
 20
61.0915996644
 30
0.0
 10
17.0403109982
 20
61.6409093906
 30
0.0
 10
17.1665076954
 20
62.2352885781
 30
0.0
 10
17.1948346279
 20
62.6459111016
 30
0.0
 10
17.1948346279
 20
62.8528641846
 30
0.0
  0
SPLINE
  5
24A
100
AcDbEntity
  8
0
100
AcDbSpline
 62
7
  6
BYLAYER
 70
0
 71
3
 72
23
 73
19
 74
0
 42
0.0000001
 43
0.0000001
 44
0.0000000001
 40
0.0
 40
0.0
 40
0.0
 40
0.0
 40
0.0525187129
 40
0.107883799
 40
0.1664757272
 40
0.2283776391
 40
0.2933056194
 40
0.3607232573
 40
0.4299049521
 40
0.4999999818
 40
0.5700950125
 40
0.6392767097
 40
0.7066943509
 40
0.7716223363
 40
0.8335242539
 40
0.8921161874
 40
0.9474812827
 40
1.0
 40
1.0
 40
1.0
 40
1.0
 10
23.1117770007
 20
59.0297673328
 30
0.0
 10
23.2611072125
 20
59.0886147655
 30
0.0
 10
23.5552171361
 20
59.2436734929
 30
0.0
 10
23.9527600749
 20
59.5655159038
 30
0.0
 10
24.3071574591
 20
59.9728462573
 30
0.0
 10
24.6097511554
 20
60.454368555
 30
0.0
 10
24.8532104602
 20
60.9977482205
 30
0.0
 10
25.0315836652
 20
61.5889015202
 30
0.0
 10
25.1404528205
 20
62.2126266849
 30
0.0
 10
25.1770598293
 20
62.8528640178
 30
0.0
 10
25.1404528641
 20
63.493101361
 30
0.0
 10
25.0315837323
 20
64.1168265512
 30
0.0
 10
24.8532105473
 20
64.7079798913
 30
0.0
 10
24.609751259
 20
65.2513596116
 30
0.0
 10
24.3071575667
 20
65.7328819704
 30
0.0
 10
23.9527601608
 20
66.1402123889
 30
0.0
 10
23.5552171777
 20
66.4620548368
 30
0.0
 10
23.2611072251
 20
66.6171135987
 30
0.0
 10
23.1117770007
 20
66.6759610363
 30
0.0
  0
ELLIPSE
  5
24B
100
AcDbEntity
  8
0
100
AcDbEllipse
 62
7
  6
BYLAYER
 10
21.6051867944
 20
62.8528641846
 30
0.0
 11
-5.6126600757
 21
0.0
 31
0.0
 40
0.7071067812
 41
1.8425561869
 42
4.4406291202
  0
ENDSEC
  0
SECTION
  2
OBJECTS
  0
DICTIONARY
  5
C
100
AcDbDictionary
280
0
281
1
  3
ACAD_GROUP
350
D
  3
ACAD_MLINESTYLE
350
17
  3
ACAD_LAYOUT
350
1A
  3
ACAD_PLOTSETTINGS
350
19
  3
ACAD_PLOTSTYLENAME
350
E
  0
DICTIONARY
  5
D
102
{ACAD_REACTORS
330
C
102
}
100
AcDbDictionary
280
0
281
1
  0
ACDBDICTIONARYWDFLT
  5
E
102
{ACAD_REACTORS
330
C
102
}
100
AcDbDictionary
281
1
  3
Normal
350
F
100
AcDbDictionaryWithDefault
340
F
  0
DICTIONARY
  5
17
102
{ACAD_REACTORS
330
C
102
}
100
AcDbDictionary
280
0
281
1
  3
Standard
350
18
  0
DICTIONARY
  5
19
102
{ACAD_REACTORS
330
C
102
}
100
AcDbDictionary
281
1
  0
DICTIONARY
  5
1A
102
{ACAD_REACTORS
330
C
102
}
100
AcDbDictionary
281
1
  3
Model
350
24C
  3
Layout1
350
24D
  0
ACDBPLACEHOLDER
  5
F
102
{ACAD_REACTORS
330
E
102
}
  0
MLINESTYLE
  5
18
102
{ACAD_REACTORS
330
17
102
}
100
AcDbMlineStyle
  2
STANDARD
 70
0
  3

 62
256
 51
90.0
 52
90.0
 71
2
 49
0.5
 62
256
  6
BYLAYER
 49
-0.5
 62
256
  6
BYLAYER
  0
LAYOUT
  5
24C
102
{ACAD_REACTORS
330
1A
102
}
100
AcDbPlotSettings
  1

  2
none_device
  4

  6

 40
0.0
 41
0.0
 42
0.0
 43
0.0
 44
210.0
 45
297.0
 46
0.0
 47
0.0
 48
0.0
 49
0.0
140
0.0
141
0.0
142
1.0
143
1.0
 70
1024
 72
1
 73
0
 74
0
  7

 75
0
147
1.0
148
0.0
149
0.0
100
AcDbLayout
  1
Model
 70
0
 71
0
 10
0.0
 20
0.0
 11
210.0
 21
297.0
 12
0.0
 22
0.0
 32
0.0
 14
0.0
 24
0.0
 34
0.0
 15
0.0
 25
0.0
 35
0.0
146
0.0
 13
0.0
 23
0.0
 33
0.0
 16
1.0
 26
0.0
 36
0.0
 17
0.0
 27
1.0
 37
0.0
 76
0
330
210
345
0
346
0
  0
LAYOUT
  5
24D
102
{ACAD_REACTORS
330
1A
102
}
100
AcDbPlotSettings
  1

  2
none_device
  4

  6

 40
0.0
 41
0.0
 42
0.0
 43
0.0
 44
210.0
 45
297.0
 46
0.0
 47
0.0
 48
0.0
 49
0.0
140
0.0
141
0.0
142
1.0
143
1.0
 70
0
 72
1
 73
0
 74
0
  7

 75
0
147
1.0
148
0.0
149
0.0
100
AcDbLayout
  1
Layout1
 70
0
 71
1
 10
0.0
 20
0.0
 11
210.0
 21
297.0
 12
0.0
 22
0.0
 32
0.0
 14
0.0
 24
0.0
 34
0.0
 15
0.0
 25
0.0
 35
0.0
146
0.0
 13
0.0
 23
0.0
 33
0.0
 16
1.0
 26
0.0
 36
0.0
 17
0.0
 27
1.0
 37
0.0
 76
0
330
211
345
0
346
0
  0
ENDSEC
  0
EOF
