999
DXF file: C:\Users\sesa63760\Dev\_Creo\CAD\MCADID0004116_3D-CAD\drw0001_1.dxf
999
Pro/ENGINEER 2019471 by Parametric Technology Corporation
  0
SECTION
  2
HEADER
  9
$ACADVER
  1
AC1024
  9
$DWGCODEPAGE
  3
ANSI_1252
  9
$EXTMAX
 10
74.8805053216
 20
105.9024289548
 30
0.0
  9
$EXTMIN
 10
0.0
 20
0.0
 30
0.0
  9
$LIMMIN
 10
0.0
 20
0.0
  9
$LIMMAX
 10
74.8805053216
 20
105.9024289548
  9
$VIEWCTR
 10
37.4402526608
 20
52.9512144774
  9
$VIEWSIZE
 40
105.9024289548
  9
$CLAYER
  8
0
  9
$LTSCALE
 40
6.903269443
  9
$CELTYPE
  6
BYLAYER
  9
$DIMSCALE
 40
1.0
  9
$DIMASZ
 40
0.8914345872
  9
$DIMEXO
 40
1.0
  9
$DIMDLI
 40
4.7695316151
  9
$DIMEXE
 40
1.0
  9
$DIMCEN
 40
1.1296259089
  9
$DIMLFAC
 40
1.0
  9
$DIMBLK
  1
_FILLED
  9
$DIMALT
 70
0
  9
$DIMALTF
 40
0.0393700787
  9
$DIMTXT
 40
1.248008422
  9
$DIMTOL
 70
1
  9
$DIMLIM
 70
0
  9
$DIMTFAC
 40
1.0
  9
$DIMTP
 40
0.01
  9
$DIMTM
 40
0.01
  9
$DIMGAP
 40
0.625
  9
$DIMDSEP
 70
46
  9
$AUNITS
 70
0
  9
$PDMODE
 70
3
  9
$PDSIZE
 40
0.3125
  9
$HANDSEED
  5
2FF
  9
$TILEMODE
 70
1
  9
$MEASUREMENT
 70
1
  9
$INSUNITS
 70
4
  0
ENDSEC
  0
SECTION
  2
CLASSES
  0
CLASS
  1
ACDBDICTIONARYWDFLT
  2
AcDbDictionaryWithDefault
  3
AutoCAD 2000
 90
0
 91
1
280
0
281
0
  0
CLASS
  1
ACDBPLACEHOLDER
  2
AcDbPlaceHolder
  3
AutoCAD 2000
 90
0
 91
1
280
0
281
0
  0
CLASS
  1
LAYOUT
  2
AcDbLayout
  3
AutoCAD 2000
 90
0
 91
0
280
0
281
0
  0
ENDSEC
  0
SECTION
  2
TABLES
  0
TABLE
  2
VPORT
  5
8
100
AcDbSymbolTable
 70
2
  0
VPORT
  5
1F4
100
AcDbSymbolTableRecord
100
AcDbViewportTableRecord
  2
*ACTIVE
 70
0
 10
0.0
 20
0.0
 11
1.0
 21
1.0
 12
37.4402526608
 22
52.9512144774
 13
0.0
 23
0.0
 14
1.0
 24
1.0
 15
0.0
 25
0.0
 16
0.0
 26
0.0
 36
1.0
 17
0.0
 27
0.0
 37
0.0
 40
105.9024289548
 41
0.7070707071
 42
50.0
 43
0.0
 44
0.0
 50
0.0
 51
0.0
 71
0
 72
100
 73
1
 74
1
 75
0
 76
0
 77
0
 78
0
  0
ENDTAB
  0
TABLE
  2
LTYPE
  5
5
100
AcDbSymbolTable
 70
6
  0
LTYPE
  5
14
100
AcDbSymbolTableRecord
100
AcDbLinetypeTableRecord
  2
BYBLOCK
 70
0
  3

 72
65
 73
0
 40
0.0
  0
LTYPE
  5
15
100
AcDbSymbolTableRecord
100
AcDbLinetypeTableRecord
  2
BYLAYER
 70
0
  3

 72
65
 73
0
 40
0.0
  0
LTYPE
  5
16
100
AcDbSymbolTableRecord
100
AcDbLinetypeTableRecord
  2
CONTINUOUS
 70
64
  3
Solid line
 72
65
 73
0
 40
0.0
  0
LTYPE
  5
1F5
100
AcDbSymbolTableRecord
100
AcDbLinetypeTableRecord
  2
CENTER
 70
64
  3
____ _ ____ _ ____ _ ____ _ ____ _ ____ _ ____
 72
65
 73
4
 40
0.6
 49
0.375
 74
0
 49
-0.075
 74
0
 49
0.075
 74
0
 49
-0.075
 74
0
  0
LTYPE
  5
1F6
100
AcDbSymbolTableRecord
100
AcDbLinetypeTableRecord
  2
HIDDEN
 70
64
  3
- - - - - - - - - - - - - - - - - - - -
 72
65
 73
2
 40
0.2
 49
0.1
 74
0
 49
-0.1
 74
0
  0
LTYPE
  5
1F7
100
AcDbSymbolTableRecord
100
AcDbLinetypeTableRecord
  2
PHANTOM
 70
64
  3
_____ _ _ _____ _ _ _____ _ _ _____
 72
65
 73
6
 40
0.8
 49
0.45
 74
0
 49
-0.05
 74
0
 49
0.1
 74
0
 49
-0.05
 74
0
 49
0.1
 74
0
 49
-0.05
 74
0
  0
LTYPE
  5
1F8
100
AcDbSymbolTableRecord
100
AcDbLinetypeTableRecord
  2
DOT
 70
64
  3
. . . . . . . . . . . . . . . . . . . .
 72
65
 73
2
 40
0.2
 49
0.1
 74
0
 49
-0.1
 74
0
  0
LTYPE
  5
1F9
100
AcDbSymbolTableRecord
100
AcDbLinetypeTableRecord
  2
DASHED
 70
64
  3
- - - - - - - - - - - - - - - - - - - -
 72
65
 73
2
 40
0.2
 49
0.1
 74
0
 49
-0.1
 74
0
  0
ENDTAB
  0
TABLE
  2
LAYER
  5
2
100
AcDbSymbolTable
 70
36
  0
LAYER
  5
10
100
AcDbSymbolTableRecord
100
AcDbLayerTableRecord
  2
0
 70
0
 62
7
  6
CONTINUOUS
370
-3
390
F
  0
LAYER
  5
1FA
100
AcDbSymbolTableRecord
100
AcDbLayerTableRecord
  2
DEFAULT_1
 70
0
 62
7
  6
CENTER
370
-3
390
F
  0
LAYER
  5
1FB
100
AcDbSymbolTableRecord
100
AcDbLayerTableRecord
  2
DEFAULT_2
 70
0
 62
7
  6
HIDDEN
370
-3
390
F
  0
LAYER
  5
1FC
100
AcDbSymbolTableRecord
100
AcDbLayerTableRecord
  2
DEFAULT_3
 70
0
 62
7
  6
PHANTOM
370
-3
390
F
  0
LAYER
  5
1FD
100
AcDbSymbolTableRecord
100
AcDbLayerTableRecord
  2
00_COMPONENTS
 70
0
 62
7
  6
CONTINUOUS
370
-3
390
F
  0
LAYER
  5
1FE
100
AcDbSymbolTableRecord
100
AcDbLayerTableRecord
  2
01_1_DEFAULT_DATUMS
 70
0
 62
7
  6
CONTINUOUS
370
-3
390
F
  0
LAYER
  5
1FF
100
AcDbSymbolTableRecord
100
AcDbLayerTableRecord
  2
01_PLANES
 70
0
 62
7
  6
CONTINUOUS
370
-3
390
F
  0
LAYER
  5
200
100
AcDbSymbolTableRecord
100
AcDbLayerTableRecord
  2
02_COORD_SYS
 70
0
 62
7
  6
CONTINUOUS
370
-3
390
F
  0
LAYER
  5
201
100
AcDbSymbolTableRecord
100
AcDbLayerTableRecord
  2
03_AXES
 70
0
 62
7
  6
CONTINUOUS
370
-3
390
F
  0
LAYER
  5
202
100
AcDbSymbolTableRecord
100
AcDbLayerTableRecord
  2
04_POINTS
 70
0
 62
7
  6
CONTINUOUS
370
-3
390
F
  0
LAYER
  5
203
100
AcDbSymbolTableRecord
100
AcDbLayerTableRecord
  2
05_CURVES
 70
0
 62
7
  6
CONTINUOUS
370
-3
390
F
  0
LAYER
  5
204
100
AcDbSymbolTableRecord
100
AcDbLayerTableRecord
  2
06_SURFS
 70
0
 62
7
  6
CONTINUOUS
370
-3
390
F
  0
LAYER
  5
205
100
AcDbSymbolTableRecord
100
AcDbLayerTableRecord
  2
07_COSMETICS
 70
0
 62
7
  6
CONTINUOUS
370
-3
390
F
  0
LAYER
  5
206
100
AcDbSymbolTableRecord
100
AcDbLayerTableRecord
  2
10_NOTES
 70
0
 62
7
  6
CONTINUOUS
370
-3
390
F
  0
LAYER
  5
207
100
AcDbSymbolTableRecord
100
AcDbLayerTableRecord
  2
11_NOTES_PUB
 70
0
 62
7
  6
CONTINUOUS
370
-3
390
F
  0
LAYER
  5
208
100
AcDbSymbolTableRecord
100
AcDbLayerTableRecord
  2
13_REF_GTOL
 70
0
 62
7
  6
CONTINUOUS
370
-3
390
F
  0
LAYER
  5
209
100
AcDbSymbolTableRecord
100
AcDbLayerTableRecord
  2
16_MISC
 70
0
 62
7
  6
CONTINUOUS
370
-3
390
F
  0
LAYER
  5
20A
100
AcDbSymbolTableRecord
100
AcDbLayerTableRecord
  2
17_NO_PRINT
 70
0
 62
7
  6
CONTINUOUS
370
-3
390
F
  0
LAYER
  5
20B
100
AcDbSymbolTableRecord
100
AcDbLayerTableRecord
  2
18_DATUM_CAMS_JOINTS
 70
0
 62
7
  6
CONTINUOUS
370
-3
390
F
  0
LAYER
  5
20C
100
AcDbSymbolTableRecord
100
AcDbLayerTableRecord
  2
19_DATUM_FUNCTIONAL
 70
0
 62
7
  6
CONTINUOUS
370
-3
390
F
  0
LAYER
  5
20D
100
AcDbSymbolTableRecord
100
AcDbLayerTableRecord
  2
20_DATUM_KINEMATIC_SCHEME
 70
0
 62
7
  6
CONTINUOUS
370
-3
390
F
  0
ENDTAB
  0
TABLE
  2
STYLE
  5
3
100
AcDbSymbolTable
 70
1
  0
STYLE
  5
11
100
AcDbSymbolTableRecord
100
AcDbTextStyleTableRecord
  2
STANDARD
 70
0
 40
0.0
 41
1.0
 50
0.0
 71
0
 42
0.2
  3
ARIAL.TTF
  4

  0
STYLE
  5
20E
100
AcDbSymbolTableRecord
100
AcDbTextStyleTableRecord
  2
TEXTSTYLE_1
 70
0
 40
0.0
 41
0.8
 50
0.0
 71
0
 42
0.2
  3
gdt
  4

  0
ENDTAB
  0
TABLE
  2
VIEW
  5
6
100
AcDbSymbolTable
 70
0
  0
ENDTAB
  0
TABLE
  2
UCS
  5
7
100
AcDbSymbolTable
 70
0
  0
ENDTAB
  0
TABLE
  2
APPID
  5
9
100
AcDbSymbolTable
 70
1
  0
APPID
  5
20F
100
AcDbSymbolTableRecord
100
AcDbRegAppTableRecord
  2
ACAD
 70
0
  0
ENDTAB
  0
TABLE
  2
BLOCK_RECORD
  5
1
100
AcDbSymbolTable
 70
0
  0
BLOCK_RECORD
  5
210
100
AcDbSymbolTableRecord
100
AcDbBlockTableRecord
  2
*Model_Space
  0
BLOCK_RECORD
  5
211
100
AcDbSymbolTableRecord
100
AcDbBlockTableRecord
  2
*Paper_Space
  0
BLOCK_RECORD
  5
212
100
AcDbSymbolTableRecord
100
AcDbBlockTableRecord
  2
_FILLED
  0
ENDTAB
  0
TABLE
  2
DIMSTYLE
  5
A
100
AcDbSymbolTable
 70
1
100
AcDbDimStyleTable
 71
0
  0
DIMSTYLE
105
213
100
AcDbSymbolTableRecord
100
AcDbDimStyleTableRecord
  2
STANDARD
 70
0
  3

  4

 40
1.0
 41
0.8914345872
 42
1.0
 43
0.38
 44
1.0
 45
0.0
 46
0.0
 47
0.01
 48
0.01
140
1.248008422
141
0.09
142
0.0
143
25.4
144
1.0
145
0.0
146
1.0
147
0.625
 71
1
 72
0
 73
0
 74
0
 75
0
 76
0
 77
1
 78
8
 79
2
170
0
171
1
172
0
173
0
174
0
175
0
176
0
177
0
178
0
270
2
179
2
271
2
272
2
273
2
274
2
275
0
280
0
281
0
282
0
283
1
284
8
285
0
286
0
287
3
288
0
340
11
278
46
341
212
342
212
343
212
344
212
  0
ENDTAB
  0
ENDSEC
  0
SECTION
  2
BLOCKS
  0
BLOCK
  5
20
100
AcDbEntity
  8
0
100
AcDbBlockBegin
  2
*Model_Space
 70
0
 10
0.0
 20
0.0
 30
0.0
  3
*Model_Space
  1

  0
ENDBLK
  5
21
100
AcDbEntity
  8
0
100
AcDbBlockEnd
  0
BLOCK
  5
1C
100
AcDbEntity
  8
0
100
AcDbBlockBegin
  2
*Paper_Space
 70
0
 10
0.0
 20
0.0
 30
0.0
  3
*Paper_Space
  1

  0
ENDBLK
  5
1D
100
AcDbEntity
  8
0
100
AcDbBlockEnd
  0
BLOCK
  5
214
100
AcDbEntity
  8
0
100
AcDbBlockBegin
  2
_FILLED
 70
64
 10
0.0
 20
0.0
  3
_FILLED
  1

  0
SOLID
  5
215
100
AcDbEntity
  8
0
  6
BYBLOCK
 62
0
100
AcDbTrace
 10
0.0
 20
0.0
 11
-1.0
 21
0.25
 12
-1.0
 22
-0.25
 13
-1.0
 23
-0.25
  0
ENDBLK
  5
216
100
AcDbEntity
  8
0
  6
BYBLOCK
 62
0
100
AcDbBlockEnd
  0
ENDSEC
  0
SECTION
  2
ENTITIES
  0
LINE
  5
217
100
AcDbEntity
  8
0
100
AcDbLine
 62
7
  6
BYLAYER
 10
20.7277158317
 20
72.843306065
 11
13.8869915187
 21
68.8938356166
  0
LINE
  5
218
100
AcDbEntity
  8
0
100
AcDbLine
 62
7
  6
BYLAYER
 10
23.6463755205
 20
71.8329547283
 11
17.1522043921
 21
68.0835656599
  0
LWPOLYLINE
  5
219
100
AcDbEntity
  8
0
100
AcDbPolyline
 62
7
  6
BYLAYER
 90
3
 70
0
 10
59.0250847655
 20
33.4357053599
 10
61.051112726
 20
33.9412280354
 10
61.6468318067
 20
34.2856337198
  0
LINE
  5
21A
100
AcDbEntity
  8
0
100
AcDbLine
 62
7
  6
BYLAYER
 10
28.4726008067
 20
66.6674872243
 11
29.0019873826
 21
66.9731374452
  0
LINE
  5
21B
100
AcDbEntity
  8
0
100
AcDbLine
 62
7
  6
BYLAYER
 10
59.7409456887
 20
33.7705097997
 11
59.1474407084
 21
33.7913135669
  0
LINE
  5
21C
100
AcDbEntity
  8
0
100
AcDbLine
 62
7
  6
BYLAYER
 10
54.7309292377
 20
34.4306956244
 11
56.3056885205
 21
34.2900264962
  0
LINE
  5
21D
100
AcDbEntity
  8
0
100
AcDbLine
 62
7
  6
BYLAYER
 10
22.6427464304
 20
56.5697711349
 11
22.6427508385
 21
55.9584943643
  0
LINE
  5
21E
100
AcDbEntity
  8
0
100
AcDbLine
 62
7
  6
BYLAYER
 10
57.3446601952
 20
33.9320033556
 11
59.0250847655
 21
33.4357053599
  0
LINE
  5
21F
100
AcDbEntity
  8
0
100
AcDbLine
 62
7
  6
BYLAYER
 10
29.83243906
 20
43.9154451961
 11
30.7331007649
 21
43.395459682
  0
LINE
  5
220
100
AcDbEntity
  8
0
100
AcDbLine
 62
7
  6
BYLAYER
 10
43.9746335629
 20
35.7506301057
 11
44.8752952678
 21
35.2306445916
  0
LINE
  5
221
100
AcDbEntity
  8
0
100
AcDbLine
 62
7
  6
BYLAYER
 10
44.4122563017
 20
35.889398923
 11
43.5115945968
 21
36.4093844371
  0
LINE
  5
222
100
AcDbEntity
  8
0
100
AcDbLine
 62
7
  6
BYLAYER
 10
30.2700617988
 20
44.0542140134
 11
29.3694000939
 21
44.5741995275
  0
LINE
  5
223
100
AcDbEntity
  8
0
100
AcDbLine
 62
7
  6
BYLAYER
 10
35.9277359584
 20
43.2940861878
 11
35.3441053145
 21
43.350102324
  0
LINE
  5
224
100
AcDbEntity
  8
0
100
AcDbLine
 62
7
  6
BYLAYER
 10
54.3219659856
 20
34.6273004736
 11
54.7309292377
 21
34.4306956244
  0
LINE
  5
225
100
AcDbEntity
  8
0
100
AcDbLine
 62
7
  6
BYLAYER
 10
15.8916657029
 20
58.0132197077
 11
16.1726496163
 21
57.7975917341
  0
LINE
  5
226
100
AcDbEntity
  8
0
100
AcDbLine
 62
7
  6
BYLAYER
 10
13.2543808246
 20
60.3232867715
 11
15.8916657029
 21
58.0132197077
  0
LINE
  5
227
100
AcDbEntity
  8
0
100
AcDbLine
 62
7
  6
BYLAYER
 10
54.3219659856
 20
34.6273004736
 11
53.4032940538
 21
35.1576839618
  0
LINE
  5
228
100
AcDbEntity
  8
0
100
AcDbLine
 62
7
  6
BYLAYER
 10
42.937790489
 20
41.199808571
 11
35.3081429355
 21
45.6046879882
  0
LINE
  5
229
100
AcDbEntity
  8
0
100
AcDbLine
 62
7
  6
BYLAYER
 10
28.7955959861
 20
49.3646236615
 11
24.5053856727
 21
51.8415217058
  0
LINE
  5
22A
100
AcDbEntity
  8
0
100
AcDbLine
 62
7
  6
BYLAYER
 10
57.2868475975
 20
33.7235668541
 11
55.9434294022
 21
34.4991721642
  0
LINE
  5
22B
100
AcDbEntity
  8
0
100
AcDbLine
 62
7
  6
BYLAYER
 10
55.8024369975
 20
34.5805723255
 11
55.0974749743
 21
34.9875731318
  0
LINE
  5
22C
100
AcDbEntity
  8
0
100
AcDbLine
 62
7
  6
BYLAYER
 10
23.2416893258
 20
53.4355767968
 11
20.112571183
 21
55.2421331291
  0
LINE
  5
22D
100
AcDbEntity
  8
0
100
AcDbLine
 62
7
  6
BYLAYER
 10
19.899752459
 20
55.3650012971
 11
19.1947904357
 21
55.7720021034
  0
LINE
  5
22E
100
AcDbEntity
  8
0
100
AcDbLine
 62
7
  6
BYLAYER
 10
16.1726496163
 20
57.7975917341
 11
19.0477988429
 21
55.8766893212
  0
LINE
  5
22F
100
AcDbEntity
  8
0
100
AcDbLine
 62
7
  6
BYLAYER
 10
12.1730786566
 20
63.1407320956
 11
8.9034303492
 21
65.0284217208
  0
LINE
  5
230
100
AcDbEntity
  8
0
100
AcDbLine
 62
7
  6
BYLAYER
 10
29.3694000939
 20
54.6579184311
 11
30.2700617988
 21
54.137932917
  0
LINE
  5
231
100
AcDbEntity
  8
0
100
AcDbLine
 62
7
  6
BYLAYER
 10
43.5115945968
 20
46.4931033407
 11
44.4122563017
 21
45.9731178266
  0
LINE
  5
232
100
AcDbEntity
  8
0
100
AcDbLine
 62
7
  6
BYLAYER
 10
44.8752952678
 20
47.1665403099
 11
43.9746335629
 21
47.686525824
  0
LINE
  5
233
100
AcDbEntity
  8
0
100
AcDbLine
 62
7
  6
BYLAYER
 10
30.7331007649
 20
55.3313554003
 11
29.83243906
 21
55.8513409144
  0
LINE
  5
234
100
AcDbEntity
  8
0
100
AcDbLine
 62
7
  6
BYLAYER
 10
13.1547217922
 20
67.4237078215
 11
11.0033947184
 21
68.6657489879
  0
LINE
  5
235
100
AcDbEntity
  8
0
100
AcDbLine
 62
7
  6
BYLAYER
 10
39.2218823306
 20
43.2545712975
 11
39.2834330372
 21
43.3096050996
  0
LINE
  5
236
100
AcDbEntity
  8
0
100
AcDbLine
 62
7
  6
BYLAYER
 10
39.2218823306
 20
43.2545712975
 11
39.2857939045
 21
43.306984029
  0
LINE
  5
237
100
AcDbEntity
  8
0
100
AcDbLine
 62
7
  6
BYLAYER
 10
65.4776713546
 20
47.9118643885
 11
65.4705816182
 21
47.9153920438
  0
LINE
  5
238
100
AcDbEntity
  8
0
100
AcDbLine
 62
7
  6
BYLAYER
 10
65.4652413863
 20
47.8892955761
 11
65.4584094838
 21
47.8932401783
  0
LINE
  5
239
100
AcDbEntity
  8
0
100
AcDbLine
 62
7
  6
BYLAYER
 10
31.3991448755
 20
67.766170436
 11
28.3571247469
 21
69.522441844
  0
LINE
  5
23A
100
AcDbEntity
  8
0
100
AcDbLine
 62
7
  6
BYLAYER
 10
28.1443060229
 20
69.6453100119
 11
27.4393439996
 21
70.0523108182
  0
LINE
  5
23B
100
AcDbEntity
  8
0
100
AcDbLine
 62
7
  6
BYLAYER
 10
65.5802024808
 20
48.0885990909
 11
64.2368897406
 21
48.8641918137
  0
LINE
  5
23C
100
AcDbEntity
  8
0
100
AcDbLine
 62
7
  6
BYLAYER
 10
64.095897336
 20
48.945591975
 11
63.3909353127
 21
49.3525927813
  0
LINE
  5
23D
100
AcDbEntity
  8
0
100
AcDbLine
 62
7
  6
BYLAYER
 10
24.1740300785
 20
71.6567027533
 11
23.8467961638
 21
71.7922215625
  0
LINE
  5
23E
100
AcDbEntity
  8
0
100
AcDbLine
 62
7
  6
BYLAYER
 10
24.1740300785
 20
71.6567027533
 11
27.2059520412
 21
70.1614070147
  0
LINE
  5
23F
100
AcDbEntity
  8
0
100
AcDbLine
 62
7
  6
BYLAYER
 10
51.4751029768
 20
57.0400490066
 11
44.3247529953
 21
61.1682121016
  0
LINE
  5
240
100
AcDbEntity
  8
0
100
AcDbLine
 62
7
  6
BYLAYER
 10
37.3329084738
 20
65.204864097
 11
33.4985890925
 21
67.4185593435
  0
LINE
  5
241
100
AcDbEntity
  8
0
100
AcDbLine
 62
7
  6
BYLAYER
 10
37.3951426936
 20
65.2595032815
 11
38.2958043984
 21
64.7395177674
  0
LINE
  5
242
100
AcDbEntity
  8
0
100
AcDbLine
 62
7
  6
BYLAYER
 10
51.5373371965
 20
57.0946881911
 11
52.4379989014
 21
56.574702677
  0
LINE
  5
243
100
AcDbEntity
  8
0
100
AcDbLine
 62
7
  6
BYLAYER
 10
53.3640768336
 20
57.1093708289
 11
52.4634151287
 21
57.629356343
  0
LINE
  5
244
100
AcDbEntity
  8
0
100
AcDbLine
 62
7
  6
BYLAYER
 10
39.2218823306
 20
65.2741859193
 11
38.3212206258
 21
65.7941714334
  0
LINE
  5
245
100
AcDbEntity
  8
0
100
AcDbLine
 62
7
  6
BYLAYER
 10
65.5734702794
 20
48.09252114
 11
65.5801215553
 21
48.0882932887
  0
LINE
  5
246
100
AcDbEntity
  8
0
100
AcDbLine
 62
7
  6
BYLAYER
 10
46.6121706017
 20
61.8004885015
 11
46.2718345291
 21
62.2779127297
  0
LINE
  5
247
100
AcDbEntity
  8
0
100
AcDbLine
 62
7
  6
BYLAYER
 10
23.8467961638
 20
71.7922215625
 11
23.5908145215
 21
71.8659523678
  0
LINE
  5
248
100
AcDbEntity
  8
0
100
AcDbLine
 62
7
  6
BYLAYER
 10
22.0743602785
 20
72.3950180189
 11
23.8467961638
 21
71.7922215625
  0
LINE
  5
249
100
AcDbEntity
  8
0
100
AcDbLine
 62
7
  6
BYLAYER
 10
45.8839242593
 20
65.1186148969
 11
46.7845859642
 21
64.5986293828
  0
LINE
  5
24A
100
AcDbEntity
  8
0
100
AcDbLine
 62
7
  6
BYLAYER
 10
60.0261187623
 20
56.9537998065
 11
60.9267804671
 21
56.4338142924
  0
LINE
  5
24B
100
AcDbEntity
  8
0
100
AcDbLine
 62
7
  6
BYLAYER
 10
64.1384858789
 20
48.6928659992
 11
63.9900054945
 21
48.8343892162
  0
LINE
  5
24C
100
AcDbEntity
  8
0
100
AcDbLine
 62
7
  6
BYLAYER
 10
63.8170593096
 20
48.999231869
 11
63.531424193
 21
49.2714833234
  0
LINE
  5
24D
100
AcDbEntity
  8
0
100
AcDbLine
 62
7
  6
BYLAYER
 10
66.7667452962
 20
45.9398269844
 11
66.4519663491
 21
46.443409324
  0
LINE
  5
24E
100
AcDbEntity
  8
0
100
AcDbLine
 62
7
  6
BYLAYER
 10
53.3640768336
 20
35.0897562071
 11
53.4256275401
 21
35.1447900092
  0
LINE
  5
24F
100
AcDbEntity
  8
0
100
AcDbLine
 62
7
  6
BYLAYER
 10
53.3640768336
 20
35.0897562071
 11
53.4279884074
 21
35.1421689386
  0
LINE
  5
250
100
AcDbEntity
  8
0
100
AcDbLine
 62
7
  6
BYLAYER
 10
64.6818448675
 20
48.3430313406
 11
64.5508790915
 21
48.6829140785
  0
ARC
  5
251
100
AcDbEntity
  8
0
100
AcDbCircle
 62
7
  6
BYLAYER
 10
36.8643301477
 20
48.1648696889
 40
3.0019095224
100
AcDbArc
 50
238.7086758583
 51
239.9977865276
  0
ARC
  5
252
100
AcDbEntity
  8
0
100
AcDbCircle
 62
7
  6
BYLAYER
 10
36.8635639628
 20
48.1635546767
 40
3.0003875957
100
AcDbArc
 50
239.9979005452
 51
240.7711597422
  0
ARC
  5
253
100
AcDbEntity
  8
0
100
AcDbCircle
 62
7
  6
BYLAYER
 10
32.2002386299
 20
54.3309228558
 40
13.1144593523
100
AcDbArc
 50
300.0069371
 51
302.3718813297
  0
ARC
  5
254
100
AcDbEntity
  8
0
100
AcDbCircle
 62
7
  6
BYLAYER
 10
32.659418346
 20
53.5291166681
 40
12.1904858273
100
AcDbArc
 50
297.539462176
 51
300.0226994631
  0
ARC
  5
255
100
AcDbEntity
  8
0
100
AcDbCircle
 62
7
  6
BYLAYER
 10
27.1918922995
 20
62.9325547531
 40
7.7496674213
100
AcDbArc
 50
119.9999263346
 51
120.1628097085
  0
ARC
  5
256
100
AcDbEntity
  8
0
100
AcDbCircle
 62
7
  6
BYLAYER
 10
26.0586243946
 20
67.6595162472
 40
2.7625886434
100
AcDbArc
 50
64.6816237309
 51
65.3513782392
  0
ARC
  5
257
100
AcDbEntity
  8
0
100
AcDbCircle
 62
7
  6
BYLAYER
 10
26.9772356453
 20
67.1314160562
 40
2.7606345969
100
AcDbArc
 50
64.6815057092
 51
64.9929796868
  0
ARC
  5
258
100
AcDbEntity
  8
0
100
AcDbCircle
 62
7
  6
BYLAYER
 10
26.7638985463
 20
67.2553775891
 40
2.7599250584
100
AcDbArc
 50
55.2277580413
 51
59.3618413296
  0
ARC
  5
259
100
AcDbEntity
  8
0
100
AcDbCircle
 62
7
  6
BYLAYER
 10
21.4925247156
 20
57.6314125263
 40
2.7591298711
100
AcDbArc
 50
235.2284862905
 51
239.9909674852
  0
ARC
  5
25A
100
AcDbEntity
  8
0
100
AcDbCircle
 62
7
  6
BYLAYER
 10
20.5728498265
 20
58.1582229092
 40
2.7555339672
100
AcDbArc
 50
236.4218229952
 51
239.993265367
  0
ARC
  5
25B
100
AcDbEntity
  8
0
100
AcDbCircle
 62
7
  6
BYLAYER
 10
26.980557147
 20
67.1384010761
 40
2.7529000871
100
AcDbArc
 50
59.9974612481
 51
64.6818243962
  0
ARC
  5
25C
100
AcDbEntity
  8
0
100
AcDbCircle
 62
7
  6
BYLAYER
 10
26.0627763997
 20
67.6682700503
 40
2.7529000871
100
AcDbArc
 50
59.9974612481
 51
64.6818243962
  0
ARC
  5
25D
100
AcDbEntity
  8
0
100
AcDbCircle
 62
7
  6
BYLAYER
 10
26.7691222488
 20
67.2638881293
 40
2.7499404953
100
AcDbArc
 50
59.3651206607
 51
59.9951449346
  0
ARC
  5
25E
100
AcDbEntity
  8
0
100
AcDbCircle
 62
7
  6
BYLAYER
 10
50.9249178077
 20
46.8105428772
 40
21.9160608127
100
AcDbArc
 50
157.1205786036
 51
160.4676626893
  0
ARC
  5
25F
100
AcDbEntity
  8
0
100
AcDbCircle
 62
7
  6
BYLAYER
 10
65.0671123107
 20
38.6457277868
 40
21.9160608127
100
AcDbArc
 50
157.1205786036
 51
160.4676626893
  0
ARC
  5
260
100
AcDbEntity
  8
0
100
AcDbCircle
 62
7
  6
BYLAYER
 10
49.8519576112
 20
47.3973789129
 40
21.7313275376
100
AcDbArc
 50
157.1063480889
 51
160.4818932041
  0
ARC
  5
261
100
AcDbEntity
  8
0
100
AcDbCircle
 62
7
  6
BYLAYER
 10
63.9941521141
 20
39.2325638225
 40
21.7313275375
100
AcDbArc
 50
157.1063480888
 51
160.4818932041
  0
ARC
  5
262
100
AcDbEntity
  8
0
100
AcDbCircle
 62
7
  6
BYLAYER
 10
61.3878627789
 20
40.9871111862
 40
18.4647536458
100
AcDbArc
 50
141.8558087843
 51
145.0970536999
  0
ARC
  5
263
100
AcDbEntity
  8
0
100
AcDbCircle
 62
7
  6
BYLAYER
 10
58.6398096519
 20
45.8848168026
 40
13.2705060764
100
AcDbArc
 50
120.0208436263
 51
122.3579748034
  0
ARC
  5
264
100
AcDbEntity
  8
0
100
AcDbCircle
 62
7
  6
BYLAYER
 10
46.3424331329
 20
46.1661077654
 40
13.1144593523
100
AcDbArc
 50
300.0069371
 51
302.3718813297
  0
ARC
  5
265
100
AcDbEntity
  8
0
100
AcDbCircle
 62
7
  6
BYLAYER
 10
59.4596426021
 20
45.4983511187
 40
13.1144593523
100
AcDbArc
 50
120.0069371
 51
122.3718813297
  0
ARC
  5
266
100
AcDbEntity
  8
0
100
AcDbCircle
 62
7
  6
BYLAYER
 10
58.1731467435
 20
46.6866233225
 40
12.3427890313
100
AcDbArc
 50
117.5547854192
 51
120.0073762199
  0
ARC
  5
267
100
AcDbEntity
  8
0
100
AcDbCircle
 62
7
  6
BYLAYER
 10
46.801612849
 20
45.3643015776
 40
12.1904858273
100
AcDbArc
 50
297.539462176
 51
300.0226994631
  0
ARC
  5
268
100
AcDbEntity
  8
0
100
AcDbCircle
 62
7
  6
BYLAYER
 10
59.000462886
 20
46.3001573064
 40
12.1904858273
100
AcDbArc
 50
117.539462176
 51
120.0226994631
  0
ARC
  5
269
100
AcDbEntity
  8
0
100
AcDbCircle
 62
7
  6
BYLAYER
 10
59.3708953895
 20
44.2118087385
 40
7.9856684957
100
AcDbArc
 50
359.0460098479
 51
359.4070590444
  0
ARC
  5
26A
100
AcDbEntity
  8
0
100
AcDbCircle
 62
7
  6
BYLAYER
 10
64.0597854458
 20
41.5791061482
 40
7.9381497122
100
AcDbArc
 50
120.0045924961
 51
121.0653882979
  0
ARC
  5
26B
100
AcDbEntity
  8
0
100
AcDbCircle
 62
7
  6
BYLAYER
 10
59.4936035014
 20
44.2106213295
 40
7.862954667
100
AcDbArc
 50
359.4064578088
 51
359.9990429306
  0
ARC
  5
26C
100
AcDbEntity
  8
0
100
AcDbCircle
 62
7
  6
BYLAYER
 10
58.6494421244
 20
40.5837295443
 40
7.0518866597
100
AcDbArc
 50
300.0037303947
 51
301.670297822
  0
ARC
  5
26D
100
AcDbEntity
  8
0
100
AcDbCircle
 62
7
  6
BYLAYER
 10
59.0863419892
 20
40.2343150304
 40
6.3845201646
100
AcDbArc
 50
298.3060268757
 51
300.00963885
  0
ARC
  5
26E
100
AcDbEntity
  8
0
100
AcDbCircle
 62
7
  6
BYLAYER
 10
61.4807303575
 20
43.5250553101
 40
5.8903353813
100
AcDbArc
 50
4.8079910429
 51
6.0939084641
  0
ARC
  5
26F
100
AcDbEntity
  8
0
100
AcDbCircle
 62
7
  6
BYLAYER
 10
61.6574669214
 20
43.5434400509
 40
5.7126458403
100
AcDbArc
 50
6.098734827
 51
6.7647964614
  0
ARC
  5
270
100
AcDbEntity
  8
0
100
AcDbCircle
 62
7
  6
BYLAYER
 10
58.8880423326
 20
38.2390379463
 40
4.7268640097
100
AcDbArc
 50
280.7755457504
 51
285.6371240328
  0
ARC
  5
271
100
AcDbEntity
  8
0
100
AcDbCircle
 62
7
  6
BYLAYER
 10
60.9609710039
 20
46.9388268691
 40
4.092842499
100
AcDbArc
 50
26.4756181745
 51
30.2496995201
  0
ARC
  5
272
100
AcDbEntity
  8
0
100
AcDbCircle
 62
7
  6
BYLAYER
 10
56.4883375705
 20
37.4253969866
 40
2.90924807
100
AcDbArc
 50
249.2545149524
 51
253.7224521539
  0
ARC
  5
273
100
AcDbEntity
  8
0
100
AcDbCircle
 62
7
  6
BYLAYER
 10
56.4518797638
 20
37.3333813155
 40
2.8102848204
100
AcDbArc
 50
239.8140810107
 51
249.2851059528
  0
ARC
  5
274
100
AcDbEntity
  8
0
100
AcDbCircle
 62
7
  6
BYLAYER
 10
62.0387676435
 20
47.011223996
 40
2.8053225864
100
AcDbArc
 50
56.6395386457
 51
59.8079865098
  0
ARC
  5
275
100
AcDbEntity
  8
0
100
AcDbCircle
 62
7
  6
BYLAYER
 10
57.3342581362
 20
36.9065670341
 40
2.7802687201
100
AcDbArc
 50
235.7739508568
 51
236.862633875
  0
ARC
  5
276
100
AcDbEntity
  8
0
100
AcDbCircle
 62
7
  6
BYLAYER
 10
62.850676109
 20
46.462900855
 40
2.7726728231
100
AcDbArc
 50
63.5267886016
 51
64.6807792384
  0
ARC
  5
277
100
AcDbEntity
  8
0
100
AcDbCircle
 62
7
  6
BYLAYER
 10
57.3298634878
 20
36.8998164558
 40
2.7722137132
100
AcDbArc
 50
236.8624214504
 51
238.9138064373
  0
ARC
  5
278
100
AcDbEntity
  8
0
100
AcDbCircle
 62
7
  6
BYLAYER
 10
62.8530880947
 20
46.4677620229
 40
2.7672461699
100
AcDbArc
 50
59.9960177516
 51
63.5266242789
  0
ARC
  5
279
100
AcDbEntity
  8
0
100
AcDbCircle
 62
7
  6
BYLAYER
 10
57.3271286512
 20
36.8953326515
 40
2.7669617514
100
AcDbArc
 50
238.914365153
 51
239.9950653659
  0
ARC
  5
27A
100
AcDbEntity
  8
0
100
AcDbCircle
 62
7
  6
BYLAYER
 10
62.7126580276
 20
46.5502190316
 40
2.7660500871
100
AcDbArc
 50
58.9141795809
 51
59.995157379
  0
ARC
  5
27B
100
AcDbEntity
  8
0
100
AcDbCircle
 62
7
  6
BYLAYER
 10
60.2787790491
 20
36.9520107467
 40
1.9982632303
100
AcDbArc
 50
237.207970385
 51
239.9979741928
  0
ARC
  5
27C
100
AcDbEntity
  8
0
100
AcDbCircle
 62
7
  6
BYLAYER
 10
64.2805251652
 20
43.8835751117
 40
1.9979402891
100
AcDbArc
 50
60.0005685064
 51
62.7939056999
  0
ARC
  5
27D
100
AcDbEntity
  8
0
100
AcDbCircle
 62
7
  6
BYLAYER
 10
44.497615149
 20
54.049631893
 40
13.2705060765
100
AcDbArc
 50
120.0208436263
 51
122.3579748034
  0
ARC
  5
27E
100
AcDbEntity
  8
0
100
AcDbCircle
 62
7
  6
BYLAYER
 10
45.3174480992
 20
53.6631662091
 40
13.1144593523
100
AcDbArc
 50
120.0069371
 51
122.3718813297
  0
ARC
  5
27F
100
AcDbEntity
  8
0
100
AcDbCircle
 62
7
  6
BYLAYER
 10
44.0309522405
 20
54.8514384129
 40
12.3427890313
100
AcDbArc
 50
117.5547854192
 51
120.0073762199
  0
ARC
  5
280
100
AcDbEntity
  8
0
100
AcDbCircle
 62
7
  6
BYLAYER
 10
44.858268383
 20
54.4649723969
 40
12.1904858273
100
AcDbArc
 50
117.539462176
 51
120.0226994631
  0
ARC
  5
281
100
AcDbEntity
  8
0
100
AcDbCircle
 62
7
  6
BYLAYER
 10
42.862057232
 20
58.5540543088
 40
3.0019095225
100
AcDbArc
 50
58.7086758583
 51
59.9977865276
  0
ARC
  5
282
100
AcDbEntity
  8
0
100
AcDbCircle
 62
7
  6
BYLAYER
 10
42.862823417
 20
58.5553693212
 40
3.0003875956
100
AcDbArc
 50
59.9979005452
 51
60.7711597422
  0
SPLINE
  5
283
100
AcDbEntity
  8
0
100
AcDbSpline
 62
7
  6
BYLAYER
 70
0
 71
3
 72
26
 73
22
 74
0
 42
0.0000001
 43
0.0000001
 44
0.0000000001
 40
0.0
 40
0.0
 40
0.0
 40
0.0
 40
0.0213167649
 40
0.0428981457
 40
0.0649548274
 40
0.0876745661
 40
0.1356445683
 40
0.1611729873
 40
0.1878024188
 40
0.2444282771
 40
0.3055180343
 40
0.3706890126
 40
0.4393074517
 40
0.5105561342
 40
0.5834915462
 40
0.6570944127
 40
0.7303163089
 40
0.8021253463
 40
0.8715525343
 40
0.9377415581
 40
1.0
 40
1.0
 40
1.0
 40
1.0
 10
35.305169196
 20
45.5996254691
 30
0.0
 10
35.1965458046
 20
45.6656467968
 30
0.0
 10
34.9861751972
 20
45.812599158
 30
0.0
 10
34.6982513693
 20
46.0730743269
 30
0.0
 10
34.4383917397
 20
46.3727559249
 30
0.0
 10
34.1257855134
 20
46.8301940471
 30
0.0
 10
33.881844812
 20
47.3545423182
 30
0.0
 10
33.704889629
 20
47.9252467345
 30
0.0
 10
33.5653703085
 20
48.5595040819
 30
0.0
 10
33.4804578099
 20
49.4193034787
 30
0.0
 10
33.5159869608
 20
50.511843565
 30
0.0
 10
33.6856246392
 20
51.6637507184
 30
0.0
 10
33.9856477472
 20
52.8509762337
 30
0.0
 10
34.4096985646
 20
54.0487927871
 30
0.0
 10
34.9488429402
 20
55.2320181677
 30
0.0
 10
35.5917113037
 20
56.3757166917
 30
0.0
 10
36.3247405173
 20
57.4557572828
 30
0.0
 10
37.1324599841
 20
58.4493467669
 30
0.0
 10
37.9979542755
 20
59.3356225649
 30
0.0
 10
38.9029171355
 20
60.0958272779
 30
0.0
 10
39.5416795249
 20
60.5223585714
 30
0.0
 10
39.8631936899
 20
60.707983753
 30
0.0
  0
SPLINE
  5
284
100
AcDbEntity
  8
0
100
AcDbSpline
 62
7
  6
BYLAYER
 70
0
 71
3
 72
11
 73
7
 74
0
 42
0.0000001
 43
0.0000001
 44
0.0000000001
 40
0.0
 40
0.0
 40
0.0
 40
0.0
 40
0.2325796138
 40
0.4758717081
 40
0.7313544255
 40
1.0
 40
1.0
 40
1.0
 40
1.0
 10
35.9277393086
 20
43.2940947566
 30
0.0
 10
36.1277352404
 20
43.2749044462
 30
0.0
 10
36.5400115572
 20
43.2635416238
 30
0.0
 10
37.1702678383
 20
43.3240050722
 30
0.0
 10
37.8202304193
 20
43.4606046642
 30
0.0
 10
38.2524304077
 20
43.5982127552
 30
0.0
 10
38.4702143446
 20
43.6783796321
 30
0.0
  0
SPLINE
  5
285
100
AcDbEntity
  8
0
100
AcDbSpline
 62
7
  6
BYLAYER
 70
0
 71
3
 72
9
 73
5
 74
0
 42
0.0000001
 43
0.0000001
 44
0.0000000001
 40
0.0
 40
0.0
 40
0.0
 40
0.0
 40
0.2461771807
 40
1.0
 40
1.0
 40
1.0
 40
1.0
 10
29.83243906
 20
43.9154451961
 30
0.0
 10
29.7904436174
 20
43.9665020272
 30
0.0
 10
29.6238777412
 20
44.1771902461
 30
0.0
 10
29.4735092131
 20
44.4005887066
 30
0.0
 10
29.3694000939
 20
44.5741995275
 30
0.0
  0
SPLINE
  5
286
100
AcDbEntity
  8
0
100
AcDbSpline
 62
7
  6
BYLAYER
 70
0
 71
3
 72
11
 73
7
 74
0
 42
0.0000001
 43
0.0000001
 44
0.0000000001
 40
0.0
 40
0.0
 40
0.0
 40
0.0
 40
0.2597151621
 40
0.513807829
 40
0.760959036
 40
1.0
 40
1.0
 40
1.0
 40
1.0
 10
29.3694000939
 20
44.5741995275
 30
0.0
 10
29.2761896229
 20
45.0355780451
 30
0.0
 10
29.1066829025
 20
45.9514738568
 30
0.0
 10
28.9115848902
 20
47.3172199361
 30
0.0
 10
28.7883167824
 20
48.6538392201
 30
0.0
 10
28.7590663586
 20
49.535196811
 30
0.0
 10
28.7590663586
 20
49.968427354
 30
0.0
  0
SPLINE
  5
287
100
AcDbEntity
  8
0
100
AcDbSpline
 62
7
  6
BYLAYER
 70
0
 71
3
 72
11
 73
7
 74
0
 42
0.0000001
 43
0.0000001
 44
0.0000000001
 40
0.0
 40
0.0
 40
0.0
 40
0.0
 40
0.2716847903
 40
0.5307386397
 40
0.7743479271
 40
1.0
 40
1.0
 40
1.0
 40
1.0
 10
30.7331007649
 20
43.395459682
 30
0.0
 10
31.1278095789
 20
43.3151894818
 30
0.0
 10
31.9001356233
 20
43.1644467533
 30
0.0
 10
33.0313454324
 20
42.9680996638
 30
0.0
 10
34.0999322587
 20
42.8120712616
 30
0.0
 10
34.7915710116
 20
42.7350782908
 30
0.0
 10
35.1247863169
 20
42.7053130391
 30
0.0
  0
SPLINE
  5
288
100
AcDbEntity
  8
0
100
AcDbSpline
 62
7
  6
BYLAYER
 70
0
 71
3
 72
11
 73
7
 74
0
 42
0.0000001
 43
0.0000001
 44
0.0000000001
 40
0.0
 40
0.0
 40
0.0
 40
0.0
 40
0.2138609745
 40
0.4498736999
 40
0.7112735674
 40
1.0
 40
1.0
 40
1.0
 40
1.0
 10
38.3212206258
 20
65.7941714334
 30
0.0
 10
38.5459386773
 20
65.8222101292
 30
0.0
 10
39.0205675798
 20
65.8666241949
 30
0.0
 10
39.7736768416
 20
65.8929112321
 30
0.0
 10
40.6063391634
 20
65.8762612938
 30
0.0
 10
41.1877145876
 20
65.8359638831
 30
0.0
 10
41.4922387072
 20
65.8087615399
 30
0.0
  0
SPLINE
  5
289
100
AcDbEntity
  8
0
100
AcDbSpline
 62
7
  6
BYLAYER
 70
0
 71
3
 72
11
 73
7
 74
0
 42
0.0000001
 43
0.0000001
 44
0.0000000001
 40
0.0
 40
0.0
 40
0.0
 40
0.0
 40
0.2477731512
 40
0.4973921748
 40
0.7482964972
 40
1.0
 40
1.0
 40
1.0
 40
1.0
 10
33.0034571415
 20
60.9077904727
 30
0.0
 10
33.3239252494
 20
61.3064595385
 30
0.0
 10
33.9924260217
 20
62.0868641366
 30
0.0
 10
35.0658114682
 20
63.1988991785
 30
0.0
 10
36.2022766694
 20
64.258088111
 30
0.0
 10
36.9930244236
 20
64.9304074022
 30
0.0
 10
37.3951426936
 20
65.2595032815
 30
0.0
  0
SPLINE
  5
28A
100
AcDbEntity
  8
0
100
AcDbSpline
 62
7
  6
BYLAYER
 70
0
 71
3
 72
11
 73
7
 74
0
 42
0.0000001
 43
0.0000001
 44
0.0000000001
 40
0.0
 40
0.0
 40
0.0
 40
0.0
 40
0.2458891186
 40
0.4944449149
 40
0.7458370139
 40
1.0
 40
1.0
 40
1.0
 40
1.0
 10
29.83243906
 20
55.8513409144
 30
0.0
 10
30.0479250003
 20
56.2915979034
 30
0.0
 10
30.5004332765
 20
57.1676920373
 30
0.0
 10
31.2489331455
 20
58.4531368184
 30
0.0
 10
32.0787759956
 20
59.707636568
 30
0.0
 10
32.6860260421
 20
60.5128995093
 30
0.0
 10
33.0034571415
 20
60.9077904727
 30
0.0
  0
SPLINE
  5
28B
100
AcDbEntity
  8
0
100
AcDbSpline
 62
7
  6
BYLAYER
 70
0
 71
3
 72
9
 73
5
 74
0
 42
0.0000001
 43
0.0000001
 44
0.0000000001
 40
0.0
 40
0.0
 40
0.0
 40
0.0
 40
0.254188329
 40
1.0
 40
1.0
 40
1.0
 40
1.0
 10
47.2476249303
 20
63.9398750514
 30
0.0
 10
47.2125198217
 20
63.9984158091
 30
0.0
 10
47.0703800813
 20
64.2262678881
 30
0.0
 10
46.9118128119
 20
64.4439507019
 30
0.0
 10
46.7845859642
 20
64.5986293828
 30
0.0
  0
SPLINE
  5
28C
100
AcDbEntity
  8
0
100
AcDbSpline
 62
7
  6
BYLAYER
 70
0
 71
3
 72
10
 73
6
 74
0
 42
0.0000001
 43
0.0000001
 44
0.0000000001
 40
0.0
 40
0.0
 40
0.0
 40
0.0
 40
0.488262592
 40
0.7417200981
 40
1.0
 40
1.0
 40
1.0
 40
1.0
 10
47.8492969493
 20
59.1341770727
 30
0.0
 10
47.826305004
 20
59.9228702768
 30
0.0
 10
47.7226011634
 20
61.119549891
 30
0.0
 10
47.4823482324
 20
62.7176803082
 30
0.0
 10
47.3302763624
 20
63.5307622682
 30
0.0
 10
47.2476249303
 20
63.9398750514
 30
0.0
  0
SPLINE
  5
28D
100
AcDbEntity
  8
0
100
AcDbSpline
 62
7
  6
BYLAYER
 70
0
 71
3
 72
11
 73
7
 74
0
 42
0.0000001
 43
0.0000001
 44
0.0000000001
 40
0.0
 40
0.0
 40
0.0
 40
0.0
 40
0.2640505373
 40
0.518096522
 40
0.7629874112
 40
1.0
 40
1.0
 40
1.0
 40
1.0
 10
28.7590663586
 20
49.968427354
 30
0.0
 10
28.7590663586
 20
50.3857795717
 30
0.0
 10
28.7852622204
 20
51.2049800271
 30
0.0
 10
28.9063874063
 20
52.4057540866
 30
0.0
 10
29.1003350859
 20
53.5535094387
 30
0.0
 10
29.273949504
 20
54.2956659991
 30
0.0
 10
29.3694000939
 20
54.6579184311
 30
0.0
  0
SPLINE
  5
28E
100
AcDbEntity
  8
0
100
AcDbSpline
 62
7
  6
BYLAYER
 70
0
 71
3
 72
11
 73
7
 74
0
 42
0.0000001
 43
0.0000001
 44
0.0000000001
 40
0.0
 40
0.0
 40
0.0
 40
0.0
 40
0.2256492086
 40
0.4692584096
 40
0.7283047998
 40
1.0
 40
1.0
 40
1.0
 40
1.0
 10
41.4922387072
 20
65.8087615399
 30
0.0
 10
41.8254497831
 20
65.7789966659
 30
0.0
 10
42.5170848656
 20
65.7020084524
 30
0.0
 10
43.5856530315
 20
65.54596082
 30
0.0
 10
44.7168741562
 20
65.3496543201
 30
0.0
 10
45.4892003215
 20
65.1988881728
 30
0.0
 10
45.8839242593
 20
65.1186148969
 30
0.0
  0
SPLINE
  5
28F
100
AcDbEntity
  8
0
100
AcDbSpline
 62
7
  6
BYLAYER
 70
0
 71
3
 72
15
 73
11
 74
0
 42
0.0000001
 43
0.0000001
 44
0.0000000001
 40
0.0
 40
0.0
 40
0.0
 40
0.0
 40
0.1484091221
 40
0.289257348
 40
0.4224740412
 40
0.5484579493
 40
0.6679234057
 40
0.7819613903
 40
0.8920543774
 40
1.0
 40
1.0
 40
1.0
 40
1.0
 10
39.8631936899
 20
60.707983753
 30
0.0
 10
40.0642031031
 20
60.8240358991
 30
0.0
 10
40.4655200769
 20
61.0343144382
 30
0.0
 10
41.077590485
 20
61.2858661059
 30
0.0
 10
41.6789803391
 20
61.4629409198
 30
0.0
 10
42.2640772717
 20
61.5636254884
 30
0.0
 10
42.8275658847
 20
61.5866936469
 30
0.0
 10
43.364143494
 20
61.5313339701
 30
0.0
 10
43.8682118981
 20
61.3976150842
 30
0.0
 10
44.1805824776
 20
61.2561724375
 30
0.0
 10
44.327909647
 20
61.1737367634
 30
0.0
  0
SPLINE
  5
290
100
AcDbEntity
  8
0
100
AcDbSpline
 62
7
  6
BYLAYER
 70
0
 71
3
 72
11
 73
7
 74
0
 42
0.0000001
 43
0.0000001
 44
0.0000000001
 40
0.0
 40
0.0
 40
0.0
 40
0.0
 40
0.269143869
 40
0.5247818142
 40
0.7678846719
 40
1.0
 40
1.0
 40
1.0
 40
1.0
 10
47.5623680435
 20
59.3366621436
 30
0.0
 10
47.523865045
 20
59.5723841817
 30
0.0
 10
47.4279842397
 20
60.0289887134
 30
0.0
 10
47.2198579423
 20
60.6792412573
 30
0.0
 10
46.9527126976
 20
61.2718561632
 30
0.0
 10
46.7317253864
 20
61.6327439636
 30
0.0
 10
46.6121624903
 20
61.800478364
 30
0.0
  0
SPLINE
  5
291
100
AcDbEntity
  8
0
100
AcDbSpline
 62
7
  6
BYLAYER
 70
0
 71
3
 72
11
 73
7
 74
0
 42
0.0000001
 43
0.0000001
 44
0.0000000001
 40
0.0
 40
0.0
 40
0.0
 40
0.0
 40
0.2887226778
 40
0.5501130261
 40
0.7861436391
 40
1.0
 40
1.0
 40
1.0
 40
1.0
 10
35.1247863169
 20
42.7053130391
 30
0.0
 10
35.4293065125
 20
42.6781110465
 30
0.0
 10
36.0106681407
 20
42.637805462
 30
0.0
 10
36.8433347878
 20
42.6211919188
 30
0.0
 10
37.5964510212
 20
42.6474131009
 30
0.0
 10
38.071091168
 20
42.6918650513
 30
0.0
 10
38.2958043984
 20
42.7199031456
 30
0.0
  0
SPLINE
  5
292
100
AcDbEntity
  8
0
100
AcDbSpline
 62
7
  6
BYLAYER
 70
0
 71
3
 72
33
 73
29
 74
0
 42
0.0000001
 43
0.0000001
 44
0.0000000001
 40
0.0
 40
0.0
 40
0.0
 40
0.0
 40
0.0229479561
 40
0.0452981457
 40
0.0673164772
 40
0.0892902709
 40
0.1115097526
 40
0.1342493464
 40
0.1577518255
 40
0.1822186897
 40
0.2078038583
 40
0.2346148266
 40
0.2627144638
 40
0.2921249216
 40
0.3228338177
 40
0.3547966679
 40
0.3879433388
 40
0.4221807058
 40
0.4934364546
 40
0.5675202894
 40
0.6431916672
 40
0.7191220996
 40
0.7939688115
 40
0.8664494156
 40
0.9014480401
 40
0.9354412663
 40
0.9683278391
 40
1.0
 40
1.0
 40
1.0
 40
1.0
 10
35.344106475
 20
43.350105294
 30
0.0
 10
35.1593521381
 20
43.3678335968
 30
0.0
 10
34.7963188548
 20
43.4254425599
 30
0.0
 10
34.2732016321
 20
43.58217974
 30
0.0
 10
33.7840272206
 20
43.8070490707
 30
0.0
 10
33.3325536687
 20
44.0983880318
 30
0.0
 10
32.9220871579
 20
44.4540116846
 30
0.0
 10
32.5555365286
 20
44.8711854808
 30
0.0
 10
32.2352391113
 20
45.3467277224
 30
0.0
 10
31.9632220936
 20
45.8772517081
 30
0.0
 10
31.7410160507
 20
46.4590492638
 30
0.0
 10
31.5699144141
 20
47.0882206702
 30
0.0
 10
31.4509040518
 20
47.7606000941
 30
0.0
 10
31.3846030196
 20
48.4717649288
 30
0.0
 10
31.3714368739
 20
49.2170552347
 30
0.0
 10
31.4113867516
 20
49.9915721153
 30
0.0
 10
31.5041822007
 20
50.7902442852
 30
0.0
 10
31.700160351
 20
51.8948661978
 30
0.0
 10
32.0756305533
 20
53.3011069357
 30
0.0
 10
32.710896352
 20
54.9749180277
 30
0.0
 10
33.5203632205
 20
56.6140227593
 30
0.0
 10
34.4828417341
 20
58.1754381436
 30
0.0
 10
35.5730677094
 20
59.6182625761
 30
0.0
 10
36.5761417045
 20
60.7031876816
 30
0.0
 10
37.4193466048
 20
61.4774173007
 30
0.0
 10
38.0575211411
 20
61.999453131
 30
0.0
 10
38.7044289403
 20
62.4659691735
 30
0.0
 10
39.1473319915
 20
62.7434214094
 30
0.0
 10
39.3691770998
 20
62.8715029778
 30
0.0
  0
SPLINE
  5
293
100
AcDbEntity
  8
0
100
AcDbSpline
 62
7
  6
BYLAYER
 70
0
 71
3
 72
9
 73
5
 74
0
 42
0.0000001
 43
0.0000001
 44
0.0000000001
 40
0.0
 40
0.0
 40
0.0
 40
0.0
 40
0.254188329
 40
1.0
 40
1.0
 40
1.0
 40
1.0
 10
30.2700617988
 20
44.0542140134
 30
0.0
 10
30.3051669073
 20
43.9956732558
 30
0.0
 10
30.4473066478
 20
43.7678211768
 30
0.0
 10
30.6058739171
 20
43.5501383629
 30
0.0
 10
30.7331007649
 20
43.395459682
 30
0.0
  0
SPLINE
  5
294
100
AcDbEntity
  8
0
100
AcDbSpline
 62
7
  6
BYLAYER
 70
0
 71
3
 72
11
 73
7
 74
0
 42
0.0000001
 43
0.0000001
 44
0.0000000001
 40
0.0
 40
0.0
 40
0.0
 40
0.0
 40
0.2138609745
 40
0.4498736999
 40
0.7112735674
 40
1.0
 40
1.0
 40
1.0
 40
1.0
 10
46.7845859642
 20
64.5986293828
 30
0.0
 10
46.5598679126
 20
64.570590687
 30
0.0
 10
46.0852390101
 20
64.5261766214
 30
0.0
 10
45.3321297483
 20
64.4998895841
 30
0.0
 10
44.4994674265
 20
64.5165395225
 30
0.0
 10
43.9180920024
 20
64.5568369332
 30
0.0
 10
43.6135678827
 20
64.5840392763
 30
0.0
  0
SPLINE
  5
295
100
AcDbEntity
  8
0
100
AcDbSpline
 62
7
  6
BYLAYER
 70
0
 71
3
 72
11
 73
7
 74
0
 42
0.0000001
 43
0.0000001
 44
0.0000000001
 40
0.0
 40
0.0
 40
0.0
 40
0.0
 40
0.2640505373
 40
0.518096522
 40
0.7629874112
 40
1.0
 40
1.0
 40
1.0
 40
1.0
 10
30.8803955341
 20
48.7437050905
 30
0.0
 10
30.8803955341
 20
48.3263528728
 30
0.0
 10
30.8541996723
 20
47.5071524174
 30
0.0
 10
30.7330744864
 20
46.3063783579
 30
0.0
 10
30.5391268068
 20
45.1586230059
 30
0.0
 10
30.3655123887
 20
44.4164664454
 30
0.0
 10
30.2700617988
 20
44.0542140134
 30
0.0
  0
SPLINE
  5
296
100
AcDbEntity
  8
0
100
AcDbSpline
 62
7
  6
BYLAYER
 70
0
 71
3
 72
20
 73
16
 74
0
 42
0.0000001
 43
0.0000001
 44
0.0000000001
 40
0.0
 40
0.0
 40
0.0
 40
0.0
 40
0.058221751
 40
0.1151345961
 40
0.1711532143
 40
0.2267270019
 40
0.2823242148
 40
0.3384123011
 40
0.3954373205
 40
0.4538097748
 40
0.5138900368
 40
0.5759829333
 40
0.7069976072
 40
0.848223086
 40
1.0
 40
1.0
 40
1.0
 40
1.0
 10
46.6121624903
 20
61.800478364
 30
0.0
 10
46.527826554
 20
61.9187929763
 30
0.0
 10
46.3493468949
 20
62.1447204856
 30
0.0
 10
46.050196057
 20
62.4506930667
 30
0.0
 10
45.7244229806
 20
62.7179822142
 30
0.0
 10
45.3734363436
 20
62.9452084864
 30
0.0
 10
44.9988837955
 20
63.1314357557
 30
0.0
 10
44.6024289039
 20
63.2757126635
 30
0.0
 10
44.18592723
 20
63.3775631538
 30
0.0
 10
43.7512290761
 20
63.4365060881
 30
0.0
 10
43.3002351066
 20
63.4524581348
 30
0.0
 10
42.6686801977
 20
63.415703358
 30
0.0
 10
41.8454503871
 20
63.2565756421
 30
0.0
 10
40.845197999
 20
62.9019383308
 30
0.0
 10
40.1912172859
 20
62.5702464586
 30
0.0
 10
39.8631936899
 20
62.3808630776
 30
0.0
  0
SPLINE
  5
297
100
AcDbEntity
  8
0
100
AcDbSpline
 62
7
  6
BYLAYER
 70
0
 71
3
 72
11
 73
7
 74
0
 42
0.0000001
 43
0.0000001
 44
0.0000000001
 40
0.0
 40
0.0
 40
0.0
 40
0.0
 40
0.2477731512
 40
0.4973921748
 40
0.7482964972
 40
1.0
 40
1.0
 40
1.0
 40
1.0
 10
35.1247863169
 20
59.6830682091
 30
0.0
 10
34.804318209
 20
59.2843991433
 30
0.0
 10
34.1358174367
 20
58.5039945452
 30
0.0
 10
33.0624319903
 20
57.3919595032
 30
0.0
 10
31.925966789
 20
56.3327705707
 30
0.0
 10
31.1352190348
 20
55.6604512796
 30
0.0
 10
30.7331007649
 20
55.3313554003
 30
0.0
  0
SPLINE
  5
298
100
AcDbEntity
  8
0
100
AcDbSpline
 62
7
  6
BYLAYER
 70
0
 71
3
 72
11
 73
7
 74
0
 42
0.0000001
 43
0.0000001
 44
0.0000000001
 40
0.0
 40
0.0
 40
0.0
 40
0.0
 40
0.2597151621
 40
0.513807829
 40
0.760959036
 40
1.0
 40
1.0
 40
1.0
 40
1.0
 10
30.2700617988
 20
54.137932917
 30
0.0
 10
30.3632722698
 20
53.6765543994
 30
0.0
 10
30.5327789901
 20
52.7606585877
 30
0.0
 10
30.7278770025
 20
51.3949125084
 30
0.0
 10
30.8511451103
 20
50.0582932244
 30
0.0
 10
30.8803955341
 20
49.1769356335
 30
0.0
 10
30.8803955341
 20
48.7437050905
 30
0.0
  0
SPLINE
  5
299
100
AcDbEntity
  8
0
100
AcDbSpline
 62
7
  6
BYLAYER
 70
0
 71
3
 72
20
 73
16
 74
0
 42
0.0000001
 43
0.0000001
 44
0.0000000001
 40
0.0
 40
0.0
 40
0.0
 40
0.0
 40
0.1490470855
 40
0.2880509918
 40
0.4176933737
 40
0.479468921
 40
0.5394990756
 40
0.5980871011
 40
0.6555804512
 40
0.7123626553
 40
0.768840604
 40
0.8254363921
 40
0.8825755057
 40
0.9406539553
 40
1.0
 40
1.0
 40
1.0
 40
1.0
 10
47.8377596675
 20
59.2095345022
 30
0.0
 10
47.8147041551
 20
59.5815835084
 30
0.0
 10
47.7307168301
 20
60.2991742091
 30
0.0
 10
47.4755202644
 20
61.3153487957
 30
0.0
 10
47.1555877284
 20
62.0816198379
 30
0.0
 10
46.8393621754
 20
62.6260482332
 30
0.0
 10
46.5777806105
 20
62.9944657656
 30
0.0
 10
46.2889838576
 20
63.3279588589
 30
0.0
 10
45.9740225538
 20
63.6252156755
 30
0.0
 10
45.6340906432
 20
63.885001036
 30
0.0
 10
45.2705489804
 20
64.1063068659
 30
0.0
 10
44.8847907218
 20
64.2881959904
 30
0.0
 10
44.4783406748
 20
64.430010898
 30
0.0
 10
44.0529164024
 20
64.531146993
 30
0.0
 10
43.761402077
 20
64.5708336344
 30
0.0
 10
43.6135678827
 20
64.5840392763
 30
0.0
  0
SPLINE
  5
29A
100
AcDbEntity
  8
0
100
AcDbSpline
 62
7
  6
BYLAYER
 70
0
 71
3
 72
11
 73
7
 74
0
 42
0.0000001
 43
0.0000001
 44
0.0000000001
 40
0.0
 40
0.0
 40
0.0
 40
0.0
 40
0.2269012398
 40
0.4680565992
 40
0.7254227674
 40
1.0
 40
1.0
 40
1.0
 40
1.0
 10
35.1247863169
 20
42.7053130391
 30
0.0
 10
35.4106933316
 20
42.6797737132
 30
0.0
 10
36.0060199418
 20
42.6798290831
 30
0.0
 10
36.9156608672
 20
42.8223407373
 30
0.0
 10
37.854945829
 20
43.1040945989
 30
0.0
 10
38.4733885247
 20
43.3734871851
 30
0.0
 10
38.7843729412
 20
43.5282347854
 30
0.0
  0
SPLINE
  5
29B
100
AcDbEntity
  8
0
100
AcDbSpline
 62
7
  6
BYLAYER
 70
0
 71
3
 72
20
 73
16
 74
0
 42
0.0000001
 43
0.0000001
 44
0.0000000001
 40
0.0
 40
0.0
 40
0.0
 40
0.0
 40
0.1517980444
 40
0.2929881556
 40
0.3597374536
 40
0.4240474858
 40
0.5460017633
 40
0.6043352581
 40
0.6613307867
 40
0.7174028047
 40
0.7730016068
 40
0.8285978391
 40
0.8846722128
 40
0.9416802054
 40
1.0
 40
1.0
 40
1.0
 40
1.0
 10
30.8803955341
 20
48.7437050905
 30
0.0
 10
30.8803955341
 20
48.330494316
 30
0.0
 10
30.9238532461
 20
47.5319933832
 30
0.0
 10
31.1034198595
 20
46.5658427105
 30
0.0
 10
31.3218632193
 20
45.8568497899
 30
0.0
 10
31.5775773269
 20
45.2168147282
 30
0.0
 10
31.9046518113
 20
44.6314683406
 30
0.0
 10
32.3023504925
 20
44.1212692518
 30
0.0
 10
32.626956426
 20
43.784824864
 30
0.0
 10
32.9808473616
 20
43.4908373071
 30
0.0
 10
33.3623829022
 20
43.2405584742
 30
0.0
 10
33.7698845639
 20
43.0352461994
 30
0.0
 10
34.2014835369
 20
42.8757545552
 30
0.0
 10
34.655092843
 20
42.7628750173
 30
0.0
 10
34.966663107
 20
42.7194377719
 30
0.0
 10
35.1247863169
 20
42.7053130391
 30
0.0
  0
SPLINE
  5
29C
100
AcDbEntity
  8
0
100
AcDbSpline
 62
7
  6
BYLAYER
 70
0
 71
3
 72
15
 73
11
 74
0
 42
0.0000001
 43
0.0000001
 44
0.0000000001
 40
0.0
 40
0.0
 40
0.0
 40
0.0
 40
0.129847411
 40
0.2611866596
 40
0.3925260486
 40
0.5223738886
 40
0.6492905064
 40
0.7719421396
 40
0.8891589506
 40
1.0
 40
1.0
 40
1.0
 40
1.0
 10
35.1247863169
 20
59.6830682091
 30
0.0
 10
34.8010263525
 20
59.2803040046
 30
0.0
 10
34.1818024101
 20
58.4438862242
 30
0.0
 10
33.3496776728
 20
57.120154237
 30
0.0
 10
32.6193181502
 20
55.7375490301
 30
0.0
 10
32.0031571016
 20
54.3195506531
 30
0.0
 10
31.5115867918
 20
52.8901050345
 30
0.0
 10
31.1529172322
 20
51.4732303866
 30
0.0
 10
30.9332315769
 20
50.0929491314
 30
0.0
 10
30.8803955341
 20
49.1848234184
 30
0.0
 10
30.8803955341
 20
48.7437050905
 30
0.0
  0
SPLINE
  5
29D
100
AcDbEntity
  8
0
100
AcDbSpline
 62
7
  6
BYLAYER
 70
0
 71
3
 72
11
 73
7
 74
0
 42
0.0000001
 43
0.0000001
 44
0.0000000001
 40
0.0
 40
0.0
 40
0.0
 40
0.0
 40
0.232065918
 40
0.4774810713
 40
0.7342754496
 40
1.0
 40
1.0
 40
1.0
 40
1.0
 10
39.3691770998
 20
63.4467876753
 30
0.0
 10
38.987161271
 20
63.2262320503
 30
0.0
 10
38.2271298279
 20
62.7264202253
 30
0.0
 10
37.1416140252
 20
61.8460187499
 30
0.0
 10
36.0939548737
 20
60.827029678
 30
0.0
 10
35.4412368061
 20
60.0767392728
 30
0.0
 10
35.1247863169
 20
59.6830682091
 30
0.0
  0
SPLINE
  5
29E
100
AcDbEntity
  8
0
100
AcDbSpline
 62
7
  6
BYLAYER
 70
0
 71
3
 72
12
 73
8
 74
0
 42
0.0000001
 43
0.0000001
 44
0.0000000001
 40
0.0
 40
0.0
 40
0.0
 40
0.0
 40
0.2233590417
 40
0.3411489441
 40
0.4633937863
 40
0.7219826221
 40
1.0
 40
1.0
 40
1.0
 40
1.0
 10
43.6135678827
 20
64.5840392763
 30
0.0
 10
43.2829157157
 20
64.6135755696
 30
0.0
 10
42.7720374305
 20
64.6064069815
 30
0.0
 10
42.0899696692
 20
64.5078703697
 30
0.0
 10
41.3667360154
 20
64.3425388551
 30
0.0
 10
40.4402687549
 20
64.0149986562
 30
0.0
 10
39.7270236896
 20
63.653389267
 30
0.0
 10
39.3691770998
 20
63.4467876753
 30
0.0
  0
SPLINE
  5
29F
100
AcDbEntity
  8
0
100
AcDbSpline
 62
7
  6
BYLAYER
 70
0
 71
3
 72
19
 73
15
 74
0
 42
0.0000001
 43
0.0000001
 44
0.0000000001
 40
0.0
 40
0.0
 40
0.0
 40
0.0
 40
0.1517988795
 40
0.2930391422
 40
0.4240729861
 40
0.5461286381
 40
0.6045087121
 40
0.6615418545
 40
0.7176372731
 40
0.7732421572
 40
0.8288234739
 40
0.8848497175
 40
0.9417702099
 40
1.0
 40
1.0
 40
1.0
 40
1.0
 10
39.3691770998
 20
62.8715029778
 30
0.0
 10
39.7046741111
 20
63.0652011114
 30
0.0
 10
40.3734811943
 20
63.4044528343
 30
0.0
 10
41.3967535494
 20
63.767138969
 30
0.0
 10
42.3888962468
 20
63.9591395159
 30
0.0
 10
43.1888447719
 20
63.9725150291
 30
0.0
 10
43.7903162211
 20
63.890881336
 30
0.0
 10
44.2163313749
 20
63.7867513049
 30
0.0
 10
44.6217986733
 20
63.6391544356
 30
0.0
 10
45.0048962385
 20
63.4487157663
 30
0.0
 10
45.3638632219
 20
63.216292883
 30
0.0
 10
45.697065891
 20
62.9429312917
 30
0.0
 10
46.003027767
 20
62.6299862893
 30
0.0
 10
46.185563578
 20
62.3989077849
 30
0.0
 10
46.2718266385
 20
62.2779028563
 30
0.0
  0
SPLINE
  5
2A0
100
AcDbEntity
  8
0
100
AcDbSpline
 62
7
  6
BYLAYER
 70
0
 71
3
 72
33
 73
29
 74
0
 42
0.0000001
 43
0.0000001
 44
0.0000000001
 40
0.0
 40
0.0
 40
0.0
 40
0.0
 40
0.0316710886
 40
0.0645585294
 40
0.0985522672
 40
0.1335502342
 40
0.2060307785
 40
0.2808774608
 40
0.3568081652
 40
0.4324797916
 40
0.506563854
 40
0.577819747
 40
0.6120570693
 40
0.6452037272
 40
0.6771667989
 40
0.707875316
 40
0.7372860958
 40
0.7653853623
 40
0.7921963855
 40
0.8177815367
 40
0.8422481995
 40
0.8657508626
 40
0.8884902861
 40
0.9107097993
 40
0.9326835754
 40
0.9547018596
 40
0.9770520228
 40
1.0
 40
1.0
 40
1.0
 40
1.0
 10
39.8631936899
 20
62.3808630776
 30
0.0
 10
39.6462950915
 20
62.2556373609
 30
0.0
 10
39.2132572966
 20
61.9843585096
 30
0.0
 10
38.5807447135
 20
61.5282354419
 30
0.0
 10
37.9567764303
 20
61.0178154744
 30
0.0
 10
37.1323439695
 20
60.260826732
 30
0.0
 10
36.1516073625
 20
59.20005954
 30
0.0
 10
35.0856559058
 20
57.7893552037
 30
0.0
 10
34.1446044087
 20
56.2626998697
 30
0.0
 10
33.3531516078
 20
54.6600855531
 30
0.0
 10
32.7320238117
 20
53.0235372295
 30
0.0
 10
32.3649093359
 20
51.6486027952
 30
0.0
 10
32.1733083365
 20
50.5685708153
 30
0.0
 10
32.0825806143
 20
49.7876795838
 30
0.0
 10
32.0435021149
 20
49.0304077938
 30
0.0
 10
32.0564102386
 20
48.3017108775
 30
0.0
 10
32.121194164
 20
47.6063786708
 30
0.0
 10
32.2375922173
 20
46.948975183
 30
0.0
 10
32.4048625992
 20
46.3338098812
 30
0.0
 10
32.6221233281
 20
45.7649654175
 30
0.0
 10
32.888102966
 20
45.2462654091
 30
0.0
 10
33.2012377409
 20
44.7812893961
 30
0.0
 10
33.5596604976
 20
44.373432565
 30
0.0
 10
33.960961609
 20
44.0256990787
 30
0.0
 10
34.4023974893
 20
43.7408648637
 30
0.0
 10
34.8806779399
 20
43.5210022126
 30
0.0
 10
35.3921452021
 20
43.3677413663
 30
0.0
 10
35.747098137
 20
43.31142791
 30
0.0
 10
35.9277393086
 20
43.2940947566
 30
0.0
  0
SPLINE
  5
2A1
100
AcDbEntity
  8
0
100
AcDbSpline
 62
7
  6
BYLAYER
 70
0
 71
3
 72
11
 73
7
 74
0
 42
0.0000001
 43
0.0000001
 44
0.0000000001
 40
0.0
 40
0.0
 40
0.0
 40
0.0
 40
0.2458891186
 40
0.4944449149
 40
0.7458370139
 40
1.0
 40
1.0
 40
1.0
 40
1.0
 10
38.2958043984
 20
64.7395177674
 30
0.0
 10
38.0803184582
 20
64.2992607784
 30
0.0
 10
37.6278101819
 20
63.4231666445
 30
0.0
 10
36.8793103129
 20
62.1377218634
 30
0.0
 10
36.0494674628
 20
60.8832221138
 30
0.0
 10
35.4422174163
 20
60.0779591724
 30
0.0
 10
35.1247863169
 20
59.6830682091
 30
0.0
  0
SPLINE
  5
2A2
100
AcDbEntity
  8
0
100
AcDbSpline
 62
7
  6
BYLAYER
 70
0
 71
3
 72
11
 73
7
 74
0
 42
0.0000001
 43
0.0000001
 44
0.0000000001
 40
0.0
 40
0.0
 40
0.0
 40
0.0
 40
0.2256492086
 40
0.4692584096
 40
0.7283047998
 40
1.0
 40
1.0
 40
1.0
 40
1.0
 10
43.6135678827
 20
64.5840392763
 30
0.0
 10
43.2803568069
 20
64.6138041503
 30
0.0
 10
42.5887217243
 20
64.6907923638
 30
0.0
 10
41.5201535584
 20
64.8468399962
 30
0.0
 10
40.3889324338
 20
65.0431464961
 30
0.0
 10
39.6166062684
 20
65.1939126434
 30
0.0
 10
39.2218823306
 20
65.2741859193
 30
0.0
  0
SPLINE
  5
2A3
100
AcDbEntity
  8
0
100
AcDbSpline
 62
7
  6
BYLAYER
 70
0
 71
3
 72
11
 73
7
 74
0
 42
0.0000001
 43
0.0000001
 44
0.0000000001
 40
0.0
 40
0.0
 40
0.0
 40
0.0
 40
0.2256492086
 40
0.4692584096
 40
0.7283047998
 40
1.0
 40
1.0
 40
1.0
 40
1.0
 10
55.6344332102
 20
57.6439464495
 30
0.0
 10
55.967644286
 20
57.6141815755
 30
0.0
 10
56.6592793686
 20
57.537193362
 30
0.0
 10
57.7278475344
 20
57.3811457296
 30
0.0
 10
58.8590686591
 20
57.1848392297
 30
0.0
 10
59.6313948244
 20
57.0340730824
 30
0.0
 10
60.0261187623
 20
56.9537998065
 30
0.0
  0
SPLINE
  5
2A4
100
AcDbEntity
  8
0
100
AcDbSpline
 62
7
  6
BYLAYER
 70
0
 71
3
 72
11
 73
7
 74
0
 42
0.0000001
 43
0.0000001
 44
0.0000000001
 40
0.0
 40
0.0
 40
0.0
 40
0.0
 40
0.2640505373
 40
0.518096522
 40
0.7629874112
 40
1.0
 40
1.0
 40
1.0
 40
1.0
 10
42.9012608616
 20
41.8036122636
 30
0.0
 10
42.9012608616
 20
42.2209644813
 30
0.0
 10
42.9274567234
 20
43.0401649367
 30
0.0
 10
43.0485819092
 20
44.2409389962
 30
0.0
 10
43.2425295888
 20
45.3886943483
 30
0.0
 10
43.4161440069
 20
46.1308509087
 30
0.0
 10
43.5115945968
 20
46.4931033407
 30
0.0
  0
SPLINE
  5
2A5
100
AcDbEntity
  8
0
100
AcDbSpline
 62
7
  6
BYLAYER
 70
0
 71
3
 72
11
 73
7
 74
0
 42
0.0000001
 43
0.0000001
 44
0.0000000001
 40
0.0
 40
0.0
 40
0.0
 40
0.0
 40
0.2458891186
 40
0.4944449149
 40
0.7458370139
 40
1.0
 40
1.0
 40
1.0
 40
1.0
 10
43.9746335629
 20
47.686525824
 30
0.0
 10
44.1901195032
 20
48.126782813
 30
0.0
 10
44.6426277794
 20
49.0028769469
 30
0.0
 10
45.3911276485
 20
50.288321728
 30
0.0
 10
46.2209704985
 20
51.5428214776
 30
0.0
 10
46.8282205451
 20
52.3480844189
 30
0.0
 10
47.1456516444
 20
52.7429753823
 30
0.0
  0
SPLINE
  5
2A6
100
AcDbEntity
  8
0
100
AcDbSpline
 62
7
  6
BYLAYER
 70
0
 71
3
 72
11
 73
7
 74
0
 42
0.0000001
 43
0.0000001
 44
0.0000000001
 40
0.0
 40
0.0
 40
0.0
 40
0.0
 40
0.2716847903
 40
0.5307386397
 40
0.7743479271
 40
1.0
 40
1.0
 40
1.0
 40
1.0
 10
44.8752952678
 20
35.2306445916
 30
0.0
 10
45.2700040818
 20
35.1503743914
 30
0.0
 10
46.0423301263
 20
34.9996316629
 30
0.0
 10
47.1735399353
 20
34.8032845734
 30
0.0
 10
48.2421267616
 20
34.6472561712
 30
0.0
 10
48.9337655146
 20
34.5702632004
 30
0.0
 10
49.2669808199
 20
34.5404979487
 30
0.0
  0
SPLINE
  5
2A7
100
AcDbEntity
  8
0
100
AcDbSpline
 62
7
  6
BYLAYER
 70
0
 71
3
 72
9
 73
5
 74
0
 42
0.0000001
 43
0.0000001
 44
0.0000000001
 40
0.0
 40
0.0
 40
0.0
 40
0.0
 40
0.2461771807
 40
1.0
 40
1.0
 40
1.0
 40
1.0
 10
43.9746335629
 20
35.7506301057
 30
0.0
 10
43.9326381203
 20
35.8016869368
 30
0.0
 10
43.7660722442
 20
36.0123751557
 30
0.0
 10
43.615703716
 20
36.2357736162
 30
0.0
 10
43.5115945968
 20
36.4093844371
 30
0.0
  0
SPLINE
  5
2A8
100
AcDbEntity
  8
0
100
AcDbSpline
 62
7
  6
BYLAYER
 70
0
 71
3
 72
21
 73
17
 74
0
 42
0.0000001
 43
0.0000001
 44
0.0000000001
 40
0.0
 40
0.0
 40
0.0
 40
0.0
 40
0.055844153
 40
0.114191451
 40
0.1748018527
 40
0.2373786752
 40
0.301581065
 40
0.3670319529
 40
0.4999996314
 40
0.6329674102
 40
0.6984178584
 40
0.7626208731
 40
0.8251974935
 40
0.8858046968
 40
0.9441644475
 40
1.0
 40
1.0
 40
1.0
 40
1.0
 10
47.1474496378
 20
41.8056097494
 30
0.0
 10
47.1474477832
 20
42.0518111706
 30
0.0
 10
47.1692951093
 20
42.5554345976
 30
0.0
 10
47.2620503557
 20
43.3211453384
 30
0.0
 10
47.4146196894
 20
44.1074567366
 30
0.0
 10
47.6255034988
 20
44.9068176304
 30
0.0
 10
47.8927219065
 20
45.7116538994
 30
0.0
 10
48.3229035329
 20
46.7872133021
 30
0.0
 10
48.9828577794
 20
48.0944136698
 30
0.0
 10
49.78492552
 20
49.3195649514
 30
0.0
 10
50.501292875
 20
50.2298979721
 30
0.0
 10
51.0646978902
 20
50.8637283517
 30
0.0
 10
51.6514879917
 20
51.4460564925
 30
0.0
 10
52.2561951034
 20
51.9713744562
 30
0.0
 10
52.8729671716
 20
52.434528273
 30
0.0
 10
53.2981874369
 20
52.7053016206
 30
0.0
 10
53.5113716028
 20
52.8283828215
 30
0.0
  0
SPLINE
  5
2A9
100
AcDbEntity
  8
0
100
AcDbSpline
 62
7
  6
BYLAYER
 70
0
 71
3
 72
11
 73
7
 74
0
 42
0.0000001
 43
0.0000001
 44
0.0000000001
 40
0.0
 40
0.0
 40
0.0
 40
0.0
 40
0.2597151621
 40
0.513807829
 40
0.760959036
 40
1.0
 40
1.0
 40
1.0
 40
1.0
 10
43.5115945968
 20
36.4093844371
 30
0.0
 10
43.4183841258
 20
36.8707629547
 30
0.0
 10
43.2488774055
 20
37.7866587664
 30
0.0
 10
43.0537793931
 20
39.1524048457
 30
0.0
 10
42.9305112853
 20
40.4890241297
 30
0.0
 10
42.9012608616
 20
41.3703817206
 30
0.0
 10
42.9012608616
 20
41.8036122636
 30
0.0
  0
SPLINE
  5
2AA
100
AcDbEntity
  8
0
100
AcDbSpline
 62
7
  6
BYLAYER
 70
0
 71
3
 72
10
 73
6
 74
0
 42
0.0000001
 43
0.0000001
 44
0.0000000001
 40
0.0
 40
0.0
 40
0.0
 40
0.0
 40
0.488262592
 40
0.7417200981
 40
1.0
 40
1.0
 40
1.0
 40
1.0
 10
61.9914914522
 20
50.9693619823
 30
0.0
 10
61.9684995069
 20
51.7580551864
 30
0.0
 10
61.8647956663
 20
52.9547348006
 30
0.0
 10
61.6245427353
 20
54.5528652178
 30
0.0
 10
61.4724708653
 20
55.3659471778
 30
0.0
 10
61.3898194332
 20
55.775059961
 30
0.0
  0
SPLINE
  5
2AB
100
AcDbEntity
  8
0
100
AcDbSpline
 62
7
  6
BYLAYER
 70
0
 71
3
 72
11
 73
7
 74
0
 42
0.0000001
 43
0.0000001
 44
0.0000000001
 40
0.0
 40
0.0
 40
0.0
 40
0.0
 40
0.2887226778
 40
0.5501130261
 40
0.7861436391
 40
1.0
 40
1.0
 40
1.0
 40
1.0
 10
49.2669808199
 20
34.5404979487
 30
0.0
 10
49.5715010154
 20
34.513295956
 30
0.0
 10
50.1528626436
 20
34.4729903716
 30
0.0
 10
50.9855292907
 20
34.4563768284
 30
0.0
 10
51.7386455241
 20
34.4825980105
 30
0.0
 10
52.213285671
 20
34.5270499609
 30
0.0
 10
52.4379989014
 20
34.5550880552
 30
0.0
  0
SPLINE
  5
2AC
100
AcDbEntity
  8
0
100
AcDbSpline
 62
7
  6
BYLAYER
 70
0
 71
3
 72
9
 73
5
 74
0
 42
0.0000001
 43
0.0000001
 44
0.0000000001
 40
0.0
 40
0.0
 40
0.0
 40
0.0
 40
0.254188329
 40
1.0
 40
1.0
 40
1.0
 40
1.0
 10
61.3898194332
 20
55.775059961
 30
0.0
 10
61.3547143246
 20
55.8336007187
 30
0.0
 10
61.2125745842
 20
56.0614527976
 30
0.0
 10
61.0540073149
 20
56.2791356115
 30
0.0
 10
60.9267804671
 20
56.4338142924
 30
0.0
  0
SPLINE
  5
2AD
100
AcDbEntity
  8
0
100
AcDbSpline
 62
7
  6
BYLAYER
 70
0
 71
3
 72
11
 73
7
 74
0
 42
0.0000001
 43
0.0000001
 44
0.0000000001
 40
0.0
 40
0.0
 40
0.0
 40
0.0
 40
0.2477731512
 40
0.4973921748
 40
0.7482964972
 40
1.0
 40
1.0
 40
1.0
 40
1.0
 10
47.1456516444
 20
52.7429753823
 30
0.0
 10
47.4661197524
 20
53.1416444481
 30
0.0
 10
48.1346205247
 20
53.9220490462
 30
0.0
 10
49.2080059711
 20
55.0340840881
 30
0.0
 10
50.3444711724
 20
56.0932730206
 30
0.0
 10
51.1352189266
 20
56.7655923118
 30
0.0
 10
51.5373371965
 20
57.0946881911
 30
0.0
  0
SPLINE
  5
2AE
100
AcDbEntity
  8
0
100
AcDbSpline
 62
7
  6
BYLAYER
 70
0
 71
3
 72
11
 73
7
 74
0
 42
0.0000001
 43
0.0000001
 44
0.0000000001
 40
0.0
 40
0.0
 40
0.0
 40
0.0
 40
0.2138609745
 40
0.4498736999
 40
0.7112735674
 40
1.0
 40
1.0
 40
1.0
 40
1.0
 10
52.4634151287
 20
57.629356343
 30
0.0
 10
52.6881331803
 20
57.6573950388
 30
0.0
 10
53.1627620827
 20
57.7018091044
 30
0.0
 10
53.9158713445
 20
57.7280961417
 30
0.0
 10
54.7485336664
 20
57.7114462034
 30
0.0
 10
55.3299090905
 20
57.6711487927
 30
0.0
 10
55.6344332102
 20
57.6439464495
 30
0.0
  0
SPLINE
  5
2AF
100
AcDbEntity
  8
0
100
AcDbSpline
 62
7
  6
BYLAYER
 70
0
 71
3
 72
11
 73
7
 74
0
 42
0.0000001
 43
0.0000001
 44
0.0000000001
 40
0.0
 40
0.0
 40
0.0
 40
0.0
 40
0.2256492086
 40
0.4692584096
 40
0.7283047998
 40
1.0
 40
1.0
 40
1.0
 40
1.0
 10
57.7557623856
 20
56.4192241859
 30
0.0
 10
57.4225513098
 20
56.4489890599
 30
0.0
 10
56.7309162272
 20
56.5259772734
 30
0.0
 10
55.6623480614
 20
56.6820249058
 30
0.0
 10
54.5311269367
 20
56.8783314057
 30
0.0
 10
53.7588007714
 20
57.029097553
 30
0.0
 10
53.3640768336
 20
57.1093708289
 30
0.0
  0
SPLINE
  5
2B0
100
AcDbEntity
  8
0
100
AcDbSpline
 62
7
  6
BYLAYER
 70
0
 71
3
 72
25
 73
21
 74
0
 42
0.0000001
 43
0.0000001
 44
0.0000000001
 40
0.0
 40
0.0
 40
0.0
 40
0.0
 40
0.0742848218
 40
0.1447446875
 40
0.2113478529
 40
0.2432764152
 40
0.2743325938
 40
0.3340087891
 40
0.390973791
 40
0.4459946849
 40
0.4999979838
 40
0.554001323
 40
0.6090228989
 40
0.6659883203
 40
0.7256638993
 40
0.7567201467
 40
0.7886510687
 40
0.8552582683
 40
0.925701334
 40
1.0
 40
1.0
 40
1.0
 40
1.0
 10
53.5113716028
 20
38.1313393131
 30
0.0
 10
53.3083977978
 20
38.0141530317
 30
0.0
 10
52.9031651446
 20
37.8020291887
 30
0.0
 10
52.2851177882
 20
37.5490420009
 30
0.0
 10
51.7720659317
 20
37.3994764568
 30
0.0
 10
51.3706605579
 20
37.3205174036
 30
0.0
 10
50.986828837
 20
37.2695285889
 30
0.0
 10
50.5195266131
 20
37.2532656572
 30
0.0
 10
49.9791975827
 20
37.3135162814
 30
0.0
 10
49.4721770634
 20
37.4537735482
 30
0.0
 10
49.0040838772
 20
37.6729265887
 30
0.0
 10
48.5802328421
 20
37.9687228865
 30
0.0
 10
48.2052887465
 20
38.3377246902
 30
0.0
 10
47.8829311778
 20
38.775526046
 30
0.0
 10
47.6633578634
 20
39.188350626
 30
0.0
 10
47.5155998635
 20
39.5462597618
 30
0.0
 10
47.3833043618
 20
39.933397322
 30
0.0
 10
47.2563035263
 20
40.4524586081
 30
0.0
 10
47.1663262118
 20
41.114195866
 30
0.0
 10
47.1474514036
 20
41.5711924579
 30
0.0
 10
47.1474496378
 20
41.8056097494
 30
0.0
  0
SPLINE
  5
2B1
100
AcDbEntity
  8
0
100
AcDbSpline
 62
7
  6
BYLAYER
 70
0
 71
3
 72
11
 73
7
 74
0
 42
0.0000001
 43
0.0000001
 44
0.0000000001
 40
0.0
 40
0.0
 40
0.0
 40
0.0
 40
0.2477731512
 40
0.4973921748
 40
0.7482964972
 40
1.0
 40
1.0
 40
1.0
 40
1.0
 10
49.2669808199
 20
51.5182531187
 30
0.0
 10
48.946512712
 20
51.1195840529
 30
0.0
 10
48.2780119396
 20
50.3391794548
 30
0.0
 10
47.2046264932
 20
49.2271444128
 30
0.0
 10
46.0681612919
 20
48.1679554803
 30
0.0
 10
45.2774135377
 20
47.4956361892
 30
0.0
 10
44.8752952678
 20
47.1665403099
 30
0.0
  0
SPLINE
  5
2B2
100
AcDbEntity
  8
0
100
AcDbSpline
 62
7
  6
BYLAYER
 70
0
 71
3
 72
11
 73
7
 74
0
 42
0.0000001
 43
0.0000001
 44
0.0000000001
 40
0.0
 40
0.0
 40
0.0
 40
0.0
 40
0.2597151621
 40
0.513807829
 40
0.760959036
 40
1.0
 40
1.0
 40
1.0
 40
1.0
 10
44.4122563017
 20
45.9731178266
 30
0.0
 10
44.5054667727
 20
45.511739309
 30
0.0
 10
44.6749734931
 20
44.5958434973
 30
0.0
 10
44.8700715054
 20
43.230097418
 30
0.0
 10
44.9933396132
 20
41.893478134
 30
0.0
 10
45.022590037
 20
41.0121205431
 30
0.0
 10
45.022590037
 20
40.5788900001
 30
0.0
  0
SPLINE
  5
2B3
100
AcDbEntity
  8
0
100
AcDbSpline
 62
7
  6
BYLAYER
 70
0
 71
3
 72
9
 73
5
 74
0
 42
0.0000001
 43
0.0000001
 44
0.0000000001
 40
0.0
 40
0.0
 40
0.0
 40
0.0
 40
0.254188329
 40
1.0
 40
1.0
 40
1.0
 40
1.0
 10
44.4122563017
 20
35.889398923
 30
0.0
 10
44.4473614103
 20
35.8308581654
 30
0.0
 10
44.5895011507
 20
35.6030060864
 30
0.0
 10
44.7480684201
 20
35.3853232725
 30
0.0
 10
44.8752952678
 20
35.2306445916
 30
0.0
  0
SPLINE
  5
2B4
100
AcDbEntity
  8
0
100
AcDbSpline
 62
7
  6
BYLAYER
 70
0
 71
3
 72
11
 73
7
 74
0
 42
0.0000001
 43
0.0000001
 44
0.0000000001
 40
0.0
 40
0.0
 40
0.0
 40
0.0
 40
0.2640505373
 40
0.518096522
 40
0.7629874112
 40
1.0
 40
1.0
 40
1.0
 40
1.0
 10
45.022590037
 20
40.5788900001
 30
0.0
 10
45.022590037
 20
40.1615377824
 30
0.0
 10
44.9963941752
 20
39.342337327
 30
0.0
 10
44.8752689893
 20
38.1415632675
 30
0.0
 10
44.6813213097
 20
36.9938079155
 30
0.0
 10
44.5077068917
 20
36.251651355
 30
0.0
 10
44.4122563017
 20
35.889398923
 30
0.0
  0
SPLINE
  5
2B5
100
AcDbEntity
  8
0
100
AcDbSpline
 62
7
  6
BYLAYER
 70
0
 71
3
 72
11
 73
7
 74
0
 42
0.0000001
 43
0.0000001
 44
0.0000000001
 40
0.0
 40
0.0
 40
0.0
 40
0.0
 40
0.2269012398
 40
0.4680565992
 40
0.7254227674
 40
1.0
 40
1.0
 40
1.0
 40
1.0
 10
49.2669808199
 20
34.5404979487
 30
0.0
 10
49.5528878345
 20
34.5149586228
 30
0.0
 10
50.1482144447
 20
34.5150139926
 30
0.0
 10
51.0578553702
 20
34.6575256469
 30
0.0
 10
51.9971403319
 20
34.9392795085
 30
0.0
 10
52.6155830277
 20
35.2086720947
 30
0.0
 10
52.9265674441
 20
35.3634196949
 30
0.0
  0
SPLINE
  5
2B6
100
AcDbEntity
  8
0
100
AcDbSpline
 62
7
  6
BYLAYER
 70
0
 71
3
 72
11
 73
7
 74
0
 42
0.0000001
 43
0.0000001
 44
0.0000000001
 40
0.0
 40
0.0
 40
0.0
 40
0.0
 40
0.2138609745
 40
0.4498736999
 40
0.7112735674
 40
1.0
 40
1.0
 40
1.0
 40
1.0
 10
60.9267804671
 20
56.4338142924
 30
0.0
 10
60.7020624156
 20
56.4057755966
 30
0.0
 10
60.2274335131
 20
56.361361531
 30
0.0
 10
59.4743242513
 20
56.3350744937
 30
0.0
 10
58.6416619294
 20
56.351724432
 30
0.0
 10
58.0602865053
 20
56.3920218427
 30
0.0
 10
57.7557623856
 20
56.4192241859
 30
0.0
  0
SPLINE
  5
2B7
100
AcDbEntity
  8
0
100
AcDbSpline
 62
7
  6
BYLAYER
 70
0
 71
3
 72
20
 73
16
 74
0
 42
0.0000001
 43
0.0000001
 44
0.0000000001
 40
0.0
 40
0.0
 40
0.0
 40
0.0
 40
0.1517980444
 40
0.2929881556
 40
0.3597374536
 40
0.4240474858
 40
0.5460017633
 40
0.6043352581
 40
0.6613307867
 40
0.7174028047
 40
0.7730016068
 40
0.8285978391
 40
0.8846722128
 40
0.9416802054
 40
1.0
 40
1.0
 40
1.0
 40
1.0
 10
45.022590037
 20
40.5788900001
 30
0.0
 10
45.022590037
 20
40.1656792256
 30
0.0
 10
45.0660477491
 20
39.3671782928
 30
0.0
 10
45.2456143625
 20
38.4010276201
 30
0.0
 10
45.4640577222
 20
37.6920346995
 30
0.0
 10
45.7197718299
 20
37.0519996378
 30
0.0
 10
46.0468463143
 20
36.4666532502
 30
0.0
 10
46.4445449954
 20
35.9564541614
 30
0.0
 10
46.769150929
 20
35.6200097736
 30
0.0
 10
47.1230418645
 20
35.3260222167
 30
0.0
 10
47.5045774052
 20
35.0757433838
 30
0.0
 10
47.9120790669
 20
34.870431109
 30
0.0
 10
48.3436780399
 20
34.7109394648
 30
0.0
 10
48.797287346
 20
34.5980599269
 30
0.0
 10
49.10885761
 20
34.5546226815
 30
0.0
 10
49.2669808199
 20
34.5404979487
 30
0.0
  0
SPLINE
  5
2B8
100
AcDbEntity
  8
0
100
AcDbSpline
 62
7
  6
BYLAYER
 70
0
 71
3
 72
15
 73
11
 74
0
 42
0.0000001
 43
0.0000001
 44
0.0000000001
 40
0.0
 40
0.0
 40
0.0
 40
0.0
 40
0.129847411
 40
0.2611866596
 40
0.3925260486
 40
0.5223738886
 40
0.6492905064
 40
0.7719421396
 40
0.8891589506
 40
1.0
 40
1.0
 40
1.0
 40
1.0
 10
49.2669808199
 20
51.5182531187
 30
0.0
 10
48.9432208555
 20
51.1154889142
 30
0.0
 10
48.323996913
 20
50.2790711338
 30
0.0
 10
47.4918721758
 20
48.9553391466
 30
0.0
 10
46.7615126532
 20
47.5727339397
 30
0.0
 10
46.1453516045
 20
46.1547355627
 30
0.0
 10
45.6537812947
 20
44.7252899441
 30
0.0
 10
45.2951117351
 20
43.3084152962
 30
0.0
 10
45.0754260798
 20
41.928134041
 30
0.0
 10
45.022590037
 20
41.020008328
 30
0.0
 10
45.022590037
 20
40.5788900001
 30
0.0
  0
SPLINE
  5
2B9
100
AcDbEntity
  8
0
100
AcDbSpline
 62
7
  6
BYLAYER
 70
0
 71
3
 72
11
 73
7
 74
0
 42
0.0000001
 43
0.0000001
 44
0.0000000001
 40
0.0
 40
0.0
 40
0.0
 40
0.0
 40
0.232065918
 40
0.4774810713
 40
0.7342754496
 40
1.0
 40
1.0
 40
1.0
 40
1.0
 10
53.5113716028
 20
55.2819725849
 30
0.0
 10
53.129355774
 20
55.0614169599
 30
0.0
 10
52.3693243308
 20
54.5616051349
 30
0.0
 10
51.2838085281
 20
53.6812036595
 30
0.0
 10
50.2361493767
 20
52.6622145876
 30
0.0
 10
49.5834313091
 20
51.9119241824
 30
0.0
 10
49.2669808199
 20
51.5182531187
 30
0.0
  0
SPLINE
  5
2BA
100
AcDbEntity
  8
0
100
AcDbSpline
 62
7
  6
BYLAYER
 70
0
 71
3
 72
12
 73
8
 74
0
 42
0.0000001
 43
0.0000001
 44
0.0000000001
 40
0.0
 40
0.0
 40
0.0
 40
0.0
 40
0.2233590417
 40
0.3411489441
 40
0.4633937863
 40
0.7219826221
 40
1.0
 40
1.0
 40
1.0
 40
1.0
 10
57.7557623856
 20
56.4192241859
 30
0.0
 10
57.4251102187
 20
56.4487604792
 30
0.0
 10
56.9142319334
 20
56.4415918911
 30
0.0
 10
56.2321641722
 20
56.3430552793
 30
0.0
 10
55.5089305183
 20
56.1777237647
 30
0.0
 10
54.5824632578
 20
55.8501835658
 30
0.0
 10
53.8692181925
 20
55.4885741766
 30
0.0
 10
53.5113716028
 20
55.2819725849
 30
0.0
  0
SPLINE
  5
2BB
100
AcDbEntity
  8
0
100
AcDbSpline
 62
7
  6
BYLAYER
 70
0
 71
3
 72
20
 73
16
 74
0
 42
0.0000001
 43
0.0000001
 44
0.0000000001
 40
0.0
 40
0.0
 40
0.0
 40
0.0
 40
0.1490470855
 40
0.2880509918
 40
0.4176933737
 40
0.479468921
 40
0.5394990756
 40
0.5980871011
 40
0.6555804512
 40
0.7123626553
 40
0.768840604
 40
0.8254363921
 40
0.8825755057
 40
0.9406539553
 40
1.0
 40
1.0
 40
1.0
 40
1.0
 10
61.9799541705
 20
51.0447194118
 30
0.0
 10
61.956898658
 20
51.416768418
 30
0.0
 10
61.872911333
 20
52.1343591187
 30
0.0
 10
61.6177147673
 20
53.1505337053
 30
0.0
 10
61.2977822314
 20
53.9168047475
 30
0.0
 10
60.9815566783
 20
54.4612331428
 30
0.0
 10
60.7199751135
 20
54.8296506752
 30
0.0
 10
60.4311783606
 20
55.1631437685
 30
0.0
 10
60.1162170568
 20
55.4604005851
 30
0.0
 10
59.7762851462
 20
55.7201859456
 30
0.0
 10
59.4127434833
 20
55.9414917755
 30
0.0
 10
59.0269852247
 20
56.1233809
 30
0.0
 10
58.6205351777
 20
56.2651958076
 30
0.0
 10
58.1951109053
 20
56.3663319026
 30
0.0
 10
57.90359658
 20
56.406018544
 30
0.0
 10
57.7557623856
 20
56.4192241859
 30
0.0
  0
SPLINE
  5
2BC
100
AcDbEntity
  8
0
100
AcDbSpline
 62
7
  6
BYLAYER
 70
0
 71
3
 72
23
 73
19
 74
0
 42
0.0000001
 43
0.0000001
 44
0.0000000001
 40
0.0
 40
0.0
 40
0.0
 40
0.0
 40
0.0728045499
 40
0.1415499292
 40
0.2062369118
 40
0.2671388868
 40
0.3247349778
 40
0.3797556661
 40
0.4331601768
 40
0.4860677199
 40
0.5396514563
 40
0.5950126098
 40
0.6530776917
 40
0.714539225
 40
0.7798433693
 40
0.8492069774
 40
0.9226446357
 40
1.0
 40
1.0
 40
1.0
 40
1.0
 10
53.5113716028
 20
52.8283828215
 30
0.0
 10
53.7296834735
 20
52.9544244865
 30
0.0
 10
54.1653858253
 20
53.1807938848
 30
0.0
 10
54.8304857594
 20
53.4443905479
 30
0.0
 10
55.4819597235
 20
53.6193602665
 30
0.0
 10
56.1126704141
 20
53.7033899853
 30
0.0
 10
56.7158162714
 20
53.6948914887
 30
0.0
 10
57.2844093078
 20
53.5931541913
 30
0.0
 10
57.8113258056
 20
53.3986316732
 30
0.0
 10
58.2894853746
 20
53.1133498489
 30
0.0
 10
58.712537413
 20
52.7412065827
 30
0.0
 10
59.0753861344
 20
52.2874510719
 30
0.0
 10
59.3742353621
 20
51.758099767
 30
0.0
 10
59.6063853713
 20
51.1596194761
 30
0.0
 10
59.7698781112
 20
50.498831744
 30
0.0
 10
59.8633265672
 20
49.7829836896
 30
0.0
 10
59.8859713238
 20
49.0199369821
 30
0.0
 10
59.8545935839
 20
48.4980188332
 30
0.0
 10
59.8279002939
 20
48.2315107164
 30
0.0
  0
SPLINE
  5
2BD
100
AcDbEntity
  8
0
100
AcDbSpline
 62
7
  6
BYLAYER
 70
0
 71
3
 72
9
 73
5
 74
0
 42
0.0000001
 43
0.0000001
 44
0.0000000001
 40
0.0
 40
0.0
 40
0.0
 40
0.0
 40
0.2552696601
 40
1.0
 40
1.0
 40
1.0
 40
1.0
 10
54.2589387921
 20
38.6138356649
 30
0.0
 10
54.197306572
 20
38.5698383124
 30
0.0
 10
53.9539243887
 20
38.4002293892
 30
0.0
 10
53.7026963905
 20
38.2418000715
 30
0.0
 10
53.5113716028
 20
38.1313393131
 30
0.0
  0
SPLINE
  5
2BE
100
AcDbEntity
  8
0
100
AcDbSpline
 62
7
  6
BYLAYER
 70
0
 71
3
 72
11
 73
7
 74
0
 42
0.0000001
 43
0.0000001
 44
0.0000000001
 40
0.0
 40
0.0
 40
0.0
 40
0.0
 40
0.2458891186
 40
0.4944449149
 40
0.7458370139
 40
1.0
 40
1.0
 40
1.0
 40
1.0
 10
52.4379989014
 20
56.574702677
 30
0.0
 10
52.2225129611
 20
56.134445688
 30
0.0
 10
51.7700046849
 20
55.2583515541
 30
0.0
 10
51.0215048158
 20
53.972906773
 30
0.0
 10
50.1916619658
 20
52.7184070233
 30
0.0
 10
49.5844119192
 20
51.913144082
 30
0.0
 10
49.2669808199
 20
51.5182531187
 30
0.0
  0
SPLINE
  5
2BF
100
AcDbEntity
  8
0
100
AcDbSpline
 62
7
  6
BYLAYER
 70
0
 71
3
 72
14
 73
10
 74
0
 42
0.0000001
 43
0.0000001
 44
0.0000000001
 40
0.0
 40
0.0
 40
0.0
 40
0.0
 40
0.1475126718
 40
0.2879844272
 40
0.5471737026
 40
0.6671883529
 40
0.7818019877
 40
0.8922284098
 40
1.0
 40
1.0
 40
1.0
 40
1.0
 10
60.0901595714
 20
48.453427298
 30
0.0
 10
60.2661765617
 20
48.5550501482
 30
0.0
 10
60.6178689402
 20
48.7401639968
 30
0.0
 10
61.3134774815
 20
49.0320022946
 30
0.0
 10
62.0128296358
 20
49.2148125306
 30
0.0
 10
62.6931189535
 20
49.263361185
 30
0.0
 10
63.1692338387
 20
49.234040549
 30
0.0
 10
63.6196125326
 20
49.1395463207
 30
0.0
 10
63.9022144278
 20
49.0327322725
 30
0.0
 10
64.0364404959
 20
48.9692283282
 30
0.0
  0
SPLINE
  5
2C0
100
AcDbEntity
  8
0
100
AcDbSpline
 62
7
  6
BYLAYER
 70
0
 71
3
 72
23
 73
19
 74
0
 42
0.0000001
 43
0.0000001
 44
0.0000000001
 40
0.0
 40
0.0
 40
0.0
 40
0.0
 40
0.0428492281
 40
0.0877229004
 40
0.1359356679
 40
0.1883043282
 40
0.2451605657
 40
0.3064266413
 40
0.3717055589
 40
0.4403608709
 40
0.5115799783
 40
0.5844278379
 40
0.6578963003
 40
0.7309543672
 40
0.8025879797
 40
0.8718338531
 40
0.9378816037
 40
1.0
 40
1.0
 40
1.0
 40
1.0
 10
59.1965371199
 20
35.2721868439
 30
0.0
 10
59.053993008
 20
35.3640190544
 30
0.0
 10
58.7853372918
 20
35.5905005743
 30
0.0
 10
58.4662735121
 20
36.0290144592
 30
0.0
 10
58.2310311168
 20
36.5583835515
 30
0.0
 10
58.0828529358
 20
37.1663768914
 30
0.0
 10
58.023292616
 20
37.8405932897
 30
0.0
 10
58.0528473687
 20
38.5674810914
 30
0.0
 10
58.1705513835
 20
39.3323610518
 30
0.0
 10
58.3738680217
 20
40.119602522
 30
0.0
 10
58.6585820371
 20
40.9129601935
 30
0.0
 10
59.0187581112
 20
41.695966726
 30
0.0
 10
59.4468623582
 20
42.45234153
 30
0.0
 10
59.9340045365
 20
43.1663285395
 30
0.0
 10
60.4700512497
 20
43.8229969356
 30
0.0
 10
61.0438970627
 20
44.408875127
 30
0.0
 10
61.6435991731
 20
44.911502702
 30
0.0
 10
62.0666485087
 20
45.1937824943
 30
0.0
 10
62.2795321946
 20
45.316690214
 30
0.0
  0
SPLINE
  5
2C1
100
AcDbEntity
  8
0
100
AcDbSpline
 62
7
  6
BYLAYER
 70
0
 71
3
 72
9
 73
5
 74
0
 42
0.0000001
 43
0.0000001
 44
0.0000000001
 40
0.0
 40
0.0
 40
0.0
 40
0.0
 40
0.4734402316
 40
1.0
 40
1.0
 40
1.0
 40
1.0
 10
59.7409546742
 20
33.7705345536
 30
0.0
 10
60.0392883374
 20
33.7600980049
 30
0.0
 10
60.6737895518
 20
33.8291513328
 30
0.0
 10
61.2738496386
 20
34.036688218
 30
0.0
 10
61.577345592
 20
34.1713003867
 30
0.0
  0
SPLINE
  5
2C2
100
AcDbEntity
  8
0
100
AcDbSpline
 62
7
  6
BYLAYER
 70
0
 71
3
 72
9
 73
5
 74
0
 42
0.0000001
 43
0.0000001
 44
0.0000000001
 40
0.0
 40
0.0
 40
0.0
 40
0.0
 40
0.2444902449
 40
1.0
 40
1.0
 40
1.0
 40
1.0
 10
61.577345592
 20
34.1713003867
 30
0.0
 10
61.6274159638
 20
34.1935085291
 30
0.0
 10
61.8309159932
 20
34.2872468113
 30
0.0
 10
62.0291985537
 20
34.3922160284
 30
0.0
 10
62.1757830666
 20
34.4768461313
 30
0.0
  0
SPLINE
  5
2C3
100
AcDbEntity
  8
0
100
AcDbSpline
 62
7
  6
BYLAYER
 70
0
 71
3
 72
15
 73
11
 74
0
 42
0.0000001
 43
0.0000001
 44
0.0000000001
 40
0.0
 40
0.0
 40
0.0
 40
0.0
 40
0.1485537913
 40
0.2895072603
 40
0.4227299923
 40
0.5486372184
 40
0.6679981872
 40
0.7819376114
 40
0.8919872626
 40
1.0
 40
1.0
 40
1.0
 40
1.0
 10
29.0019873826
 20
66.9731374452
 30
0.0
 10
29.2047743613
 20
67.0902158631
 30
0.0
 10
29.6097060966
 20
67.3021475427
 30
0.0
 10
30.2273216112
 20
67.5550145585
 30
0.0
 10
30.8340060243
 20
67.731863105
 30
0.0
 10
31.4238941512
 20
67.8307954451
 30
0.0
 10
31.9915561112
 20
67.8505689835
 30
0.0
 10
32.5315391862
 20
67.7903231369
 30
0.0
 10
33.0380919935
 20
67.6502966302
 30
0.0
 10
33.3511314303
 20
67.503665292
 30
0.0
 10
33.4985775708
 20
67.4185393868
 30
0.0
  0
SPLINE
  5
2C4
100
AcDbEntity
  8
0
100
AcDbSpline
 62
7
  6
BYLAYER
 70
0
 71
3
 72
14
 73
10
 74
0
 42
0.0000001
 43
0.0000001
 44
0.0000000001
 40
0.0
 40
0.0
 40
0.0
 40
0.0
 40
0.1474352574
 40
0.2878654903
 40
0.547072824
 40
0.6671261248
 40
0.7817824889
 40
0.8922366885
 40
1.0
 40
1.0
 40
1.0
 40
1.0
 10
24.2348479649
 20
69.1140996185
 30
0.0
 10
24.4090972156
 20
69.2147018697
 30
0.0
 10
24.7572615032
 20
69.3980306956
 30
0.0
 10
25.4459518346
 20
69.6874265839
 30
0.0
 10
26.1383579126
 20
69.8693696147
 30
0.0
 10
26.8121660596
 20
69.9190846388
 30
0.0
 10
27.2839679175
 20
69.8915648044
 30
0.0
 10
27.7305069825
 20
69.7998127713
 30
0.0
 10
28.0109583224
 20
69.6954264582
 30
0.0
 10
28.1442367933
 20
69.6332577175
 30
0.0
  0
SPLINE
  5
2C5
100
AcDbEntity
  8
0
100
AcDbSpline
 62
7
  6
BYLAYER
 70
0
 71
3
 72
15
 73
11
 74
0
 42
0.0000001
 43
0.0000001
 44
0.0000000001
 40
0.0
 40
0.0
 40
0.0
 40
0.0
 40
0.1101332423
 40
0.2219848333
 40
0.3371357481
 40
0.4569652001
 40
0.5825467949
 40
0.7146914824
 40
0.8538779446
 40
1.0
 40
1.0
 40
1.0
 40
1.0
 10
65.5802024808
 20
48.0885990909
 30
0.0
 10
65.7221826156
 20
48.0066877584
 30
0.0
 10
65.9947498909
 20
47.8166802873
 30
0.0
 10
66.3542816467
 20
47.4636287648
 30
0.0
 10
66.6621405554
 20
47.0467575502
 30
0.0
 10
66.9156486999
 20
46.5718384434
 30
0.0
 10
67.1134545901
 20
46.0443313493
 30
0.0
 10
67.25470763
 20
45.4694670168
 30
0.0
 10
67.3388263011
 20
44.8528886756
 30
0.0
 10
67.3565581674
 20
44.4279671218
 30
0.0
 10
67.3565581674
 20
44.2104899866
 30
0.0
  0
SPLINE
  5
2C6
100
AcDbEntity
  8
0
100
AcDbSpline
 62
7
  6
BYLAYER
 70
0
 71
3
 72
15
 73
11
 74
0
 42
0.0000001
 43
0.0000001
 44
0.0000000001
 40
0.0
 40
0.0
 40
0.0
 40
0.0
 40
0.1323668838
 40
0.2487605643
 40
0.3562208654
 40
0.4637408404
 40
0.5784089894
 40
0.7047651902
 40
0.8450117462
 40
1.0
 40
1.0
 40
1.0
 40
1.0
 10
8.9034169053
 20
65.0284294827
 30
0.0
 10
8.8700034888
 20
65.0477212793
 30
0.0
 10
8.8099470328
 20
65.0893434887
 30
0.0
 10
8.7395465821
 20
65.1672323899
 30
0.0
 10
8.696879138
 20
65.2553792776
 30
0.0
 10
8.6800629455
 20
65.3510177265
 30
0.0
 10
8.685042142
 20
65.4530910774
 30
0.0
 10
8.70800765
 20
65.5621381004
 30
0.0
 10
8.7460800168
 20
65.6791386506
 30
0.0
 10
8.7787173212
 20
65.7588298044
 30
0.0
 10
8.7968009608
 20
65.8002290817
 30
0.0
  0
SPLINE
  5
2C7
100
AcDbEntity
  8
0
100
AcDbSpline
 62
7
  6
BYLAYER
 70
0
 71
3
 72
14
 73
10
 74
0
 42
0.0000001
 43
0.0000001
 44
0.0000000001
 40
0.0
 40
0.0
 40
0.0
 40
0.0
 40
0.1473457424
 40
0.287727657
 40
0.5469545867
 40
0.6670520012
 40
0.7817575795
 40
0.8922445314
 40
1.0
 40
1.0
 40
1.0
 40
1.0
 10
23.3170672177
 20
69.6439685927
 30
0.0
 10
23.4904783356
 20
69.7440869507
 30
0.0
 10
23.8369724949
 20
69.9266186489
 30
0.0
 10
24.5224275886
 20
70.2151809028
 30
0.0
 10
25.2115917918
 20
70.3973553838
 30
0.0
 10
25.8825573017
 20
70.4487204043
 30
0.0
 10
26.3526227825
 20
70.4230529134
 30
0.0
 10
26.7977914538
 20
70.3337913293
 30
0.0
 10
27.0776753222
 20
70.2314565073
 30
0.0
 10
27.2107681461
 20
70.1703847799
 30
0.0
  0
SPLINE
  5
2C8
100
AcDbEntity
  8
0
100
AcDbSpline
 62
7
  6
BYLAYER
 70
0
 71
3
 72
12
 73
8
 74
0
 42
0.0000001
 43
0.0000001
 44
0.0000000001
 40
0.0
 40
0.0
 40
0.0
 40
0.0
 40
0.1113356343
 40
0.2280771927
 40
0.4749364228
 40
0.7346974134
 40
1.0
 40
1.0
 40
1.0
 40
1.0
 10
12.1307763365
 20
63.3931072187
 30
0.0
 10
12.1307763365
 20
63.6099347717
 30
0.0
 10
12.1516867339
 20
64.0543149717
 30
0.0
 10
12.2714259811
 20
64.9722848657
 30
0.0
 10
12.5670587311
 20
66.1544852934
 30
0.0
 10
13.1211894302
 20
67.5558213082
 30
0.0
 10
13.6123862997
 20
68.4561709773
 30
0.0
 10
13.8869915187
 20
68.8938356166
 30
0.0
  0
SPLINE
  5
2C9
100
AcDbEntity
  8
0
100
AcDbSpline
 62
7
  6
BYLAYER
 70
0
 71
3
 72
12
 73
8
 74
0
 42
0.0000001
 43
0.0000001
 44
0.0000000001
 40
0.0
 40
0.0
 40
0.0
 40
0.0
 40
0.107943057
 40
0.2191652828
 40
0.4552532577
 40
0.7147795928
 40
1.0
 40
1.0
 40
1.0
 40
1.0
 10
13.254387108
 20
60.3232961471
 30
0.0
 10
13.1633509797
 20
60.4030461272
 30
0.0
 10
12.9899347754
 20
60.5784906658
 30
0.0
 10
12.6825916347
 20
60.9876227169
 30
0.0
 10
12.3828371498
 20
61.6061320527
 30
0.0
 10
12.1729541757
 20
62.4610252174
 30
0.0
 10
12.1307633449
 20
63.0733240807
 30
0.0
 10
12.1307633449
 20
63.393117595
 30
0.0
  0
SPLINE
  5
2CA
100
AcDbEntity
  8
0
100
AcDbSpline
 62
7
  6
BYLAYER
 70
0
 71
3
 72
24
 73
20
 74
0
 42
0.0000001
 43
0.0000001
 44
0.0000000001
 40
0.0
 40
0.0
 40
0.0
 40
0.0
 40
0.0213085795
 40
0.0429430026
 40
0.087893235
 40
0.1362113361
 40
0.1886828877
 40
0.2456173888
 40
0.3069270195
 40
0.3722127407
 40
0.4408391744
 40
0.5119983484
 40
0.5847654242
 40
0.6581440146
 40
0.7311108587
 40
0.8026650651
 40
0.8718552065
 40
0.9378694596
 40
1.0
 40
1.0
 40
1.0
 40
1.0
 10
19.0488349072
 20
55.8624995004
 30
0.0
 10
18.9526457519
 20
55.9263521603
 30
0.0
 10
18.7666805561
 20
56.0673928761
 30
0.0
 10
18.4247182874
 20
56.4002446091
 30
0.0
 10
18.0601252144
 20
56.9120197097
 30
0.0
 10
17.7437446201
 20
57.6406158666
 30
0.0
 10
17.5455899638
 20
58.475791591
 30
0.0
 10
17.4681458479
 20
59.40041871
 30
0.0
 10
17.5119189513
 20
60.3961851314
 30
0.0
 10
17.6756513719
 20
61.4431369775
 30
0.0
 10
17.9558384273
 20
62.5200646596
 30
0.0
 10
18.3466588082
 20
63.6049625105
 30
0.0
 10
18.8400625012
 20
64.6755319091
 30
0.0
 10
19.4258672926
 20
65.7096989767
 30
0.0
 10
20.0920091459
 20
66.6861279923
 30
0.0
 10
20.8247447932
 20
67.5846119723
 30
0.0
 10
21.6090266618
 20
68.3868663487
 30
0.0
 10
22.4287078141
 20
69.0760668979
 30
0.0
 10
23.0069491021
 20
69.463781645
 30
0.0
 10
23.2980033505
 20
69.6329259364
 30
0.0
  0
SPLINE
  5
2CB
100
AcDbEntity
  8
0
100
AcDbSpline
 62
7
  6
BYLAYER
 70
0
 71
3
 72
20
 73
16
 74
0
 42
0.0000001
 43
0.0000001
 44
0.0000000001
 40
0.0
 40
0.0
 40
0.0
 40
0.0
 40
0.1799271617
 40
0.3495181611
 40
0.5014623669
 40
0.5695500062
 40
0.6320836667
 40
0.6890258641
 40
0.7405054137
 40
0.786911769
 40
0.8290929596
 40
0.8686801495
 40
0.9082971027
 40
0.9511617958
 40
1.0
 40
1.0
 40
1.0
 40
1.0
 10
9.5098140327
 20
67.1032223214
 30
0.0
 10
9.5805949034
 20
67.2258190661
 30
0.0
 10
9.7181518365
 20
67.4639372216
 30
0.0
 10
9.916964171
 20
67.8047139756
 30
0.0
 10
10.075646621
 20
68.0670571443
 30
0.0
 10
10.197026715
 20
68.2533452461
 30
0.0
 10
10.2817468939
 20
68.3742227117
 30
0.0
 10
10.3644073862
 20
68.4804299701
 30
0.0
 10
10.4462336963
 20
68.5708833888
 30
0.0
 10
10.5288399838
 20
68.6442904481
 30
0.0
 10
10.6143715282
 20
68.698821069
 30
0.0
 10
10.7052002449
 20
68.7314781737
 30
0.0
 10
10.8023275885
 20
68.7380997521
 30
0.0
 10
10.9044433428
 20
68.7161296231
 30
0.0
 10
10.9701316202
 20
68.6849539959
 30
0.0
 10
11.0034081621
 20
68.6657412262
 30
0.0
  0
SPLINE
  5
2CC
100
AcDbEntity
  8
0
100
AcDbSpline
 62
7
  6
BYLAYER
 70
0
 71
3
 72
11
 73
7
 74
0
 42
0.0000001
 43
0.0000001
 44
0.0000000001
 40
0.0
 40
0.0
 40
0.0
 40
0.0
 40
0.2069610568
 40
0.4474712873
 40
0.7156533728
 40
1.0
 40
1.0
 40
1.0
 40
1.0
 10
8.7968009608
 20
65.8002290817
 30
0.0
 10
8.8378320593
 20
65.8941624862
 30
0.0
 10
8.9368613082
 20
66.0926755124
 30
0.0
 10
9.1077363244
 20
66.4031993944
 30
0.0
 10
9.3026497233
 20
66.7442233671
 30
0.0
 10
9.4393986175
 20
66.9812585676
 30
0.0
 10
9.5098140327
 20
67.1032223214
 30
0.0
  0
SPLINE
  5
2CD
100
AcDbEntity
  8
0
100
AcDbSpline
 62
7
  6
BYLAYER
 70
0
 71
3
 72
15
 73
11
 74
0
 42
0.0000001
 43
0.0000001
 44
0.0000000001
 40
0.0
 40
0.0
 40
0.0
 40
0.0
 40
0.1167431183
 40
0.2423686861
 40
0.3740028412
 40
0.5081694328
 40
0.6411912319
 40
0.7694838668
 40
0.8898818498
 40
1.0
 40
1.0
 40
1.0
 40
1.0
 10
62.3518978395
 20
34.5819858694
 30
0.0
 10
62.7205944724
 20
34.8093330244
 30
0.0
 10
63.4451733056
 20
35.34924936
 30
0.0
 10
64.432379351
 20
36.3297213769
 30
0.0
 10
65.3289680154
 20
37.4768637579
 30
0.0
 10
66.0985936464
 20
38.7446402818
 30
0.0
 10
66.7105150945
 20
40.0820704686
 30
0.0
 10
67.1400990356
 20
41.4357603232
 30
0.0
 10
67.3701674483
 20
42.7512207212
 30
0.0
 10
67.3845978718
 20
43.6116284135
 30
0.0
 10
67.3503387029
 20
44.0187645104
 30
0.0
  0
SPLINE
  5
2CE
100
AcDbEntity
  8
0
100
AcDbSpline
 62
7
  6
BYLAYER
 70
0
 71
3
 72
9
 73
5
 74
0
 42
0.0000001
 43
0.0000001
 44
0.0000000001
 40
0.0
 40
0.0
 40
0.0
 40
0.0
 40
0.5256014651
 40
1.0
 40
1.0
 40
1.0
 40
1.0
 10
67.3303417222
 20
44.2163546007
 30
0.0
 10
67.2926883403
 20
44.533734563
 30
0.0
 10
67.1703861105
 20
45.1335364956
 30
0.0
 10
66.9196614699
 20
45.6952197312
 30
0.0
 10
66.7667421495
 20
45.9398232403
 30
0.0
  0
SPLINE
  5
2CF
100
AcDbEntity
  8
0
100
AcDbSpline
 62
7
  6
BYLAYER
 70
0
 71
3
 72
14
 73
10
 74
0
 42
0.0000001
 43
0.0000001
 44
0.0000000001
 40
0.0
 40
0.0
 40
0.0
 40
0.0
 40
0.2883478431
 40
0.4216233589
 40
0.5477973008
 40
0.6675537223
 40
0.7818996361
 40
0.8921616365
 40
1.0
 40
1.0
 40
1.0
 40
1.0
 10
62.2795321946
 20
45.316690214
 30
0.0
 10
62.5339757292
 20
45.4635923803
 30
0.0
 10
62.924291263
 20
45.6506072349
 30
0.0
 10
63.4594366038
 20
45.8122594552
 30
0.0
 10
63.8403941376
 20
45.8821631598
 30
0.0
 10
64.2079430422
 20
45.9029436463
 30
0.0
 10
64.5589028936
 20
45.8743379562
 30
0.0
 10
64.8898260401
 20
45.7961152531
 30
0.0
 10
65.0962460086
 20
45.7107163515
 30
0.0
 10
65.1939685364
 20
45.6604787688
 30
0.0
  0
SPLINE
  5
2D0
100
AcDbEntity
  8
0
100
AcDbSpline
 62
7
  6
BYLAYER
 70
0
 71
3
 72
14
 73
10
 74
0
 42
0.0000001
 43
0.0000001
 44
0.0000000001
 40
0.0
 40
0.0
 40
0.0
 40
0.0
 40
0.2859386595
 40
0.4183455779
 40
0.5440455338
 40
0.6638003778
 40
0.7787306116
 40
0.8902390321
 40
1.0
 40
1.0
 40
1.0
 40
1.0
 10
61.6265439046
 20
34.1790089916
 30
0.0
 10
61.2519339816
 20
33.9558755497
 30
0.0
 10
60.674703859
 20
33.6721492493
 30
0.0
 10
59.8795032064
 20
33.4306362495
 30
0.0
 10
59.3106365937
 20
33.3295665474
 30
0.0
 10
58.7597956261
 20
33.3060383208
 30
0.0
 10
58.2326876681
 20
33.3618799588
 30
0.0
 10
57.7359559758
 20
33.4975902752
 30
0.0
 10
57.4285992851
 20
33.6415549831
 30
0.0
 10
57.2837445512
 20
33.7254087354
 30
0.0
  0
SPLINE
  5
2D1
100
AcDbEntity
  8
0
100
AcDbSpline
 62
7
  6
BYLAYER
 70
0
 71
3
 72
24
 73
20
 74
0
 42
0.0000001
 43
0.0000001
 44
0.0000000001
 40
0.0
 40
0.0
 40
0.0
 40
0.0
 40
0.021302123
 40
0.0429427532
 40
0.0879212456
 40
0.1362522295
 40
0.1886944519
 40
0.2455468674
 40
0.3067245734
 40
0.3718411318
 40
0.4402801179
 40
0.5112566862
 40
0.5838711333
 40
0.6571523895
 40
0.7301000109
 40
0.8017331188
 40
0.8711152837
 40
0.9374349978
 40
1.0
 40
1.0
 40
1.0
 40
1.0
 10
55.7704700091
 20
34.6077715127
 30
0.0
 10
55.6753883417
 20
34.6724516333
 30
0.0
 10
55.4916192701
 20
34.8149203812
 30
0.0
 10
55.1538215737
 20
35.1496950465
 30
0.0
 10
54.7937813894
 20
35.661984635
 30
0.0
 10
54.4810357517
 20
36.3889132147
 30
0.0
 10
54.2846720943
 20
37.220642348
 30
0.0
 10
54.2071357516
 20
38.1404711209
 30
0.0
 10
54.2489502394
 20
39.1305529597
 30
0.0
 10
54.408933069
 20
40.1714548724
 30
0.0
 10
54.6837233531
 20
41.2425306335
 30
0.0
 10
55.0677285233
 20
42.3223562152
 30
0.0
 10
55.5532065017
 20
43.3892083119
 30
0.0
 10
56.130356003
 20
44.4215499096
 30
0.0
 10
56.7875380082
 20
45.3985318458
 30
0.0
 10
57.511474111
 20
46.300368737
 30
0.0
 10
58.2875947456
 20
47.1090582395
 30
0.0
 10
59.1002801158
 20
47.8081005058
 30
0.0
 10
59.6742622418
 20
48.2044834975
 30
0.0
 10
59.9635733916
 20
48.3787581732
 30
0.0
  0
SPLINE
  5
2D2
100
AcDbEntity
  8
0
100
AcDbSpline
 62
7
  6
BYLAYER
 70
0
 71
3
 72
24
 73
20
 74
0
 42
0.0000001
 43
0.0000001
 44
0.0000000001
 40
0.0
 40
0.0
 40
0.0
 40
0.0
 40
0.0213130211
 40
0.0429839703
 40
0.088082728
 40
0.1366081642
 40
0.1893021921
 40
0.2464407408
 40
0.3079135688
 40
0.3733086297
 40
0.4419849535
 40
0.5131341183
 40
0.585834997
 40
0.6590980174
 40
0.7319094873
 40
0.8032790714
 40
0.872266795
 40
0.9380741633
 40
1.0
 40
1.0
 40
1.0
 40
1.0
 10
19.9189784962
 20
55.3649725997
 30
0.0
 10
19.8243253
 20
55.4306833098
 30
0.0
 10
19.6415213102
 20
55.5753217704
 30
0.0
 10
19.306120163
 20
55.9147406201
 30
0.0
 10
18.9500852158
 20
56.4332549878
 30
0.0
 10
18.6434930619
 20
57.1673947728
 30
0.0
 10
18.4544302176
 20
58.0061718782
 30
0.0
 10
18.3852544714
 20
58.9325560599
 30
0.0
 10
18.4363601406
 20
59.9283317809
 30
0.0
 10
18.6063728021
 20
60.9736764477
 30
0.0
 10
18.8917079282
 20
62.0475548295
 30
0.0
 10
19.2864832482
 20
63.1281771328
 30
0.0
 10
19.7826250711
 20
64.1934921571
 30
0.0
 10
20.3699674884
 20
65.2216987001
 30
0.0
 10
21.0365077564
 20
66.1917413863
 30
0.0
 10
21.7685999696
 20
67.0836925993
 30
0.0
 10
22.551325346
 20
67.8795468289
 30
0.0
 10
23.3686831171
 20
68.5627125406
 30
0.0
 10
23.9449066063
 20
68.9467028962
 30
0.0
 10
24.2348479649
 20
69.1140996185
 30
0.0
  0
SPLINE
  5
2D3
100
AcDbEntity
  8
0
100
AcDbSpline
 62
7
  6
BYLAYER
 70
0
 71
3
 72
11
 73
7
 74
0
 42
0.0000001
 43
0.0000001
 44
0.0000000001
 40
0.0
 40
0.0
 40
0.0
 40
0.0
 40
0.2599832637
 40
0.51157946
 40
0.7573048136
 40
1.0
 40
1.0
 40
1.0
 40
1.0
 10
64.4965244848
 20
49.0006758705
 30
0.0
 10
64.4220267964
 20
49.1282437025
 30
0.0
 10
64.2610392427
 20
49.3712602673
 30
0.0
 10
63.9799467511
 20
49.6985949604
 30
0.0
 10
63.6656451628
 20
49.9797635602
 30
0.0
 10
63.4345871981
 20
50.1353673603
 30
0.0
 10
63.3151578837
 20
50.2043181546
 30
0.0
  0
SPLINE
  5
2D4
100
AcDbEntity
  8
0
100
AcDbSpline
 62
7
  6
BYLAYER
 70
0
 71
3
 72
15
 73
11
 74
0
 42
0.0000001
 43
0.0000001
 44
0.0000000001
 40
0.0
 40
0.0
 40
0.0
 40
0.0
 40
0.1080125456
 40
0.2180624346
 40
0.3319994014
 40
0.4513582406
 40
0.5772781909
 40
0.7105004906
 40
0.8513961986
 40
1.0
 40
1.0
 40
1.0
 40
1.0
 10
24.5053971944
 20
51.8415416625
 30
0.0
 10
24.3579473504
 20
51.9266697058
 30
0.0
 10
24.0744294057
 20
52.1244544249
 30
0.0
 10
23.6998792187
 20
52.4931359523
 30
0.0
 10
23.3776965325
 20
52.930648139
 30
0.0
 10
23.1109606629
 20
53.432162619
 30
0.0
 10
22.9017142681
 20
53.9925296901
 30
0.0
 10
22.7515373003
 20
54.6063008364
 30
0.0
 10
22.6616478592
 20
55.2676013751
 30
0.0
 10
22.642752532
 20
55.7242513523
 30
0.0
 10
22.6427508385
 20
55.9584943643
 30
0.0
  0
SPLINE
  5
2D5
100
AcDbEntity
  8
0
100
AcDbSpline
 62
7
  6
BYLAYER
 70
0
 71
3
 72
10
 73
6
 74
0
 42
0.0000001
 43
0.0000001
 44
0.0000000001
 40
0.0
 40
0.0
 40
0.0
 40
0.0
 40
0.4697655167
 40
0.727417519
 40
1.0
 40
1.0
 40
1.0
 40
1.0
 10
58.4243961211
 20
36.1701460298
 30
0.0
 10
58.7119124661
 20
36.1874515216
 30
0.0
 10
59.154267749
 20
36.2829044627
 30
0.0
 10
59.7243122426
 20
36.5096041405
 30
0.0
 10
60.0134605818
 20
36.6598168857
 30
0.0
 10
60.1582030191
 20
36.743383472
 30
0.0
  0
SPLINE
  5
2D6
100
AcDbEntity
  8
0
100
AcDbSpline
 62
7
  6
BYLAYER
 70
0
 71
3
 72
25
 73
21
 74
0
 42
0.0000001
 43
0.0000001
 44
0.0000000001
 40
0.0
 40
0.0
 40
0.0
 40
0.0
 40
0.0623787446
 40
0.1287240373
 40
0.1983128824
 40
0.270290269
 40
0.3436669005
 40
0.4173986337
 40
0.4904231847
 40
0.5617097966
 40
0.6303070788
 40
0.6953948417
 40
0.75634292
 40
0.812780939
 40
0.8646821354
 40
0.9124572753
 40
0.9351019417
 40
0.9571073388
 40
0.9786679162
 40
1.0
 40
1.0
 40
1.0
 40
1.0
 10
58.8185676955
 20
49.758916213
 30
0.0
 10
58.4954741987
 20
49.5723792091
 30
0.0
 10
57.8535847664
 20
49.1433922243
 30
0.0
 10
56.9445631679
 20
48.3784454637
 30
0.0
 10
56.0756602961
 20
47.4862550802
 30
0.0
 10
55.26540008
 20
46.486066975
 30
0.0
 10
54.5309692192
 20
45.398999011
 30
0.0
 10
53.8880207146
 20
44.248294452
 30
0.0
 10
53.3502856694
 20
43.0584750926
 30
0.0
 10
52.9292248675
 20
41.8549013186
 30
0.0
 10
52.6337993646
 20
40.6631328778
 30
0.0
 10
52.4703411264
 20
39.5083069623
 30
0.0
 10
52.442487479
 20
38.4145766785
 30
0.0
 10
52.5514826047
 20
37.4044282861
 30
0.0
 10
52.7960696899
 20
36.4988927765
 30
0.0
 10
53.1169571058
 20
35.8351861504
 30
0.0
 10
53.4374882281
 20
35.3835085836
 30
0.0
 10
53.7033360868
 20
35.0887019763
 30
0.0
 10
53.9972769966
 20
34.8337539127
 30
0.0
 10
54.2114864884
 20
34.6911108283
 30
0.0
 10
54.3219775073
 20
34.6273204302
 30
0.0
  0
SPLINE
  5
2D7
100
AcDbEntity
  8
0
100
AcDbSpline
 62
7
  6
BYLAYER
 70
0
 71
3
 72
23
 73
19
 74
0
 42
0.0000001
 43
0.0000001
 44
0.0000000001
 40
0.0
 40
0.0
 40
0.0
 40
0.0
 40
0.0428146447
 40
0.0873970896
 40
0.1351798697
 40
0.1870889511
 40
0.2435360143
 40
0.3044932889
 40
0.3695903189
 40
0.4381977917
 40
0.5094956247
 40
0.5825316363
 40
0.6562738897
 40
0.7296621457
 40
0.8016521104
 40
0.8712499255
 40
0.9376165599
 40
1.0
 40
1.0
 40
1.0
 40
1.0
 10
65.2794781415
 20
45.6138520693
 30
0.0
 10
65.4274022689
 20
45.5284455538
 30
0.0
 10
65.7078069281
 20
45.3138101481
 30
0.0
 10
66.0452464994
 20
44.8870992496
 30
0.0
 10
66.2974121603
 20
44.3652646391
 30
0.0
 10
66.4606983767
 20
43.761031043
 30
0.0
 10
66.5333739394
 20
43.0871359793
 30
0.0
 10
66.5147952736
 20
42.3574439022
 30
0.0
 10
66.4057506153
 20
41.5870048427
 30
0.0
 10
66.2086685105
 20
40.7919119219
 30
0.0
 10
65.9277434621
 20
39.9889471808
 30
0.0
 10
65.5689835226
 20
39.1951611526
 30
0.0
 10
65.1400588753
 20
38.4274551116
 30
0.0
 10
64.6500907396
 20
37.7022011631
 30
0.0
 10
64.1095142017
 20
37.0349295873
 30
0.0
 10
63.5298060628
 20
36.4396558889
 30
0.0
 10
62.9233120642
 20
35.9293359828
 30
0.0
 10
62.4950681818
 20
35.6431002259
 30
0.0
 10
62.2795321946
 20
35.5186612085
 30
0.0
  0
SPLINE
  5
2D8
100
AcDbEntity
  8
0
100
AcDbSpline
 62
7
  6
BYLAYER
 70
0
 71
3
 72
17
 73
13
 74
0
 42
0.0000001
 43
0.0000001
 44
0.0000000001
 40
0.0
 40
0.0
 40
0.0
 40
0.0
 40
0.1168860073
 40
0.1734462597
 40
0.2293055178
 40
0.2849618594
 40
0.3409235643
 40
0.4555320118
 40
0.5767797208
 40
0.707141496
 40
0.8481084909
 40
1.0
 40
1.0
 40
1.0
 40
1.0
 10
66.4519630775
 20
46.4434054313
 30
0.0
 10
66.3411549934
 20
46.6206495242
 30
0.0
 10
66.1500165254
 20
46.8688796741
 30
0.0
 10
65.8479396334
 20
47.14722151
 30
0.0
 10
65.604338526
 20
47.3245178118
 30
0.0
 10
65.3425834371
 20
47.4715184305
 30
0.0
 10
64.968330645
 20
47.627281687
 30
0.0
 10
64.4544150963
 20
47.742190474
 30
0.0
 10
63.7953748126
 20
47.7474007698
 30
0.0
 10
63.1007606966
 20
47.6240536636
 30
0.0
 10
62.3830966119
 20
47.375719169
 30
0.0
 10
61.9141132444
 20
47.1390618832
 30
0.0
 10
61.6788724388
 20
47.0032463515
 30
0.0
  0
SPLINE
  5
2D9
100
AcDbEntity
  8
0
100
AcDbSpline
 62
7
  6
BYLAYER
 70
0
 71
3
 72
15
 73
11
 74
0
 42
0.0000001
 43
0.0000001
 44
0.0000000001
 40
0.0
 40
0.0
 40
0.0
 40
0.0
 40
0.1079977268
 40
0.2180563279
 40
0.3320169549
 40
0.4514000833
 40
0.5773217601
 40
0.7105452526
 40
0.8514819197
 40
1.0
 40
1.0
 40
1.0
 40
1.0
 10
65.5734591519
 20
48.092501824
 30
0.0
 10
65.4375270157
 20
48.170464868
 30
0.0
 10
65.1490198374
 20
48.3046618436
 30
0.0
 10
64.6824281916
 20
48.4325248007
 30
0.0
 10
64.1851982232
 20
48.4871186143
 30
0.0
 10
63.6625993678
 20
48.468239984
 30
0.0
 10
63.119627066
 20
48.3766739276
 30
0.0
 10
62.561257653
 20
48.2135654585
 30
0.0
 10
61.992868902
 20
47.9806535719
 30
0.0
 10
61.6202040797
 20
47.7855700968
 30
0.0
 10
61.4335777667
 20
47.6778219879
 30
0.0
  0
SPLINE
  5
2DA
100
AcDbEntity
  8
0
100
AcDbSpline
 62
7
  6
BYLAYER
 70
0
 71
3
 72
15
 73
11
 74
0
 42
0.0000001
 43
0.0000001
 44
0.0000000001
 40
0.0
 40
0.0
 40
0.0
 40
0.0
 40
0.1080108358
 40
0.2180577744
 40
0.3319987497
 40
0.4513556507
 40
0.5772611709
 40
0.7104926043
 40
0.8514584096
 40
1.0
 40
1.0
 40
1.0
 40
1.0
 10
28.1442942939
 20
69.6452899379
 30
0.0
 10
28.0091325061
 20
69.7233408305
 30
0.0
 10
27.7221356177
 20
69.8577112577
 30
0.0
 10
27.2577773992
 20
69.9861509445
 30
0.0
 10
26.7627442852
 20
70.0413100289
 30
0.0
 10
26.2423458237
 20
70.0232535356
 30
0.0
 10
25.7015618408
 20
69.9325274956
 30
0.0
 10
25.1453519548
 20
69.770410296
 30
0.0
 10
24.5791489372
 20
69.5385643928
 30
0.0
 10
24.2079194283
 20
69.3442908955
 30
0.0
 10
24.0220292409
 20
69.2369677864
 30
0.0
  0
SPLINE
  5
2DB
100
AcDbEntity
  8
0
100
AcDbSpline
 62
7
  6
BYLAYER
 70
0
 71
3
 72
16
 73
12
 74
0
 42
0.0000001
 43
0.0000001
 44
0.0000000001
 40
0.0
 40
0.0
 40
0.0
 40
0.0
 40
0.0558417972
 40
0.1142318791
 40
0.2373894622
 40
0.3670294867
 40
0.5000421256
 40
0.6330553658
 40
0.7626941979
 40
0.8858552531
 40
1.0
 40
1.0
 40
1.0
 40
1.0
 10
28.4726008067
 20
66.6674872243
 30
0.0
 10
28.2773522521
 20
66.5547610917
 30
0.0
 10
27.8878315918
 20
66.3066833746
 30
0.0
 10
27.1208335281
 20
65.7307563603
 30
0.0
 10
26.2003873191
 20
64.8695139311
 30
0.0
 10
25.2010201934
 20
63.6701965564
 30
0.0
 10
24.324134177
 20
62.3308013821
 30
0.0
 10
23.6026915646
 20
60.9017896967
 30
0.0
 10
23.0636470821
 20
59.4363454262
 30
0.0
 10
22.7271617211
 20
57.9896086407
 30
0.0
 10
22.6427609828
 20
57.0306245536
 30
0.0
 10
22.6427643013
 20
56.5697814528
 30
0.0
  0
SPLINE
  5
2DC
100
AcDbEntity
  8
0
100
AcDbSpline
 62
7
  6
BYLAYER
 70
0
 71
3
 72
15
 73
11
 74
0
 42
0.0000001
 43
0.0000001
 44
0.0000000001
 40
0.0
 40
0.0
 40
0.0
 40
0.0
 40
0.1141570171
 40
0.2373235409
 40
0.3669746241
 40
0.4999983967
 40
0.6330223922
 40
0.7626741268
 40
0.8858416767
 40
1.0
 40
1.0
 40
1.0
 40
1.0
 10
61.4335777667
 20
47.6778219879
 30
0.0
 10
61.0321004448
 20
47.4460303317
 30
0.0
 10
60.2391287595
 20
46.8901770269
 30
0.0
 10
59.148063998
 20
45.869358271
 30
0.0
 10
58.1425612503
 20
44.6627206828
 30
0.0
 10
57.2605380626
 20
43.3154495923
 30
0.0
 10
56.5347845302
 20
41.8779536521
 30
0.0
 10
55.992560568
 20
40.4038344983
 30
0.0
 10
55.6540389242
 20
38.9485227472
 30
0.0
 10
55.5691406355
 20
37.9838532251
 30
0.0
 10
55.5691406355
 20
37.5202625331
 30
0.0
  0
SPLINE
  5
2DD
100
AcDbEntity
  8
0
100
AcDbSpline
 62
7
  6
BYLAYER
 70
0
 71
3
 72
14
 73
10
 74
0
 42
0.0000001
 43
0.0000001
 44
0.0000000001
 40
0.0
 40
0.0
 40
0.0
 40
0.0
 40
0.2889923574
 40
0.4218213801
 40
0.5473168668
 40
0.6663861842
 40
0.7803264523
 40
0.8908590656
 40
1.0
 40
1.0
 40
1.0
 40
1.0
 10
67.2963366657
 20
44.2802453474
 30
0.0
 10
67.2876974278
 20
44.6911651525
 30
0.0
 10
67.2265283361
 20
45.2932440872
 30
0.0
 10
67.0179431872
 20
46.0447407621
 30
0.0
 10
66.8113892236
 20
46.5418249948
 30
0.0
 10
66.5522044915
 20
46.9829633693
 30
0.0
 10
66.2421728024
 20
47.3632935258
 30
0.0
 10
65.8845590527
 20
47.6784014555
 30
0.0
 10
65.616540011
 20
47.8425139434
 30
0.0
 10
65.4776713546
 20
47.9118643885
 30
0.0
  0
SPLINE
  5
2DE
100
AcDbEntity
  8
0
100
AcDbSpline
 62
7
  6
BYLAYER
 70
0
 71
3
 72
15
 73
11
 74
0
 42
0.0000001
 43
0.0000001
 44
0.0000000001
 40
0.0
 40
0.0
 40
0.0
 40
0.0
 40
0.1077673533
 40
0.2180640449
 40
0.3324877497
 40
0.452328183
 40
0.5785262132
 40
0.7117345855
 40
0.8523061035
 40
1.0
 40
1.0
 40
1.0
 40
1.0
 10
65.4705816182
 20
47.9153920438
 30
0.0
 10
65.3391055999
 20
47.9805714305
 30
0.0
 10
65.0617862585
 20
48.0908618983
 30
0.0
 10
64.618380214
 20
48.1903487407
 30
0.0
 10
64.1488268995
 20
48.2244545927
 30
0.0
 10
63.6576185213
 20
48.1933491184
 30
0.0
 10
63.1489498638
 20
48.0977413158
 30
0.0
 10
62.6270481172
 20
47.9384992509
 30
0.0
 10
62.0968029247
 20
47.7167912582
 30
0.0
 10
61.7488719805
 20
47.5339438811
 30
0.0
 10
61.5745701713
 20
47.4336173352
 30
0.0
  0
SPLINE
  5
2DF
100
AcDbEntity
  8
0
100
AcDbSpline
 62
7
  6
BYLAYER
 70
0
 71
3
 72
14
 73
10
 74
0
 42
0.0000001
 43
0.0000001
 44
0.0000000001
 40
0.0
 40
0.0
 40
0.0
 40
0.0
 40
0.1475061889
 40
0.2880122337
 40
0.54719857
 40
0.6672037223
 40
0.7818066207
 40
0.8922259312
 40
1.0
 40
1.0
 40
1.0
 40
1.0
 10
55.8511242708
 20
37.5202632109
 30
0.0
 10
55.851336046
 20
37.3217232513
 30
0.0
 10
55.8666086495
 20
36.9337555309
 30
0.0
 10
55.959129121
 20
36.2026344781
 30
0.0
 10
56.1464552729
 20
35.521713026
 30
0.0
 10
56.4380326437
 20
34.9226874733
 30
0.0
 10
56.6956705695
 20
34.5344330499
 30
0.0
 10
56.9959399098
 20
34.1998904296
 30
0.0
 10
57.2245810972
 20
34.0132776398
 30
0.0
 10
57.3439854717
 20
33.9309038645
 30
0.0
  0
SPLINE
  5
2E0
100
AcDbEntity
  8
0
100
AcDbSpline
 62
7
  6
BYLAYER
 70
0
 71
3
 72
17
 73
13
 74
0
 42
0.0000001
 43
0.0000001
 44
0.0000000001
 40
0.0
 40
0.0
 40
0.0
 40
0.0
 40
0.1141395738
 40
0.1747675581
 40
0.2373614704
 40
0.3669929516
 40
0.4999983876
 40
0.6330040485
 40
0.7626361841
 40
0.8252305723
 40
0.8858591142
 40
1.0
 40
1.0
 40
1.0
 40
1.0
 10
61.5745701713
 20
47.4336173352
 30
0.0
 10
61.1830489315
 20
47.2068868685
 30
0.0
 10
60.6124050078
 20
46.8078530013
 30
0.0
 10
59.9019070512
 20
46.1904878287
 30
0.0
 10
59.1900648582
 20
45.4839178257
 30
0.0
 10
58.3626349498
 20
44.4909517966
 30
0.0
 10
57.5018697833
 20
43.1761170113
 30
0.0
 10
56.7935777183
 20
41.7732493549
 30
0.0
 10
56.3473620928
 20
40.5601841686
 30
0.0
 10
56.0913765856
 20
39.5904186
 30
0.0
 10
55.9119713605
 20
38.6664172928
 30
0.0
 10
55.8517196182
 20
37.9727009825
 30
0.0
 10
55.8511242708
 20
37.5202632109
 30
0.0
  0
SPLINE
  5
2E1
100
AcDbEntity
  8
0
100
AcDbSpline
 62
7
  6
BYLAYER
 70
0
 71
3
 72
18
 73
14
 74
0
 42
0.0000001
 43
0.0000001
 44
0.0000000001
 40
0.0
 40
0.0
 40
0.0
 40
0.0
 40
0.1510489616
 40
0.2895937871
 40
0.4164079314
 40
0.4762090941
 40
0.534102584
 40
0.590630849
 40
0.6464063497
 40
0.7020857811
 40
0.7583279873
 40
0.8747332529
 40
1.0
 40
1.0
 40
1.0
 40
1.0
 10
61.5745701713
 20
47.3537509809
 30
0.0
 10
61.8545562337
 20
47.5154000445
 30
0.0
 10
62.412296181
 20
47.7915718489
 30
0.0
 10
63.2666803495
 20
48.0589857372
 30
0.0
 10
63.9635862351
 20
48.1394032228
 30
0.0
 10
64.4871879231
 20
48.1101142513
 30
0.0
 10
64.8552621647
 20
48.0445014709
 30
0.0
 10
65.2038387576
 20
47.9352009222
 30
0.0
 10
65.5306529072
 20
47.7827544156
 30
0.0
 10
65.8335079597
 20
47.5880654007
 30
0.0
 10
66.2068842282
 20
47.2707566781
 30
0.0
 10
66.6067785229
 20
46.765200631
 30
0.0
 10
66.8282557011
 20
46.2929976858
 30
0.0
 10
66.9193727019
 20
46.0408389399
 30
0.0
  0
SPLINE
  5
2E2
100
AcDbEntity
  8
0
100
AcDbSpline
 62
7
  6
BYLAYER
 70
0
 71
3
 72
28
 73
24
 74
0
 42
0.0000001
 43
0.0000001
 44
0.0000000001
 40
0.0
 40
0.0
 40
0.0
 40
0.0
 40
0.0501370127
 40
0.0736799821
 40
0.0964981634
 40
0.1188988407
 40
0.1412191069
 40
0.1638008254
 40
0.1869677388
 40
0.211001133
 40
0.2361306755
 40
0.2625226415
 40
0.2902881353
 40
0.3500503077
 40
0.415374046
 40
0.485565324
 40
0.5595209959
 40
0.6358657991
 40
0.7130657665
 40
0.7895336773
 40
0.8637291463
 40
0.93426348
 40
1.0
 40
1.0
 40
1.0
 40
1.0
 10
59.7717865193
 20
33.5955220823
 30
0.0
 10
59.4726915865
 20
33.5390156808
 30
0.0
 10
59.0210691385
 20
33.5015018791
 30
0.0
 10
58.437852495
 20
33.5712036544
 30
0.0
 10
58.033047521
 20
33.6793716019
 30
0.0
 10
57.6556951969
 20
33.8437622413
 30
0.0
 10
57.3090997663
 20
34.0631665117
 30
0.0
 10
56.9962061946
 20
34.3354748668
 30
0.0
 10
56.7197250597
 20
34.6583471874
 30
0.0
 10
56.4815485223
 20
35.0287692566
 30
0.0
 10
56.2835359015
 20
35.4437469512
 30
0.0
 10
56.1267499238
 20
35.8998711646
 30
0.0
 10
55.9705654837
 20
36.5746815172
 30
0.0
 10
55.8914161007
 20
37.5043011967
 30
0.0
 10
55.9719386119
 20
38.6907367779
 30
0.0
 10
56.2222366675
 20
39.9408372584
 30
0.0
 10
56.6346259106
 20
41.2171574029
 30
0.0
 10
57.1966201227
 20
42.4815076332
 30
0.0
 10
57.8912206615
 20
43.6956623474
 30
0.0
 10
58.6973899103
 20
44.822833233
 30
0.0
 10
59.5908535937
 20
45.8290533374
 30
0.0
 10
60.544481046
 20
46.6837356807
 30
0.0
 10
61.2289460775
 20
47.1542060084
 30
0.0
 10
61.5745701713
 20
47.3537509809
 30
0.0
  0
SPLINE
  5
2E3
100
AcDbEntity
  8
0
100
AcDbSpline
 62
7
  6
BYLAYER
 70
0
 71
3
 72
27
 73
23
 74
0
 42
0.0000001
 43
0.0000001
 44
0.0000000001
 40
0.0
 40
0.0
 40
0.0
 40
0.0
 40
0.0648147598
 40
0.1341536793
 40
0.2070351609
 40
0.2822746631
 40
0.3585340501
 40
0.4344241001
 40
0.508574045
 40
0.5797133087
 40
0.6467558694
 40
0.7088982213
 40
0.7657377557
 40
0.8174166872
 40
0.8415955945
 40
0.8648651647
 40
0.8874515515
 40
0.9096209503
 40
0.9316665936
 40
0.9538900332
 40
0.9765807731
 40
1.0
 40
1.0
 40
1.0
 40
1.0
 10
61.6788724388
 20
47.0032463515
 30
0.0
 10
61.3684260152
 20
46.8240110952
 30
0.0
 10
60.7528813592
 20
46.4050850718
 30
0.0
 10
59.8901368693
 20
45.6487098856
 30
0.0
 10
59.0757027484
 20
44.7606936383
 30
0.0
 10
58.3315503604
 20
43.7651285952
 30
0.0
 10
57.6776262433
 20
42.6886533445
 30
0.0
 10
57.1315463531
 20
41.5603263193
 30
0.0
 10
56.7080222123
 20
40.4105038681
 30
0.0
 10
56.4184494823
 20
39.2700098695
 30
0.0
 10
56.2706453367
 20
38.1691978336
 30
0.0
 10
56.2689830477
 20
37.136802711
 30
0.0
 10
56.4142814669
 20
36.1998252042
 30
0.0
 10
56.6627394868
 20
35.5028634544
 30
0.0
 10
56.9345477396
 20
35.0253419596
 30
0.0
 10
57.1671494598
 20
34.7142495371
 30
0.0
 10
57.4313600181
 20
34.4447466564
 30
0.0
 10
57.7254594194
 20
34.2190567155
 30
0.0
 10
58.0471347709
 20
34.0388189936
 30
0.0
 10
58.3940357488
 20
33.9056191776
 30
0.0
 10
58.7633257919
 20
33.8201455502
 30
0.0
 10
59.0180041093
 20
33.7958676852
 30
0.0
 10
59.1474500504
 20
33.7913393029
 30
0.0
  0
SPLINE
  5
2E4
100
AcDbEntity
  8
0
100
AcDbSpline
 62
7
  6
BYLAYER
 70
0
 71
3
 72
27
 73
23
 74
0
 42
0.0000001
 43
0.0000001
 44
0.0000000001
 40
0.0
 40
0.0
 40
0.0
 40
0.0
 40
0.0648147598
 40
0.1341536793
 40
0.2070351609
 40
0.2822746631
 40
0.3585340501
 40
0.4344241001
 40
0.508574045
 40
0.5797133087
 40
0.6467558694
 40
0.7088982213
 40
0.7657377557
 40
0.8174166872
 40
0.8415955945
 40
0.8648651647
 40
0.8874515515
 40
0.9096209503
 40
0.9316665936
 40
0.9538900332
 40
0.9765807731
 40
1.0
 40
1.0
 40
1.0
 40
1.0
 10
62.1757830666
 20
46.478301755
 30
0.0
 10
61.8771826552
 20
46.3059057561
 30
0.0
 10
61.2851259474
 20
45.9029651087
 30
0.0
 10
60.4553020551
 20
45.1754516811
 30
0.0
 10
59.6719451052
 20
44.3213203509
 30
0.0
 10
58.9561880783
 20
43.363744071
 30
0.0
 10
58.3272163926
 20
42.3283449546
 30
0.0
 10
57.8019738147
 20
41.2430726234
 30
0.0
 10
57.3946105047
 20
40.1371250884
 30
0.0
 10
57.1160872887
 20
39.040150051
 30
0.0
 10
56.9739230525
 20
37.9813427923
 30
0.0
 10
56.9723241931
 20
36.9883417949
 30
0.0
 10
57.1120783164
 20
36.0871174685
 30
0.0
 10
57.3510556771
 20
35.4167503798
 30
0.0
 10
57.6124922727
 20
34.9574501465
 30
0.0
 10
57.8362183783
 20
34.6582283863
 30
0.0
 10
58.0903471921
 20
34.3990091944
 30
0.0
 10
58.3732243507
 20
34.1819311286
 30
0.0
 10
58.6826252166
 20
34.0085709162
 30
0.0
 10
59.0162891497
 20
33.8804537378
 30
0.0
 10
59.3714878262
 20
33.7982416124
 30
0.0
 10
59.6164481302
 20
33.7748901419
 30
0.0
 10
59.7409546742
 20
33.7705345536
 30
0.0
  0
SPLINE
  5
2E5
100
AcDbEntity
  8
0
100
AcDbSpline
 62
7
  6
BYLAYER
 70
0
 71
3
 72
30
 73
26
 74
0
 42
0.0000001
 43
0.0000001
 44
0.0000000001
 40
0.0
 40
0.0
 40
0.0
 40
0.0
 40
0.0665323047
 40
0.1383171568
 40
0.2138800631
 40
0.2914079211
 40
0.3689379763
 40
0.4445013646
 40
0.5162887503
 40
0.5828204478
 40
0.6431499244
 40
0.6709437819
 40
0.6972134083
 40
0.7221145568
 40
0.7458846787
 40
0.7688435523
 40
0.7913776144
 40
0.8139110534
 40
0.8368693048
 40
0.8606399696
 40
0.8855405076
 40
0.9118071974
 40
0.93960223
 40
0.9690108594
 40
1.0
 40
1.0
 40
1.0
 40
1.0
 10
62.2795321946
 20
34.705695488
 30
0.0
 10
62.6181748327
 20
34.9012097392
 30
0.0
 10
63.2870465599
 20
35.3700741152
 30
0.0
 10
64.2073649673
 20
36.2311279762
 30
0.0
 10
65.055502922
 20
37.2489289415
 30
0.0
 10
65.7994905478
 20
38.3853397534
 30
0.0
 10
66.4116543974
 20
39.597904583
 30
0.0
 10
66.8690403823
 20
40.8412162277
 30
0.0
 10
67.1545512122
 20
42.0692119683
 30
0.0
 10
67.257424724
 20
43.2363881274
 30
0.0
 10
67.1847625998
 20
44.1485253699
 30
0.0
 10
67.0247982605
 20
44.8028705012
 30
0.0
 10
66.8619858961
 20
45.2387640857
 30
0.0
 10
66.6545262593
 20
45.6288875199
 30
0.0
 10
66.4039386947
 20
45.969209386
 30
0.0
 10
66.1124992989
 20
46.2560287165
 30
0.0
 10
65.7830467114
 20
46.4859547432
 30
0.0
 10
65.4192086976
 20
46.6563107048
 30
0.0
 10
65.0251097632
 20
46.7653426289
 30
0.0
 10
64.6050888431
 20
46.8121409336
 30
0.0
 10
64.1635136703
 20
46.7968281825
 30
0.0
 10
63.7046496389
 20
46.7198480758
 30
0.0
 10
63.2326939665
 20
46.5822909833
 30
0.0
 10
62.7522594914
 20
46.3855663678
 30
0.0
 10
62.4372637564
 20
46.2207217506
 30
0.0
 10
62.2795321946
 20
46.1296559345
 30
0.0
  0
SPLINE
  5
2E6
100
AcDbEntity
  8
0
100
AcDbSpline
 62
7
  6
BYLAYER
 70
0
 71
3
 72
29
 73
25
 74
0
 42
0.0000001
 43
0.0000001
 44
0.0000000001
 40
0.0
 40
0.0
 40
0.0
 40
0.0
 40
0.0665117831
 40
0.1382349462
 40
0.2137317553
 40
0.291233631
 40
0.3688219261
 40
0.4445655636
 40
0.5166794927
 40
0.5836865095
 40
0.6446093673
 40
0.6727196708
 40
0.6993000228
 40
0.724487161
 40
0.7484945774
 40
0.7716186496
 40
0.7942233579
 40
0.8167182802
 40
0.8395234895
 40
0.8630314742
 40
0.8875757636
 40
0.9134095275
 40
0.9407136421
 40
1.0
 40
1.0
 40
1.0
 40
1.0
 10
62.2795321946
 20
46.1296559345
 30
0.0
 10
61.9446528524
 20
45.9363144103
 30
0.0
 10
61.2830242961
 20
45.4734657954
 30
0.0
 10
60.371458285
 20
44.624340638
 30
0.0
 10
59.5298677263
 20
43.6209675623
 30
0.0
 10
58.7893110961
 20
42.500170898
 30
0.0
 10
58.1767662559
 20
41.3029530924
 30
0.0
 10
57.7147290472
 20
40.0732274228
 30
0.0
 10
57.420110915
 20
38.8556538062
 30
0.0
 10
57.3037698469
 20
37.6944774981
 30
0.0
 10
57.3613132266
 20
36.7834072868
 30
0.0
 10
57.5070517721
 20
36.1260091423
 30
0.0
 10
57.6587760241
 20
35.6859079348
 30
0.0
 10
57.8544435671
 20
35.2897410015
 30
0.0
 10
58.0927512722
 20
34.9414969956
 30
0.0
 10
58.3715255495
 20
34.6447434076
 30
0.0
 10
58.6882955808
 20
34.4029652846
 30
0.0
 10
59.0396217705
 20
34.2187979737
 30
0.0
 10
59.4217051869
 20
34.0943385945
 30
0.0
 10
59.83034343
 20
34.0305318217
 30
0.0
 10
60.2613095127
 20
34.027671586
 30
0.0
 10
60.710513359
 20
34.0852850416
 30
0.0
 10
61.3452628433
 20
34.2460461475
 30
0.0
 10
61.810285699
 20
34.4497861747
 30
0.0
 10
62.1137590141
 20
34.6132080318
 30
0.0
  0
SPLINE
  5
2E7
100
AcDbEntity
  8
0
100
AcDbSpline
 62
7
  6
BYLAYER
 70
0
 71
3
 72
11
 73
7
 74
0
 42
0.0000001
 43
0.0000001
 44
0.0000000001
 40
0.0
 40
0.0
 40
0.0
 40
0.0
 40
0.2814063337
 40
0.5407444615
 40
0.7790175852
 40
1.0
 40
1.0
 40
1.0
 40
1.0
 10
62.2795321946
 20
35.5186612085
 30
0.0
 10
62.0792980502
 20
35.4030566614
 30
0.0
 10
61.68031259
 20
35.2040209827
 30
0.0
 10
61.0691211013
 20
35.0049409273
 30
0.0
 10
60.4810958252
 20
34.9224724784
 30
0.0
 10
60.1009075198
 20
34.9488157102
 30
0.0
 10
59.9226688049
 20
34.9834075095
 30
0.0
  0
SPLINE
  5
2E8
100
AcDbEntity
  8
0
100
AcDbSpline
 62
7
  6
BYLAYER
 70
0
 71
3
 72
9
 73
5
 74
0
 42
0.0000001
 43
0.0000001
 44
0.0000000001
 40
0.0
 40
0.0
 40
0.0
 40
0.0
 40
0.5046717481
 40
1.0
 40
1.0
 40
1.0
 40
1.0
 10
59.9226688049
 20
34.9834075095
 30
0.0
 10
59.8090298123
 20
35.005462074
 30
0.0
 10
59.5868572151
 20
35.0669147275
 30
0.0
 10
59.377980022
 20
35.1646900309
 30
0.0
 10
59.2795862476
 20
35.2214993532
 30
0.0
  0
SPLINE
  5
2E9
100
AcDbEntity
  8
0
100
AcDbSpline
 62
7
  6
BYLAYER
 70
0
 71
3
 72
20
 73
16
 74
0
 42
0.0000001
 43
0.0000001
 44
0.0000000001
 40
0.0
 40
0.0
 40
0.0
 40
0.0
 40
0.0589558598
 40
0.1212059271
 40
0.1862366723
 40
0.2535253782
 40
0.3921936499
 40
0.531736851
 40
0.6000925497
 40
0.6665689102
 40
0.7305625507
 40
0.7915564418
 40
0.8491589765
 40
0.903132454
 40
1.0
 40
1.0
 40
1.0
 40
1.0
 10
60.1582030191
 20
36.743383472
 30
0.0
 10
60.3396297056
 20
36.848129593
 30
0.0
 10
60.7008667774
 20
37.0842814171
 30
0.0
 10
61.2184847576
 20
37.4979436265
 30
0.0
 10
61.7197796598
 20
37.97530452
 30
0.0
 10
62.3622342086
 20
38.6937065252
 30
0.0
 10
63.0742198586
 20
39.6995713635
 30
0.0
 10
63.6389109051
 20
40.7990279771
 30
0.0
 10
63.9861290439
 20
41.7109249349
 30
0.0
 10
64.186057668
 20
42.3893458142
 30
0.0
 10
64.3242149572
 20
43.0563872314
 30
0.0
 10
64.3984067894
 20
43.7018273321
 30
0.0
 10
64.4073958064
 20
44.316418027
 30
0.0
 10
64.335127753
 20
45.0539761082
 30
0.0
 10
64.1819366527
 20
45.5785695969
 30
0.0
 10
64.0273264818
 20
45.886100048
 30
0.0
  0
SPLINE
  5
2EA
100
AcDbEntity
  8
0
100
AcDbSpline
 62
7
  6
BYLAYER
 70
0
 71
3
 72
24
 73
20
 74
0
 42
0.0000001
 43
0.0000001
 44
0.0000000001
 40
0.0
 40
0.0
 40
0.0
 40
0.0
 40
0.062380815
 40
0.1287351063
 40
0.198327745
 40
0.2703103697
 40
0.3436917666
 40
0.4174297677
 40
0.4904605738
 40
0.5617530462
 40
0.6303562575
 40
0.6954493518
 40
0.7564014665
 40
0.8128427325
 40
0.864747224
 40
0.91252602
 40
0.9571041606
 40
0.9786661686
 40
1.0
 40
1.0
 40
1.0
 40
1.0
 10
59.9491671667
 20
48.5348274593
 30
0.0
 10
59.6512258786
 20
48.3628120032
 30
0.0
 10
59.0592832988
 20
47.9671885878
 30
0.0
 10
58.2209784056
 20
47.2617785351
 30
0.0
 10
57.4196864117
 20
46.4389878895
 30
0.0
 10
56.6724678747
 20
45.5166448946
 30
0.0
 10
55.9951808824
 20
44.5141623895
 30
0.0
 10
55.4022736323
 20
43.4529809522
 30
0.0
 10
54.9063806813
 20
42.3557284303
 30
0.0
 10
54.5180741837
 20
41.2457955159
 30
0.0
 10
54.2456207768
 20
40.1467508354
 30
0.0
 10
54.0948683823
 20
39.0817828169
 30
0.0
 10
54.0692212589
 20
38.0731423016
 30
0.0
 10
54.1696888801
 20
37.1416657647
 30
0.0
 10
54.3954638447
 20
36.3064070484
 30
0.0
 10
54.7436944641
 20
35.5852439595
 30
0.0
 10
55.1376649072
 20
35.0876743481
 30
0.0
 10
55.5030363162
 20
34.7710280065
 30
0.0
 10
55.700559943
 20
34.6394295485
 30
0.0
 10
55.802448803
 20
34.5805925266
 30
0.0
  0
SPLINE
  5
2EB
100
AcDbEntity
  8
0
100
AcDbSpline
 62
7
  6
BYLAYER
 70
0
 71
3
 72
15
 73
11
 74
0
 42
0.0000001
 43
0.0000001
 44
0.0000000001
 40
0.0
 40
0.0
 40
0.0
 40
0.0
 40
0.116930066
 40
0.2292057056
 40
0.3406751338
 40
0.4553267815
 40
0.5766201933
 40
0.7070311067
 40
0.8480512374
 40
1.0
 40
1.0
 40
1.0
 40
1.0
 10
66.7667421495
 20
45.9398232403
 30
0.0
 10
66.6601622794
 20
46.1103040544
 30
0.0
 10
66.4177222895
 20
46.4254355079
 30
0.0
 10
65.9617725959
 20
46.80133024
 30
0.0
 10
65.4333615795
 20
47.0577878615
 30
0.0
 10
64.8455067291
 20
47.1889715167
 30
0.0
 10
64.2114972236
 20
47.1940837913
 30
0.0
 10
63.5434229923
 20
47.0754133476
 30
0.0
 10
62.8531328791
 20
46.8365639826
 30
0.0
 10
62.4020475553
 20
46.6089348387
 30
0.0
 10
62.1757830666
 20
46.478301755
 30
0.0
  0
SPLINE
  5
2EC
100
AcDbEntity
  8
0
100
AcDbSpline
 62
7
  6
BYLAYER
 70
0
 71
3
 72
23
 73
19
 74
0
 42
0.0000001
 43
0.0000001
 44
0.0000000001
 40
0.0
 40
0.0
 40
0.0
 40
0.0
 40
0.0608380747
 40
0.1253400816
 40
0.1928841
 40
0.2627795652
 40
0.3342020892
 40
0.4062775505
 40
0.4781062919
 40
0.5487950213
 40
0.6174957347
 40
0.6834419283
 40
0.7459879718
 40
0.8046534883
 40
0.8591787334
 40
0.9095902807
 40
0.9562680028
 40
1.0
 40
1.0
 40
1.0
 40
1.0
 10
24.0220292409
 20
69.2369677864
 30
0.0
 10
23.7467239308
 20
69.0780211403
 30
0.0
 10
23.1992148358
 20
68.7156801394
 30
0.0
 10
22.4197016237
 20
68.0744444783
 30
0.0
 10
21.6700507343
 20
67.3297807301
 30
0.0
 10
20.96415891
 20
66.4957864602
 30
0.0
 10
20.3150415048
 20
65.5876911249
 30
0.0
 10
19.734723569
 20
64.6223976623
 30
0.0
 10
19.233939365
 20
63.6178165202
 30
0.0
 10
18.8220176614
 20
62.5925655166
 30
0.0
 10
18.5066122397
 20
61.5656331591
 30
0.0
 10
18.2935351373
 20
60.55597075
 30
0.0
 10
18.1867672406
 20
59.58208455
 30
0.0
 10
18.1884908554
 20
58.6616604637
 30
0.0
 10
18.299100697
 20
57.8112974537
 30
0.0
 10
18.5175826678
 20
57.0461670338
 30
0.0
 10
18.8411597427
 20
56.3807513201
 30
0.0
 10
19.1321748778
 20
56.0030638528
 30
0.0
 10
19.2916865366
 20
55.8394383073
 30
0.0
  0
SPLINE
  5
2ED
100
AcDbEntity
  8
0
100
AcDbSpline
 62
7
  6
BYLAYER
 70
0
 71
3
 72
9
 73
5
 74
0
 42
0.0000001
 43
0.0000001
 44
0.0000000001
 40
0.0
 40
0.0
 40
0.0
 40
0.0
 40
0.5031748295
 40
1.0
 40
1.0
 40
1.0
 40
1.0
 10
19.2916865366
 20
55.8394383073
 30
0.0
 10
19.3821988754
 20
55.7465916093
 30
0.0
 10
19.5745132686
 20
55.5737331726
 30
0.0
 10
19.7888935157
 20
55.4290450501
 30
0.0
 10
19.899764188
 20
55.365021371
 30
0.0
  0
SPLINE
  5
2EE
100
AcDbEntity
  8
0
100
AcDbSpline
 62
7
  6
BYLAYER
 70
0
 71
3
 72
16
 73
12
 74
0
 42
0.0000001
 43
0.0000001
 44
0.0000000001
 40
0.0
 40
0.0
 40
0.0
 40
0.0
 40
0.114144984
 40
0.2373063062
 40
0.3669452493
 40
0.4999583623
 40
0.6329707756
 40
0.7626109414
 40
0.885767072
 40
0.9441540385
 40
1.0
 40
1.0
 40
1.0
 40
1.0
 10
22.6427508385
 20
55.9584943643
 30
0.0
 10
22.6427472042
 20
56.4611861126
 30
0.0
 10
22.7348155255
 20
57.5072544643
 30
0.0
 10
23.1018630116
 20
59.0853656525
 30
0.0
 10
23.6898628623
 20
60.6838806491
 30
0.0
 10
24.476820101
 20
62.2426533367
 30
0.0
 10
25.433333496
 20
63.7036727586
 30
0.0
 10
26.5234452197
 20
65.0118919865
 30
0.0
 10
27.5274604125
 20
65.9513243282
 30
0.0
 10
28.3640897377
 20
66.5795702201
 30
0.0
 10
28.7889930849
 20
66.8501658641
 30
0.0
 10
29.0019873826
 20
66.9731374452
 30
0.0
  0
SPLINE
  5
2EF
100
AcDbEntity
  8
0
100
AcDbSpline
 62
7
  6
BYLAYER
 70
0
 71
3
 72
15
 73
11
 74
0
 42
0.0000001
 43
0.0000001
 44
0.0000000001
 40
0.0
 40
0.0
 40
0.0
 40
0.0
 40
0.1080127374
 40
0.2180623886
 40
0.3320018128
 40
0.4513627816
 40
0.5772700077
 40
0.7104927397
 40
0.8514462087
 40
1.0
 40
1.0
 40
1.0
 40
1.0
 10
63.3151578837
 20
50.2043181546
 30
0.0
 10
63.1677117432
 20
50.2894440597
 30
0.0
 10
62.8546723064
 20
50.436075398
 30
0.0
 10
62.348119499
 20
50.5761019047
 30
0.0
 10
61.8081364241
 20
50.6363477513
 30
0.0
 10
61.2404744641
 20
50.6165742129
 30
0.0
 10
60.6505863372
 20
50.5176418727
 30
0.0
 10
60.0439019241
 20
50.3407933263
 30
0.0
 10
59.4262864094
 20
50.0879263104
 30
0.0
 10
59.0213546742
 20
49.8759946308
 30
0.0
 10
58.8185676955
 20
49.758916213
 30
0.0
  0
SPLINE
  5
2F0
100
AcDbEntity
  8
0
100
AcDbSpline
 62
7
  6
BYLAYER
 70
0
 71
3
 72
18
 73
14
 74
0
 42
0.0000001
 43
0.0000001
 44
0.0000000001
 40
0.0
 40
0.0
 40
0.0
 40
0.0
 40
0.0538753439
 40
0.1105843817
 40
0.1699249759
 40
0.2316097886
 40
0.3604977883
 40
0.4939979302
 40
0.6283494608
 40
0.7597252698
 40
0.8845505448
 40
0.9436258482
 40
1.0
 40
1.0
 40
1.0
 40
1.0
 10
54.2499388413
 20
37.8654315097
 30
0.0
 10
54.2312209673
 20
38.0888698862
 30
0.0
 10
54.2160948827
 20
38.5496645339
 30
0.0
 10
54.2554605486
 20
39.2565418202
 30
0.0
 10
54.3559076131
 20
39.9901677124
 30
0.0
 10
54.5728836435
 20
41.0081734623
 30
0.0
 10
54.9910992163
 20
42.294913625
 30
0.0
 10
55.6927960189
 20
43.7937684523
 30
0.0
 10
56.5726746594
 20
45.207947164
 30
0.0
 10
57.5936813425
 20
46.4777425432
 30
0.0
 10
58.5444738321
 20
47.3889074169
 30
0.0
 10
59.3407733415
 20
47.9951760832
 30
0.0
 10
59.7459793921
 20
48.2547131517
 30
0.0
 10
59.9491671667
 20
48.3720229678
 30
0.0
  0
SPLINE
  5
2F1
100
AcDbEntity
  8
0
100
AcDbSpline
 62
7
  6
BYLAYER
 70
0
 71
3
 72
15
 73
11
 74
0
 42
0.0000001
 43
0.0000001
 44
0.0000000001
 40
0.0
 40
0.0
 40
0.0
 40
0.0
 40
0.108010838
 40
0.2180577635
 40
0.3319987195
 40
0.4513556027
 40
0.5772611168
 40
0.7104925633
 40
0.8514583956
 40
1.0
 40
1.0
 40
1.0
 40
1.0
 10
64.0958855305
 20
48.9455717738
 30
0.0
 10
63.9599219614
 20
49.0240856712
 30
0.0
 10
63.6712226327
 20
49.1592532109
 30
0.0
 10
63.2041098694
 20
49.288454762
 30
0.0
 10
62.7061402922
 20
49.3439410649
 30
0.0
 10
62.1826548827
 20
49.3257774863
 30
0.0
 10
61.6386629769
 20
49.2345132786
 30
0.0
 10
61.0791535918
 20
49.0714344121
 30
0.0
 10
60.5095917813
 20
48.8382131617
 30
0.0
 10
60.1361600742
 20
48.6427872203
 30
0.0
 10
59.9491671667
 20
48.5348274593
 30
0.0
  0
SPLINE
  5
2F2
100
AcDbEntity
  8
0
100
AcDbSpline
 62
7
  6
BYLAYER
 70
0
 71
3
 72
24
 73
20
 74
0
 42
0.0000001
 43
0.0000001
 44
0.0000000001
 40
0.0
 40
0.0
 40
0.0
 40
0.0
 40
0.0623632807
 40
0.1286964561
 40
0.1982657647
 40
0.2702248042
 40
0.3435844089
 40
0.4173044729
 40
0.4903230903
 40
0.5616107355
 40
0.6302176307
 40
0.6953233248
 40
0.7562964412
 40
0.8127653082
 40
0.864700473
 40
0.9125074452
 40
0.9571038413
 40
0.9786686439
 40
1.0
 40
1.0
 40
1.0
 40
1.0
 10
59.2442051435
 20
49.0247664027
 30
0.0
 10
58.9428622129
 20
48.8507870191
 30
0.0
 10
58.3441541999
 20
48.4506876222
 30
0.0
 10
57.4962148358
 20
47.737356928
 30
0.0
 10
56.685654356
 20
46.9053671417
 30
0.0
 10
55.9297035684
 20
45.9727187605
 30
0.0
 10
55.2443806191
 20
44.9590098717
 30
0.0
 10
54.644282506
 20
43.8858873454
 30
0.0
 10
54.1421762128
 20
42.7761984573
 30
0.0
 10
53.7487503051
 20
41.6535620503
 30
0.0
 10
53.4723671538
 20
40.5417801598
 30
0.0
 10
53.3189500727
 20
39.4642747983
 30
0.0
 10
53.2919539249
 20
38.4435265217
 30
0.0
 10
53.3924149266
 20
37.5005919592
 30
0.0
 10
53.6195322596
 20
36.6547292369
 30
0.0
 10
53.9704377923
 20
35.9240036215
 30
0.0
 10
54.367814332
 20
35.4193424004
 30
0.0
 10
54.7365623984
 20
35.0978032686
 30
0.0
 10
54.9359717221
 20
34.9640280096
 30
0.0
 10
55.0388474024
 20
34.9041756187
 30
0.0
  0
SPLINE
  5
2F3
100
AcDbEntity
  8
0
100
AcDbSpline
 62
7
  6
BYLAYER
 70
0
 71
3
 72
24
 73
20
 74
0
 42
0.0000001
 43
0.0000001
 44
0.0000000001
 40
0.0
 40
0.0
 40
0.0
 40
0.0
 40
0.0213340446
 40
0.0428963155
 40
0.0874751297
 40
0.1352546855
 40
0.1871598103
 40
0.2436014587
 40
0.3045536271
 40
0.3696463174
 40
0.438248618
 40
0.5095398776
 40
0.5825694457
 40
0.6563064601
 40
0.7296874176
 40
0.8016701079
 40
0.8712630528
 40
0.9376185284
 40
1.0
 40
1.0
 40
1.0
 40
1.0
 10
55.0974869734
 20
34.9875936131
 30
0.0
 10
54.9955971153
 20
35.0464312526
 30
0.0
 10
54.7980706048
 20
35.1780301717
 30
0.0
 10
54.4326958075
 20
35.4946824535
 30
0.0
 10
54.0387212884
 20
35.9922609428
 30
0.0
 10
53.690491553
 20
36.713437347
 30
0.0
 10
53.4647192924
 20
37.5487068379
 30
0.0
 10
53.364256797
 20
38.4801899083
 30
0.0
 10
53.3899103761
 20
39.4888303982
 30
0.0
 10
53.5406672134
 20
40.5537906348
 30
0.0
 10
53.813119706
 20
41.6528210524
 30
0.0
 10
54.2014215269
 20
42.7627359011
 30
0.0
 10
54.6973073209
 20
43.8599707457
 30
0.0
 10
55.2902056788
 20
44.9211401788
 30
0.0
 10
55.9674855558
 20
45.9236184221
 30
0.0
 10
56.7147019414
 20
46.8459626032
 30
0.0
 10
57.5159970906
 20
47.6687622419
 30
0.0
 10
58.3543110722
 20
48.3741798619
 30
0.0
 10
58.946260725
 20
48.7698110022
 30
0.0
 10
59.2442051435
 20
48.9418282656
 30
0.0
  0
SPLINE
  5
2F4
100
AcDbEntity
  8
0
100
AcDbSpline
 62
7
  6
BYLAYER
 70
0
 71
3
 72
15
 73
11
 74
0
 42
0.0000001
 43
0.0000001
 44
0.0000000001
 40
0.0
 40
0.0
 40
0.0
 40
0.0
 40
0.1080284947
 40
0.2180654943
 40
0.3319823118
 40
0.4513139524
 40
0.5772028043
 40
0.7104331327
 40
0.851417968
 40
1.0
 40
1.0
 40
1.0
 40
1.0
 10
63.4495628846
 20
49.4359902943
 30
0.0
 10
63.3118883102
 20
49.5160884518
 30
0.0
 10
63.0194555329
 20
49.654096686
 30
0.0
 10
62.545995032
 20
49.7863434515
 30
0.0
 10
62.0410797833
 20
49.8436231321
 30
0.0
 10
61.5101557673
 20
49.8259811537
 30
0.0
 10
60.9583313845
 20
49.7339834623
 30
0.0
 10
60.3906926703
 20
49.5689325905
 30
0.0
 10
59.8128076981
 20
49.3325335236
 30
0.0
 10
59.4339279368
 20
49.1343022547
 30
0.0
 10
59.2442051435
 20
49.0247664027
 30
0.0
  0
SPLINE
  5
2F5
100
AcDbEntity
  8
0
100
AcDbSpline
 62
7
  6
BYLAYER
 70
0
 71
3
 72
15
 73
11
 74
0
 42
0.0000001
 43
0.0000001
 44
0.0000000001
 40
0.0
 40
0.0
 40
0.0
 40
0.0
 40
0.1485414005
 40
0.289505041
 40
0.4227351287
 40
0.5486406964
 40
0.6679982417
 40
0.7819396702
 40
0.8919876725
 40
1.0
 40
1.0
 40
1.0
 40
1.0
 10
59.2442051435
 20
48.9418282656
 30
0.0
 10
59.4311978177
 20
49.049787892
 30
0.0
 10
59.8046256338
 20
49.2452139723
 30
0.0
 10
60.3741829946
 20
49.4784317466
 30
0.0
 10
60.9336868996
 20
49.6415116339
 30
0.0
 10
61.4776777871
 20
49.7327753656
 30
0.0
 10
62.0011649424
 20
49.7509456199
 30
0.0
 10
62.4991374536
 20
49.695456389
 30
0.0
 10
62.9662560064
 20
49.566258859
 30
0.0
 10
63.2549578763
 20
49.4310873311
 30
0.0
 10
63.3909233136
 20
49.3525722999
 30
0.0
  0
SPLINE
  5
2F6
100
AcDbEntity
  8
0
100
AcDbSpline
 62
7
  6
BYLAYER
 70
0
 71
3
 72
19
 73
15
 74
0
 42
0.0000001
 43
0.0000001
 44
0.0000000001
 40
0.0
 40
0.0
 40
0.0
 40
0.0
 40
0.148624395
 40
0.2965758811
 40
0.4398722565
 40
0.5749058547
 40
0.638460265
 40
0.6989937929
 40
0.7563634578
 40
0.8105400839
 40
0.8616336155
 40
0.9099156283
 40
0.9558298215
 40
1.0
 40
1.0
 40
1.0
 40
1.0
 10
17.0584685376
 20
68.0945231679
 30
0.0
 10
16.742855264
 20
67.6549302074
 30
0.0
 10
16.1650728749
 20
66.7391692842
 30
0.0
 10
15.4718037369
 20
65.2914062687
 30
0.0
 10
14.9730944712
 20
63.8174629345
 30
0.0
 10
14.7315028886
 20
62.59149302
 30
0.0
 10
14.6581906014
 20
61.6499265315
 30
0.0
 10
14.6626612728
 20
60.9883508106
 30
0.0
 10
14.7253538387
 20
60.3639181933
 30
0.0
 10
14.8458949862
 20
59.7828863924
 30
0.0
 10
15.0233084155
 20
59.2511680553
 30
0.0
 10
15.2561667415
 20
58.7742003215
 30
0.0
 10
15.5425057762
 20
58.3573614687
 30
0.0
 10
15.7706834797
 20
58.1191880108
 30
0.0
 10
15.8916657761
 20
58.013219817
 30
0.0
  0
SPLINE
  5
2F7
100
AcDbEntity
  8
0
100
AcDbSpline
 62
7
  6
BYLAYER
 70
0
 71
3
 72
15
 73
11
 74
0
 42
0.0000001
 43
0.0000001
 44
0.0000000001
 40
0.0
 40
0.0
 40
0.0
 40
0.0
 40
0.1485378733
 40
0.2894841129
 40
0.4227076118
 40
0.5486217457
 40
0.6679929423
 40
0.7819418563
 40
0.8919950369
 40
1.0
 40
1.0
 40
1.0
 40
1.0
 10
55.5691406355
 20
37.5202625331
 30
0.0
 10
55.5691406355
 20
37.3045211052
 30
0.0
 10
55.5865626561
 20
36.8837784186
 30
0.0
 10
55.6692343427
 20
36.2744429309
 30
0.0
 10
55.8074725993
 20
35.7087968065
 30
0.0
 10
56.0000914105
 20
35.1923846473
 30
0.0
 10
56.2455861343
 20
34.7301036122
 30
0.0
 10
56.5421336977
 20
34.3266901527
 30
0.0
 10
56.886906603
 20
33.9866179643
 30
0.0
 10
57.1479087817
 20
33.8040519327
 30
0.0
 10
57.2836581313
 20
33.7254368607
 30
0.0
  0
ELLIPSE
  5
2F8
100
AcDbEntity
  8
0
100
AcDbEllipse
 62
7
  6
BYLAYER
 10
13.8139833578
 20
71.897069459
 30
0.0
 11
19.1380296889
 21
-5.201225041
 31
0.0
 40
0.1453020759
 41
1.0745444248
 42
1.2409521401
  0
ELLIPSE
  5
2F9
100
AcDbEntity
  8
0
100
AcDbEllipse
 62
7
  6
BYLAYER
 10
5.7980425058
 20
74.257078087
 30
0.0
 11
20.4788751186
 21
-5.2558807176
 31
0.0
 40
0.1854116694
 41
0.5619999796
 42
0.567480977
  0
ELLIPSE
  5
2FA
100
AcDbEntity
  8
0
100
AcDbEllipse
 62
7
  6
BYLAYER
 10
5.7980425058
 20
74.257078087
 30
0.0
 11
20.4788751186
 21
-5.2558807176
 31
0.0
 40
0.1854116694
 41
-0.9417989256
 42
-0.9363179283
  0
ELLIPSE
  5
2FB
100
AcDbEntity
  8
0
100
AcDbEllipse
 62
7
  6
BYLAYER
 10
10.6884133427
 20
70.9800081365
 30
0.0
 11
13.5833047266
 21
-0.127987215
 31
0.0
 40
0.2376146463
 41
-1.0726138902
 42
0.3068621327
  0
ELLIPSE
  5
2FC
100
AcDbEntity
  8
0
100
AcDbEllipse
 62
7
  6
BYLAYER
 10
13.8139833578
 20
71.897069459
 30
0.0
 11
19.1380296889
 21
-5.201225041
 31
0.0
 40
0.1453020759
 41
-1.5275156017
 42
-1.3611078865
  0
ENDSEC
  0
SECTION
  2
OBJECTS
  0
DICTIONARY
  5
C
100
AcDbDictionary
280
0
281
1
  3
ACAD_GROUP
350
D
  3
ACAD_MLINESTYLE
350
17
  3
ACAD_LAYOUT
350
1A
  3
ACAD_PLOTSETTINGS
350
19
  3
ACAD_PLOTSTYLENAME
350
E
  0
DICTIONARY
  5
D
102
{ACAD_REACTORS
330
C
102
}
100
AcDbDictionary
280
0
281
1
  0
ACDBDICTIONARYWDFLT
  5
E
102
{ACAD_REACTORS
330
C
102
}
100
AcDbDictionary
281
1
  3
Normal
350
F
100
AcDbDictionaryWithDefault
340
F
  0
DICTIONARY
  5
17
102
{ACAD_REACTORS
330
C
102
}
100
AcDbDictionary
280
0
281
1
  3
Standard
350
18
  0
DICTIONARY
  5
19
102
{ACAD_REACTORS
330
C
102
}
100
AcDbDictionary
281
1
  0
DICTIONARY
  5
1A
102
{ACAD_REACTORS
330
C
102
}
100
AcDbDictionary
281
1
  3
Model
350
2FD
  3
Layout1
350
2FE
  0
ACDBPLACEHOLDER
  5
F
102
{ACAD_REACTORS
330
E
102
}
  0
MLINESTYLE
  5
18
102
{ACAD_REACTORS
330
17
102
}
100
AcDbMlineStyle
  2
STANDARD
 70
0
  3

 62
256
 51
90.0
 52
90.0
 71
2
 49
0.5
 62
256
  6
BYLAYER
 49
-0.5
 62
256
  6
BYLAYER
  0
LAYOUT
  5
2FD
102
{ACAD_REACTORS
330
1A
102
}
100
AcDbPlotSettings
  1

  2
none_device
  4

  6

 40
0.0
 41
0.0
 42
0.0
 43
0.0
 44
210.0
 45
297.0
 46
0.0
 47
0.0
 48
0.0
 49
0.0
140
0.0
141
0.0
142
1.0
143
1.0
 70
1024
 72
1
 73
0
 74
0
  7

 75
0
147
1.0
148
0.0
149
0.0
100
AcDbLayout
  1
Model
 70
0
 71
0
 10
0.0
 20
0.0
 11
210.0
 21
297.0
 12
0.0
 22
0.0
 32
0.0
 14
0.0
 24
0.0
 34
0.0
 15
0.0
 25
0.0
 35
0.0
146
0.0
 13
0.0
 23
0.0
 33
0.0
 16
1.0
 26
0.0
 36
0.0
 17
0.0
 27
1.0
 37
0.0
 76
0
330
210
345
0
346
0
  0
LAYOUT
  5
2FE
102
{ACAD_REACTORS
330
1A
102
}
100
AcDbPlotSettings
  1

  2
none_device
  4

  6

 40
0.0
 41
0.0
 42
0.0
 43
0.0
 44
210.0
 45
297.0
 46
0.0
 47
0.0
 48
0.0
 49
0.0
140
0.0
141
0.0
142
1.0
143
1.0
 70
0
 72
1
 73
0
 74
0
  7

 75
0
147
1.0
148
0.0
149
0.0
100
AcDbLayout
  1
Layout1
 70
0
 71
1
 10
0.0
 20
0.0
 11
210.0
 21
297.0
 12
0.0
 22
0.0
 32
0.0
 14
0.0
 24
0.0
 34
0.0
 15
0.0
 25
0.0
 35
0.0
146
0.0
 13
0.0
 23
0.0
 33
0.0
 16
1.0
 26
0.0
 36
0.0
 17
0.0
 27
1.0
 37
0.0
 76
0
330
211
345
0
346
0
  0
ENDSEC
  0
EOF
