999
DXF file: C:\Users\sesa63760\Dev\_Creo\CAD\MCADID0004688_3D-CAD\drw0001_1.dxf
999
Pro/ENGINEER 2019471 by Parametric Technology Corporation
  0
SECTION
  2
HEADER
  9
$ACADVER
  1
AC1024
  9
$DWGCODEPAGE
  3
ANSI_1252
  9
$EXTMAX
 10
226.6732968284
 20
320.5808055145
 30
0.0
  9
$EXTMIN
 10
0.0
 20
0.0
 30
0.0
  9
$LIMMIN
 10
0.0
 20
0.0
  9
$LIMMAX
 10
226.6732968284
 20
320.5808055145
  9
$VIEWCTR
 10
113.3366484142
 20
160.2904027572
  9
$VIEWSIZE
 40
320.5808055145
  9
$CLAYER
  8
0
  9
$LTSCALE
 40
20.8971191743
  9
$CELTYPE
  6
BYLAYER
  9
$DIMSCALE
 40
1.0
  9
$DIMASZ
 40
2.6984916289
  9
$DIMEXO
 40
1.0
  9
$DIMDLI
 40
14.4380096113
  9
$DIMEXE
 40
1.0
  9
$DIMCEN
 40
3.4195285922
  9
$DIMLFAC
 40
1.0
  9
$DIMBLK
  1
_FILLED
  9
$DIMALT
 70
0
  9
$DIMALTF
 40
0.0393700787
  9
$DIMTXT
 40
3.7778882805
  9
$DIMTOL
 70
1
  9
$DIMLIM
 70
0
  9
$DIMTFAC
 40
1.0
  9
$DIMTP
 40
0.01
  9
$DIMTM
 40
0.01
  9
$DIMGAP
 40
0.625
  9
$DIMDSEP
 70
46
  9
$AUNITS
 70
0
  9
$PDMODE
 70
3
  9
$PDSIZE
 40
0.3125
  9
$HANDSEED
  5
2B5
  9
$TILEMODE
 70
1
  9
$MEASUREMENT
 70
1
  9
$INSUNITS
 70
4
  0
ENDSEC
  0
SECTION
  2
CLASSES
  0
CLASS
  1
ACDBDICTIONARYWDFLT
  2
AcDbDictionaryWithDefault
  3
AutoCAD 2000
 90
0
 91
1
280
0
281
0
  0
CLASS
  1
ACDBPLACEHOLDER
  2
AcDbPlaceHolder
  3
AutoCAD 2000
 90
0
 91
1
280
0
281
0
  0
CLASS
  1
LAYOUT
  2
AcDbLayout
  3
AutoCAD 2000
 90
0
 91
0
280
0
281
0
  0
ENDSEC
  0
SECTION
  2
TABLES
  0
TABLE
  2
VPORT
  5
8
100
AcDbSymbolTable
 70
2
  0
VPORT
  5
1F4
100
AcDbSymbolTableRecord
100
AcDbViewportTableRecord
  2
*ACTIVE
 70
0
 10
0.0
 20
0.0
 11
1.0
 21
1.0
 12
113.3366484142
 22
160.2904027572
 13
0.0
 23
0.0
 14
1.0
 24
1.0
 15
0.0
 25
0.0
 16
0.0
 26
0.0
 36
1.0
 17
0.0
 27
0.0
 37
0.0
 40
320.5808055145
 41
0.7070707071
 42
50.0
 43
0.0
 44
0.0
 50
0.0
 51
0.0
 71
0
 72
100
 73
1
 74
1
 75
0
 76
0
 77
0
 78
0
  0
ENDTAB
  0
TABLE
  2
LTYPE
  5
5
100
AcDbSymbolTable
 70
6
  0
LTYPE
  5
14
100
AcDbSymbolTableRecord
100
AcDbLinetypeTableRecord
  2
BYBLOCK
 70
0
  3

 72
65
 73
0
 40
0.0
  0
LTYPE
  5
15
100
AcDbSymbolTableRecord
100
AcDbLinetypeTableRecord
  2
BYLAYER
 70
0
  3

 72
65
 73
0
 40
0.0
  0
LTYPE
  5
16
100
AcDbSymbolTableRecord
100
AcDbLinetypeTableRecord
  2
CONTINUOUS
 70
64
  3
Solid line
 72
65
 73
0
 40
0.0
  0
LTYPE
  5
1F5
100
AcDbSymbolTableRecord
100
AcDbLinetypeTableRecord
  2
CENTER
 70
64
  3
____ _ ____ _ ____ _ ____ _ ____ _ ____ _ ____
 72
65
 73
4
 40
0.6
 49
0.375
 74
0
 49
-0.075
 74
0
 49
0.075
 74
0
 49
-0.075
 74
0
  0
LTYPE
  5
1F6
100
AcDbSymbolTableRecord
100
AcDbLinetypeTableRecord
  2
HIDDEN
 70
64
  3
- - - - - - - - - - - - - - - - - - - -
 72
65
 73
2
 40
0.2
 49
0.1
 74
0
 49
-0.1
 74
0
  0
LTYPE
  5
1F7
100
AcDbSymbolTableRecord
100
AcDbLinetypeTableRecord
  2
PHANTOM
 70
64
  3
_____ _ _ _____ _ _ _____ _ _ _____
 72
65
 73
6
 40
0.8
 49
0.45
 74
0
 49
-0.05
 74
0
 49
0.1
 74
0
 49
-0.05
 74
0
 49
0.1
 74
0
 49
-0.05
 74
0
  0
LTYPE
  5
1F8
100
AcDbSymbolTableRecord
100
AcDbLinetypeTableRecord
  2
DOT
 70
64
  3
. . . . . . . . . . . . . . . . . . . .
 72
65
 73
2
 40
0.2
 49
0.1
 74
0
 49
-0.1
 74
0
  0
LTYPE
  5
1F9
100
AcDbSymbolTableRecord
100
AcDbLinetypeTableRecord
  2
DASHED
 70
64
  3
- - - - - - - - - - - - - - - - - - - -
 72
65
 73
2
 40
0.2
 49
0.1
 74
0
 49
-0.1
 74
0
  0
ENDTAB
  0
TABLE
  2
LAYER
  5
2
100
AcDbSymbolTable
 70
36
  0
LAYER
  5
10
100
AcDbSymbolTableRecord
100
AcDbLayerTableRecord
  2
0
 70
0
 62
7
  6
CONTINUOUS
370
-3
390
F
  0
LAYER
  5
1FA
100
AcDbSymbolTableRecord
100
AcDbLayerTableRecord
  2
DEFAULT_1
 70
0
 62
7
  6
CENTER
370
-3
390
F
  0
LAYER
  5
1FB
100
AcDbSymbolTableRecord
100
AcDbLayerTableRecord
  2
DEFAULT_2
 70
0
 62
7
  6
HIDDEN
370
-3
390
F
  0
LAYER
  5
1FC
100
AcDbSymbolTableRecord
100
AcDbLayerTableRecord
  2
DEFAULT_3
 70
0
 62
7
  6
PHANTOM
370
-3
390
F
  0
LAYER
  5
1FD
100
AcDbSymbolTableRecord
100
AcDbLayerTableRecord
  2
00_COMPONENTS
 70
0
 62
7
  6
CONTINUOUS
370
-3
390
F
  0
LAYER
  5
1FE
100
AcDbSymbolTableRecord
100
AcDbLayerTableRecord
  2
01_1_DEFAULT_DATUMS
 70
0
 62
7
  6
CONTINUOUS
370
-3
390
F
  0
LAYER
  5
1FF
100
AcDbSymbolTableRecord
100
AcDbLayerTableRecord
  2
01_PLANES
 70
0
 62
7
  6
CONTINUOUS
370
-3
390
F
  0
LAYER
  5
200
100
AcDbSymbolTableRecord
100
AcDbLayerTableRecord
  2
02_COORD_SYS
 70
0
 62
7
  6
CONTINUOUS
370
-3
390
F
  0
LAYER
  5
201
100
AcDbSymbolTableRecord
100
AcDbLayerTableRecord
  2
03_AXES
 70
0
 62
7
  6
CONTINUOUS
370
-3
390
F
  0
LAYER
  5
202
100
AcDbSymbolTableRecord
100
AcDbLayerTableRecord
  2
04_POINTS
 70
0
 62
7
  6
CONTINUOUS
370
-3
390
F
  0
LAYER
  5
203
100
AcDbSymbolTableRecord
100
AcDbLayerTableRecord
  2
05_CURVES
 70
0
 62
7
  6
CONTINUOUS
370
-3
390
F
  0
LAYER
  5
204
100
AcDbSymbolTableRecord
100
AcDbLayerTableRecord
  2
06_SURFS
 70
0
 62
7
  6
CONTINUOUS
370
-3
390
F
  0
LAYER
  5
205
100
AcDbSymbolTableRecord
100
AcDbLayerTableRecord
  2
07_COSMETICS
 70
0
 62
7
  6
CONTINUOUS
370
-3
390
F
  0
LAYER
  5
206
100
AcDbSymbolTableRecord
100
AcDbLayerTableRecord
  2
10_NOTES
 70
0
 62
7
  6
CONTINUOUS
370
-3
390
F
  0
LAYER
  5
207
100
AcDbSymbolTableRecord
100
AcDbLayerTableRecord
  2
11_NOTES_PUB
 70
0
 62
7
  6
CONTINUOUS
370
-3
390
F
  0
LAYER
  5
208
100
AcDbSymbolTableRecord
100
AcDbLayerTableRecord
  2
13_REF_GTOL
 70
0
 62
7
  6
CONTINUOUS
370
-3
390
F
  0
LAYER
  5
209
100
AcDbSymbolTableRecord
100
AcDbLayerTableRecord
  2
16_MISC
 70
0
 62
7
  6
CONTINUOUS
370
-3
390
F
  0
LAYER
  5
20A
100
AcDbSymbolTableRecord
100
AcDbLayerTableRecord
  2
17_NO_PRINT
 70
0
 62
7
  6
CONTINUOUS
370
-3
390
F
  0
LAYER
  5
20B
100
AcDbSymbolTableRecord
100
AcDbLayerTableRecord
  2
18_DATUM_CAMS_JOINTS
 70
0
 62
7
  6
CONTINUOUS
370
-3
390
F
  0
LAYER
  5
20C
100
AcDbSymbolTableRecord
100
AcDbLayerTableRecord
  2
19_DATUM_FUNCTIONAL
 70
0
 62
7
  6
CONTINUOUS
370
-3
390
F
  0
LAYER
  5
20D
100
AcDbSymbolTableRecord
100
AcDbLayerTableRecord
  2
20_DATUM_KINEMATIC_SCHEME
 70
0
 62
7
  6
CONTINUOUS
370
-3
390
F
  0
ENDTAB
  0
TABLE
  2
STYLE
  5
3
100
AcDbSymbolTable
 70
1
  0
STYLE
  5
11
100
AcDbSymbolTableRecord
100
AcDbTextStyleTableRecord
  2
STANDARD
 70
0
 40
0.0
 41
1.0
 50
0.0
 71
0
 42
0.2
  3
ARIAL.TTF
  4

  0
STYLE
  5
20E
100
AcDbSymbolTableRecord
100
AcDbTextStyleTableRecord
  2
TEXTSTYLE_1
 70
0
 40
0.0
 41
0.8
 50
0.0
 71
0
 42
0.2
  3
gdt
  4

  0
ENDTAB
  0
TABLE
  2
VIEW
  5
6
100
AcDbSymbolTable
 70
0
  0
ENDTAB
  0
TABLE
  2
UCS
  5
7
100
AcDbSymbolTable
 70
0
  0
ENDTAB
  0
TABLE
  2
APPID
  5
9
100
AcDbSymbolTable
 70
1
  0
APPID
  5
20F
100
AcDbSymbolTableRecord
100
AcDbRegAppTableRecord
  2
ACAD
 70
0
  0
ENDTAB
  0
TABLE
  2
BLOCK_RECORD
  5
1
100
AcDbSymbolTable
 70
0
  0
BLOCK_RECORD
  5
210
100
AcDbSymbolTableRecord
100
AcDbBlockTableRecord
  2
*Model_Space
  0
BLOCK_RECORD
  5
211
100
AcDbSymbolTableRecord
100
AcDbBlockTableRecord
  2
*Paper_Space
  0
BLOCK_RECORD
  5
212
100
AcDbSymbolTableRecord
100
AcDbBlockTableRecord
  2
_FILLED
  0
ENDTAB
  0
TABLE
  2
DIMSTYLE
  5
A
100
AcDbSymbolTable
 70
1
100
AcDbDimStyleTable
 71
0
  0
DIMSTYLE
105
213
100
AcDbSymbolTableRecord
100
AcDbDimStyleTableRecord
  2
STANDARD
 70
0
  3

  4

 40
1.0
 41
2.6984916289
 42
1.0
 43
0.38
 44
1.0
 45
0.0
 46
0.0
 47
0.01
 48
0.01
140
3.7778882805
141
0.09
142
0.0
143
25.4
144
1.0
145
0.0
146
1.0
147
0.625
 71
1
 72
0
 73
0
 74
0
 75
0
 76
0
 77
1
 78
8
 79
2
170
0
171
1
172
0
173
0
174
0
175
0
176
0
177
0
178
0
270
2
179
2
271
2
272
2
273
2
274
2
275
0
280
0
281
0
282
0
283
1
284
8
285
0
286
0
287
3
288
0
340
11
278
46
341
212
342
212
343
212
344
212
  0
ENDTAB
  0
ENDSEC
  0
SECTION
  2
BLOCKS
  0
BLOCK
  5
20
100
AcDbEntity
  8
0
100
AcDbBlockBegin
  2
*Model_Space
 70
0
 10
0.0
 20
0.0
 30
0.0
  3
*Model_Space
  1

  0
ENDBLK
  5
21
100
AcDbEntity
  8
0
100
AcDbBlockEnd
  0
BLOCK
  5
1C
100
AcDbEntity
  8
0
100
AcDbBlockBegin
  2
*Paper_Space
 70
0
 10
0.0
 20
0.0
 30
0.0
  3
*Paper_Space
  1

  0
ENDBLK
  5
1D
100
AcDbEntity
  8
0
100
AcDbBlockEnd
  0
BLOCK
  5
214
100
AcDbEntity
  8
0
100
AcDbBlockBegin
  2
_FILLED
 70
64
 10
0.0
 20
0.0
  3
_FILLED
  1

  0
SOLID
  5
215
100
AcDbEntity
  8
0
  6
BYBLOCK
 62
0
100
AcDbTrace
 10
0.0
 20
0.0
 11
-1.0
 21
0.25
 12
-1.0
 22
-0.25
 13
-1.0
 23
-0.25
  0
ENDBLK
  5
216
100
AcDbEntity
  8
0
  6
BYBLOCK
 62
0
100
AcDbBlockEnd
  0
ENDSEC
  0
SECTION
  2
ENTITIES
  0
LINE
  5
217
100
AcDbEntity
  8
0
100
AcDbLine
 62
7
  6
BYLAYER
 10
193.1598544688
 20
212.9033668631
 11
188.9172314455
 21
210.4539019399
  0
LINE
  5
218
100
AcDbEntity
  8
0
100
AcDbLine
 62
7
  6
BYLAYER
 10
195.456165197
 20
213.8249899811
 11
194.1640455374
 21
213.0789888008
  0
LINE
  5
219
100
AcDbEntity
  8
0
100
AcDbLine
 62
7
  6
BYLAYER
 10
189.0922306621
 20
210.1507925962
 11
188.213899918
 21
209.6436911317
  0
LINE
  5
21A
100
AcDbEntity
  8
0
100
AcDbLine
 62
7
  6
BYLAYER
 10
187.0708280583
 20
208.7528024593
 11
186.3152124038
 21
208.3165501619
  0
LINE
  5
21B
100
AcDbEntity
  8
0
100
AcDbLine
 62
7
  6
BYLAYER
 10
178.3027404769
 20
203.6905749513
 11
176.8343809491
 21
202.8428222431
  0
LINE
  5
21C
100
AcDbEntity
  8
0
100
AcDbLine
 62
7
  6
BYLAYER
 10
186.41064832
 20
208.1512493195
 11
179.551741099
 21
204.191281027
  0
LINE
  5
21D
100
AcDbEntity
  8
0
100
AcDbLine
 62
7
  6
BYLAYER
 10
188.7362535818
 20
209.0436781137
 11
178.4998288075
 21
203.1337097556
  0
LINE
  5
21E
100
AcDbEntity
  8
0
100
AcDbLine
 62
7
  6
BYLAYER
 10
188.9010143556
 20
208.758312523
 11
182.961342123
 21
205.3290616305
  0
LINE
  5
21F
100
AcDbEntity
  8
0
100
AcDbLine
 62
7
  6
BYLAYER
 10
177.3001957332
 20
201.3797107065
 11
174.3858717886
 21
199.6971350362
  0
LINE
  5
220
100
AcDbEntity
  8
0
100
AcDbLine
 62
7
  6
BYLAYER
 10
169.4674920204
 20
196.5111144609
 11
174.5359417665
 21
199.4373678188
  0
LINE
  5
221
100
AcDbEntity
  8
0
100
AcDbLine
 62
7
  6
BYLAYER
 10
179.0598063827
 20
201.5074259695
 11
183.6406758433
 21
204.1524559137
  0
LINE
  5
222
100
AcDbEntity
  8
0
100
AcDbLine
 62
7
  6
BYLAYER
 10
61.3100828803
 20
131.00682606
 11
167.3756584624
 21
192.2434491408
  0
LINE
  5
223
100
AcDbEntity
  8
0
100
AcDbLine
 62
7
  6
BYLAYER
 10
61.6975914763
 20
130.3356613353
 11
26.4131099993
 21
109.9642780571
  0
LINE
  5
224
100
AcDbEntity
  8
0
100
AcDbLine
 62
7
  6
BYLAYER
 10
62.6975956395
 20
129.7583425315
 11
27.4131141626
 21
109.3869592533
  0
LINE
  5
225
100
AcDbEntity
  8
0
100
AcDbLine
 62
7
  6
BYLAYER
 10
26.7502837221
 20
109.0042146354
 11
26.4131280194
 21
108.8095588616
  0
LINE
  5
226
100
AcDbEntity
  8
0
100
AcDbLine
 62
7
  6
BYLAYER
 10
27.3253014636
 20
109.1630252638
 11
26.9881227547
 21
108.9683562075
  0
LINE
  5
227
100
AcDbEntity
  8
0
100
AcDbLine
 62
7
  6
BYLAYER
 10
27.7502878853
 20
108.4268958316
 11
27.4131321826
 21
108.2322400578
  0
LINE
  5
228
100
AcDbEntity
  8
0
100
AcDbLine
 62
7
  6
BYLAYER
 10
63.2726083949
 20
128.7624206819
 11
27.9881269179
 21
108.3910374037
  0
LINE
  5
229
100
AcDbEntity
  8
0
100
AcDbLine
 62
7
  6
BYLAYER
 10
27.3253194836
 20
108.0083060683
 11
26.9881407748
 21
107.813637012
  0
LINE
  5
22A
100
AcDbEntity
  8
0
100
AcDbLine
 62
7
  6
BYLAYER
 10
63.272626415
 20
127.6077014864
 11
27.988144938
 21
107.2363182082
  0
LINE
  5
22B
100
AcDbEntity
  8
0
100
AcDbLine
 62
7
  6
BYLAYER
 10
169.7257105931
 20
188.1731598424
 11
63.660135011
 21
126.9365367617
  0
LINE
  5
22C
100
AcDbEntity
  8
0
100
AcDbLine
 62
7
  6
BYLAYER
 10
188.171626658
 20
196.3048510153
 11
183.5906534881
 21
193.6600387361
  0
LINE
  5
22D
100
AcDbEntity
  8
0
100
AcDbLine
 62
7
  6
BYLAYER
 10
174.4592660197
 20
187.8461111676
 11
179.5359193821
 21
190.7771008573
  0
LINE
  5
22E
100
AcDbEntity
  8
0
100
AcDbLine
 62
7
  6
BYLAYER
 10
182.6003133046
 20
192.1999093102
 11
179.68598936
 21
190.5173336399
  0
LINE
  5
22F
100
AcDbEntity
  8
0
100
AcDbLine
 62
7
  6
BYLAYER
 10
188.8510822685
 20
195.1280341848
 11
194.7907545011
 21
198.5572850774
  0
LINE
  5
230
100
AcDbEntity
  8
0
100
AcDbLine
 62
7
  6
BYLAYER
 10
184.7191490258
 20
192.3619869925
 11
194.9555152749
 21
198.2719194867
  0
LINE
  5
231
100
AcDbEntity
  8
0
100
AcDbLine
 62
7
  6
BYLAYER
 10
186.160972367
 20
192.7440952607
 11
193.019879588
 21
196.7040635533
  0
LINE
  5
232
100
AcDbEntity
  8
0
100
AcDbLine
 62
7
  6
BYLAYER
 10
165.8422549722
 20
194.074022112
 11
167.8934622599
 21
196.1075573268
  0
LINE
  5
233
100
AcDbEntity
  8
0
100
AcDbLine
 62
7
  6
BYLAYER
 10
193.8709789047
 20
196.974944064
 11
193.1153581603
 21
196.5386888279
  0
LINE
  5
234
100
AcDbEntity
  8
0
100
AcDbLine
 62
7
  6
BYLAYER
 10
185.1028913232
 20
191.912716556
 11
183.6345317954
 21
191.0649638478
  0
LINE
  5
235
100
AcDbEntity
  8
0
100
AcDbLine
 62
7
  6
BYLAYER
 10
202.4561338588
 20
201.700616235
 11
201.1450866728
 21
200.9436873075
  0
LINE
  5
236
100
AcDbEntity
  8
0
100
AcDbLine
 62
7
  6
BYLAYER
 10
196.0921993239
 20
198.0264188502
 11
195.2138685798
 21
197.5193173857
  0
LINE
  5
237
100
AcDbEntity
  8
0
100
AcDbLine
 62
7
  6
BYLAYER
 10
200.5098215637
 20
200.1727744298
 11
196.2671985405
 21
197.7233095065
  0
LINE
  5
238
100
AcDbEntity
  8
0
100
AcDbLine
 62
7
  6
BYLAYER
 10
170.5442572959
 20
185.9298665762
 11
173.3309580221
 21
186.6894821827
  0
LINE
  5
239
100
AcDbEntity
  8
0
100
AcDbLine
 62
7
  6
BYLAYER
 10
186.5698697517
 20
208.2981116915
 11
186.463525093
 21
208.2987966293
  0
LINE
  5
23A
100
AcDbEntity
  8
0
100
AcDbLine
 62
7
  6
BYLAYER
 10
193.1741135806
 20
196.6760602016
 11
193.2266772695
 21
196.7685238808
  0
LINE
  5
23B
100
AcDbEntity
  8
0
100
AcDbLine
 62
7
  6
BYLAYER
 10
182.961342123
 20
205.3290616305
 11
183.6408288617
 21
204.1521908859
  0
LINE
  5
23C
100
AcDbEntity
  8
0
100
AcDbLine
 62
7
  6
BYLAYER
 10
188.171626658
 20
196.3048510153
 11
188.8510822685
 21
195.1280341848
  0
LINE
  5
23D
100
AcDbEntity
  8
0
100
AcDbLine
 62
7
  6
BYLAYER
 10
185.3635403356
 20
207.6636561984
 11
185.4141829533
 21
207.5759432059
  0
LINE
  5
23E
100
AcDbEntity
  8
0
100
AcDbLine
 62
7
  6
BYLAYER
 10
192.0234142213
 20
196.1287574397
 11
192.0741288231
 21
196.0409197708
  0
LINE
  5
23F
100
AcDbEntity
  8
0
100
AcDbLine
 62
7
  6
BYLAYER
 10
193.1741135806
 20
196.6760602016
 11
193.1234273854
 21
196.7638486703
  0
LINE
  5
240
100
AcDbEntity
  8
0
100
AcDbLine
 62
7
  6
BYLAYER
 10
186.5141961174
 20
208.2110344365
 11
186.463525093
 21
208.2987966293
  0
LINE
  5
241
100
AcDbEntity
  8
0
100
AcDbLine
 62
7
  6
BYLAYER
 10
188.7362535818
 20
209.0436781137
 11
188.9010143556
 21
208.758312523
  0
LINE
  5
242
100
AcDbEntity
  8
0
100
AcDbLine
 62
7
  6
BYLAYER
 10
194.7907545011
 20
198.5572850774
 11
194.9555152749
 21
198.2719194867
  0
ARC
  5
243
100
AcDbEntity
  8
0
100
AcDbCircle
 62
7
  6
BYLAYER
 10
305.6314443465
 20
299.5220363138
 40
164.6769014099
100
AcDbArc
 50
221.0022564231
 51
221.328212717
  0
ARC
  5
244
100
AcDbEntity
  8
0
100
AcDbCircle
 62
7
  6
BYLAYER
 10
320.7905667588
 20
250.5095587732
 40
153.0824220585
100
AcDbArc
 50
198.6539537469
 51
199.0045484518
  0
ARC
  5
245
100
AcDbEntity
  8
0
100
AcDbCircle
 62
7
  6
BYLAYER
 10
287.2258609297
 20
282.6184716092
 40
136.5791309121
100
AcDbArc
 50
220.6421455263
 51
221.3637057386
  0
ARC
  5
246
100
AcDbEntity
  8
0
100
AcDbCircle
 62
7
  6
BYLAYER
 10
307.9118697921
 20
246.7845501551
 40
136.575518375
100
AcDbArc
 50
198.6393139644
 51
199.360885132
  0
ARC
  5
247
100
AcDbEntity
  8
0
100
AcDbCircle
 62
7
  6
BYLAYER
 10
189.4910441506
 20
202.2981093073
 40
12.7234651962
100
AcDbArc
 50
28.6147658637
 51
30.0009109068
  0
ARC
  5
248
100
AcDbEntity
  8
0
100
AcDbCircle
 62
7
  6
BYLAYER
 10
189.5199753429
 20
202.3137405604
 40
12.6906024335
100
AcDbArc
 50
31.9210407217
 51
32.5599465198
  0
ARC
  5
249
100
AcDbEntity
  8
0
100
AcDbCircle
 62
7
  6
BYLAYER
 10
189.5439928625
 20
202.3284277714
 40
12.6624510399
100
AcDbArc
 50
30.001900791
 51
31.9220954193
  0
ARC
  5
24A
100
AcDbEntity
  8
0
100
AcDbCircle
 62
7
  6
BYLAYER
 10
185.3416334041
 20
199.9024989402
 40
12.615813718
100
AcDbArc
 50
30.0007675569
 51
30.2525046401
  0
ARC
  5
24B
100
AcDbEntity
  8
0
100
AcDbCircle
 62
7
  6
BYLAYER
 10
189.5862024488
 20
202.3502714729
 40
12.6149488387
100
AcDbArc
 50
27.4671046976
 51
28.0759183036
  0
ARC
  5
24C
100
AcDbEntity
  8
0
100
AcDbCircle
 62
7
  6
BYLAYER
 10
189.60097087
 20
202.3581573599
 40
12.5982068727
100
AcDbArc
 50
28.0758851596
 51
28.6144572334
  0
ARC
  5
24D
100
AcDbEntity
  8
0
100
AcDbCircle
 62
7
  6
BYLAYER
 10
185.8718785077
 20
200.0239180441
 40
10.8680111551
100
AcDbArc
 50
18.5029764396
 51
19.379570263
  0
ARC
  5
24E
100
AcDbEntity
  8
0
100
AcDbCircle
 62
7
  6
BYLAYER
 10
191.7317209795
 20
203.1100105424
 40
10.3353713196
100
AcDbArc
 50
11.7298213813
 51
15.9284920967
  0
ARC
  5
24F
100
AcDbEntity
  8
0
100
AcDbCircle
 62
7
  6
BYLAYER
 10
192.6871428621
 20
203.3163024067
 40
9.3579660921
100
AcDbArc
 50
8.3887364742
 51
11.682373356
  0
ARC
  5
250
100
AcDbEntity
  8
0
100
AcDbCircle
 62
7
  6
BYLAYER
 10
195.0227954924
 20
199.8831905625
 40
2.4926180016
100
AcDbArc
 50
287.7985531062
 51
299.9481461583
  0
ARC
  5
251
100
AcDbEntity
  8
0
100
AcDbCircle
 62
7
  6
BYLAYER
 10
190.1635580069
 20
208.2990963599
 40
2.4891840083
100
AcDbArc
 50
120.0448314979
 51
131.4885910342
  0
ARC
  5
252
100
AcDbEntity
  8
0
100
AcDbCircle
 62
7
  6
BYLAYER
 10
194.4027801835
 20
210.7466423638
 40
2.4891454284
100
AcDbArc
 50
108.5162939793
 51
119.9549530042
  0
ARC
  5
253
100
AcDbEntity
  8
0
100
AcDbCircle
 62
7
  6
BYLAYER
 10
199.2706616534
 20
202.3172484094
 40
2.4766602087
100
AcDbArc
 50
300.0209850997
 51
309.6767140925
  0
ARC
  5
254
100
AcDbEntity
  8
0
100
AcDbCircle
 62
7
  6
BYLAYER
 10
195.0390979224
 20
199.850523365
 40
2.4561751432
100
AcDbArc
 50
299.9990531643
 51
300.8080712551
  0
ARC
  5
255
100
AcDbEntity
  8
0
100
AcDbCircle
 62
7
  6
BYLAYER
 10
191.4358675445
 20
198.3631202103
 40
2.4223275491
100
AcDbArc
 50
313.6447906938
 51
315.8561351971
  0
ARC
  5
256
100
AcDbEntity
  8
0
100
AcDbCircle
 62
7
  6
BYLAYER
 10
187.0482914355
 20
205.9768133619
 40
2.3944849068
100
AcDbArc
 50
104.1353786052
 51
109.3162368999
  0
ARC
  5
257
100
AcDbEntity
  8
0
100
AcDbCircle
 62
7
  6
BYLAYER
 10
187.0220944033
 20
206.0526824794
 40
2.3142211983
100
AcDbArc
 50
109.3254914147
 51
114.6256591941
  0
ARC
  5
258
100
AcDbEntity
  8
0
100
AcDbCircle
 62
7
  6
BYLAYER
 10
187.0059968993
 20
206.0887805898
 40
2.2746986266
100
AcDbArc
 50
114.6359415062
 51
119.9969766952
  0
ARC
  5
259
100
AcDbEntity
  8
0
100
AcDbCircle
 62
7
  6
BYLAYER
 10
175.2645057304
 20
198.175720423
 40
1.7569006884
100
AcDbArc
 50
120.0069139618
 51
123.7847964178
  0
ARC
  5
25A
100
AcDbEntity
  8
0
100
AcDbCircle
 62
7
  6
BYLAYER
 10
178.8073554182
 20
192.038748253
 40
1.7569006883
100
AcDbArc
 50
296.1990940009
 51
303.7847964179
  0
ARC
  5
25B
100
AcDbEntity
  8
0
100
AcDbCircle
 62
7
  6
BYLAYER
 10
178.5172358244
 20
205.4313064749
 40
1.5481533888
100
AcDbArc
 50
284.2192699195
 51
285.9103900714
  0
ARC
  5
25C
100
AcDbEntity
  8
0
100
AcDbCircle
 62
7
  6
BYLAYER
 10
184.2544191599
 20
208.7427782113
 40
1.5474669952
100
AcDbArc
 50
314.0935399365
 51
315.7854326973
  0
SPLINE
  5
25D
100
AcDbEntity
  8
0
100
AcDbSpline
 62
7
  6
BYLAYER
 70
0
 71
3
 72
9
 73
5
 74
0
 42
0.0000001
 43
0.0000001
 44
0.0000000001
 40
0.0
 40
0.0
 40
0.0
 40
0.0
 40
0.2450626207
 40
1.0
 40
1.0
 40
1.0
 40
1.0
 10
61.3100828803
 20
131.00682606
 30
0.0
 10
61.284615497
 20
130.9921209792
 30
0.0
 10
61.1841265492
 20
130.9262256627
 30
0.0
 10
61.0994150894
 20
130.837298377
 30
0.0
 10
61.0471130501
 20
130.7633272115
 30
0.0
  0
SPLINE
  5
25E
100
AcDbEntity
  8
0
100
AcDbSpline
 62
7
  6
BYLAYER
 70
0
 71
3
 72
9
 73
5
 74
0
 42
0.0000001
 43
0.0000001
 44
0.0000000001
 40
0.0
 40
0.0
 40
0.0
 40
0.0
 40
0.2239803123
 40
1.0
 40
1.0
 40
1.0
 40
1.0
 10
61.0471130501
 20
130.7633272115
 30
0.0
 10
61.0084402608
 20
130.7086319963
 30
0.0
 10
60.862056121
 20
130.4455719059
 30
0.0
 10
60.8207960167
 20
130.1354631262
 30
0.0
 10
60.8236442923
 20
129.9033949779
 30
0.0
  0
SPLINE
  5
25F
100
AcDbEntity
  8
0
100
AcDbSpline
 62
7
  6
BYLAYER
 70
0
 71
3
 72
11
 73
7
 74
0
 42
0.0000001
 43
0.0000001
 44
0.0000000001
 40
0.0
 40
0.0
 40
0.0
 40
0.0
 40
0.2906006501
 40
0.5501182453
 40
0.7831739908
 40
1.0
 40
1.0
 40
1.0
 40
1.0
 10
62.461265512
 20
127.0669475422
 30
0.0
 10
62.5662513875
 20
127.0046037126
 30
0.0
 10
62.7750663937
 20
126.9019813414
 30
0.0
 10
63.0969779295
 20
126.8204793454
 30
0.0
 10
63.3991662528
 20
126.8257779057
 30
0.0
 10
63.5812388897
 20
126.8909814791
 30
0.0
 10
63.660135011
 20
126.9365367617
 30
0.0
  0
SPLINE
  5
260
100
AcDbEntity
  8
0
100
AcDbSpline
 62
7
  6
BYLAYER
 70
0
 71
3
 72
11
 73
7
 74
0
 42
0.0000001
 43
0.0000001
 44
0.0000000001
 40
0.0
 40
0.0
 40
0.0
 40
0.0
 40
0.1829545783
 40
0.4153951104
 40
0.6977558721
 40
1.0
 40
1.0
 40
1.0
 40
1.0
 10
26.4131099993
 20
109.9642780571
 30
0.0
 10
26.3684993029
 20
109.9385194666
 30
0.0
 10
26.2948233018
 20
109.8337801111
 30
0.0
 10
26.2869150671
 20
109.6320299007
 30
0.0
 10
26.3479104328
 20
109.4077985221
 30
0.0
 10
26.4312081777
 20
109.2632216136
 30
0.0
 10
26.482856587
 20
109.1955858517
 30
0.0
  0
SPLINE
  5
261
100
AcDbEntity
  8
0
100
AcDbSpline
 62
7
  6
BYLAYER
 70
0
 71
3
 72
9
 73
5
 74
0
 42
0.0000001
 43
0.0000001
 44
0.0000000001
 40
0.0
 40
0.0
 40
0.0
 40
0.0
 40
0.5477310273
 40
1.0
 40
1.0
 40
1.0
 40
1.0
 10
26.482856587
 20
109.1955858517
 30
0.0
 10
26.5310523725
 20
109.1324714457
 30
0.0
 10
26.633021771
 20
109.0273010714
 30
0.0
 10
26.7667021113
 20
108.9582178792
 30
0.0
 10
26.8311854332
 20
108.9463212625
 30
0.0
  0
SPLINE
  5
262
100
AcDbEntity
  8
0
100
AcDbSpline
 62
7
  6
BYLAYER
 70
0
 71
3
 72
9
 73
5
 74
0
 42
0.0000001
 43
0.0000001
 44
0.0000000001
 40
0.0
 40
0.0
 40
0.0
 40
0.0
 40
0.2714336299
 40
1.0
 40
1.0
 40
1.0
 40
1.0
 10
26.8311854332
 20
108.9463212625
 30
0.0
 10
26.845447123
 20
108.9436901037
 30
0.0
 10
26.8984536995
 20
108.9375421175
 30
0.0
 10
26.9544123312
 20
108.9488915261
 30
0.0
 10
26.9881227547
 20
108.9683562075
 30
0.0
  0
SPLINE
  5
263
100
AcDbEntity
  8
0
100
AcDbSpline
 62
7
  6
BYLAYER
 70
0
 71
3
 72
15
 73
11
 74
0
 42
0.0000001
 43
0.0000001
 44
0.0000000001
 40
0.0
 40
0.0
 40
0.0
 40
0.0
 40
0.0932461641
 40
0.2076017334
 40
0.3463034568
 40
0.4999783433
 40
0.6536540989
 40
0.7923666144
 40
0.9067473431
 40
1.0
 40
1.0
 40
1.0
 40
1.0
 10
27.4131321826
 20
108.2322400578
 30
0.0
 10
27.3743455933
 20
108.2098443556
 30
0.0
 10
27.3075357974
 20
108.1257221172
 30
0.0
 10
27.2846830178
 20
107.956491482
 30
0.0
 10
27.3190117298
 20
107.7620447368
 30
0.0
 10
27.406194271
 20
107.5643110415
 30
0.0
 10
27.5338405759
 20
107.3899318064
 30
0.0
 10
27.6850793101
 20
107.2629604218
 30
0.0
 10
27.8430806914
 20
107.1981198005
 30
0.0
 10
27.949355648
 20
107.2139209466
 30
0.0
 10
27.988144938
 20
107.2363182082
 30
0.0
  0
SPLINE
  5
264
100
AcDbEntity
  8
0
100
AcDbSpline
 62
7
  6
BYLAYER
 70
0
 71
3
 72
11
 73
7
 74
0
 42
0.0000001
 43
0.0000001
 44
0.0000000001
 40
0.0
 40
0.0
 40
0.0
 40
0.0
 40
0.1829545783
 40
0.4153951104
 40
0.6977558721
 40
1.0
 40
1.0
 40
1.0
 40
1.0
 10
27.4131141625
 20
109.3869592533
 30
0.0
 10
27.3685034661
 20
109.3612006628
 30
0.0
 10
27.294827465
 20
109.2564613073
 30
0.0
 10
27.2869192303
 20
109.0547110969
 30
0.0
 10
27.3479145961
 20
108.8304797183
 30
0.0
 10
27.4312123409
 20
108.6859028098
 30
0.0
 10
27.4828607502
 20
108.6182670479
 30
0.0
  0
SPLINE
  5
265
100
AcDbEntity
  8
0
100
AcDbSpline
 62
7
  6
BYLAYER
 70
0
 71
3
 72
9
 73
5
 74
0
 42
0.0000001
 43
0.0000001
 44
0.0000000001
 40
0.0
 40
0.0
 40
0.0
 40
0.0
 40
0.5477310273
 40
1.0
 40
1.0
 40
1.0
 40
1.0
 10
27.4828607502
 20
108.6182670479
 30
0.0
 10
27.5310565357
 20
108.5551526419
 30
0.0
 10
27.6330259343
 20
108.4499822675
 30
0.0
 10
27.7667062745
 20
108.3808990753
 30
0.0
 10
27.8311895964
 20
108.3690024587
 30
0.0
  0
SPLINE
  5
266
100
AcDbEntity
  8
0
100
AcDbSpline
 62
7
  6
BYLAYER
 70
0
 71
3
 72
9
 73
5
 74
0
 42
0.0000001
 43
0.0000001
 44
0.0000000001
 40
0.0
 40
0.0
 40
0.0
 40
0.0
 40
0.2714336299
 40
1.0
 40
1.0
 40
1.0
 40
1.0
 10
27.8311895964
 20
108.3690024587
 30
0.0
 10
27.8454512863
 20
108.3663712999
 30
0.0
 10
27.8984578627
 20
108.3602233137
 30
0.0
 10
27.9544164944
 20
108.3715727222
 30
0.0
 10
27.9881269179
 20
108.3910374037
 30
0.0
  0
SPLINE
  5
267
100
AcDbEntity
  8
0
100
AcDbSpline
 62
7
  6
BYLAYER
 70
0
 71
3
 72
15
 73
11
 74
0
 42
0.0000001
 43
0.0000001
 44
0.0000000001
 40
0.0
 40
0.0
 40
0.0
 40
0.0
 40
0.0932461641
 40
0.2076017334
 40
0.3463034568
 40
0.4999783433
 40
0.6536540989
 40
0.7923666144
 40
0.9067473431
 40
1.0
 40
1.0
 40
1.0
 40
1.0
 10
26.4131280194
 20
108.8095588616
 30
0.0
 10
26.3743414301
 20
108.7871631595
 30
0.0
 10
26.3075316341
 20
108.703040921
 30
0.0
 10
26.2846788546
 20
108.5338102858
 30
0.0
 10
26.3190075665
 20
108.3393635407
 30
0.0
 10
26.4061901077
 20
108.1416298454
 30
0.0
 10
26.5338364127
 20
107.9672506103
 30
0.0
 10
26.6850751469
 20
107.8402792257
 30
0.0
 10
26.8430765282
 20
107.7754386043
 30
0.0
 10
26.9493514848
 20
107.7912397504
 30
0.0
 10
26.9881407748
 20
107.813637012
 30
0.0
  0
SPLINE
  5
268
100
AcDbEntity
  8
0
100
AcDbSpline
 62
7
  6
BYLAYER
 70
0
 71
3
 72
11
 73
7
 74
0
 42
0.0000001
 43
0.0000001
 44
0.0000000001
 40
0.0
 40
0.0
 40
0.0
 40
0.0
 40
0.2941457046
 40
0.5585498941
 40
0.7920070805
 40
1.0
 40
1.0
 40
1.0
 40
1.0
 10
167.7356629991
 20
186.9112976558
 30
0.0
 10
167.9641906923
 20
186.7134423092
 30
0.0
 10
168.4266631119
 20
186.3684002056
 30
0.0
 10
169.1613790995
 20
186.0055247965
 30
0.0
 10
169.8753923838
 20
185.8390977814
 30
0.0
 10
170.3380261727
 20
185.8736848473
 30
0.0
 10
170.5442478052
 20
185.9298869741
 30
0.0
  0
SPLINE
  5
269
100
AcDbEntity
  8
0
100
AcDbSpline
 62
7
  6
BYLAYER
 70
0
 71
3
 72
13
 73
9
 74
0
 42
0.0000001
 43
0.0000001
 44
0.0000000001
 40
0.0
 40
0.0
 40
0.0
 40
0.0
 40
0.3031838113
 40
0.5789844099
 40
0.7007449187
 40
0.8103121152
 40
0.9089167689
 40
1.0
 40
1.0
 40
1.0
 40
1.0
 10
173.7755098517
 20
193.2250101072
 30
0.0
 10
174.1151971827
 20
192.6366717932
 30
0.0
 10
174.6475622342
 20
191.44181699
 30
0.0
 10
174.9491870309
 20
189.8795204016
 30
0.0
 10
174.8951501155
 20
188.739105808
 30
0.0
 10
174.7189400111
 20
188.0152841436
 30
0.0
 10
174.4081052826
 20
187.4126934373
 30
0.0
 10
174.1057393411
 20
187.1022914731
 30
0.0
 10
173.9409680351
 20
186.9818541829
 30
0.0
  0
SPLINE
  5
26A
100
AcDbEntity
  8
0
100
AcDbSpline
 62
7
  6
BYLAYER
 70
0
 71
3
 72
9
 73
5
 74
0
 42
0.0000001
 43
0.0000001
 44
0.0000000001
 40
0.0
 40
0.0
 40
0.0
 40
0.0
 40
0.7470286118
 40
1.0
 40
1.0
 40
1.0
 40
1.0
 10
173.9409680351
 20
186.9818541829
 30
0.0
 10
173.8045510192
 20
186.8821420661
 30
0.0
 10
173.6016755757
 20
186.7735254206
 30
0.0
 10
173.3861237892
 20
186.7046203115
 30
0.0
 10
173.3309190653
 20
186.6895654654
 30
0.0
  0
SPLINE
  5
26B
100
AcDbEntity
  8
0
100
AcDbSpline
 62
7
  6
BYLAYER
 70
0
 71
3
 72
9
 73
5
 74
0
 42
0.0000001
 43
0.0000001
 44
0.0000000001
 40
0.0
 40
0.0
 40
0.0
 40
0.0
 40
0.2463735819
 40
1.0
 40
1.0
 40
1.0
 40
1.0
 10
174.2875370184
 20
199.6359369017
 30
0.0
 10
174.2488860439
 20
199.610080489
 30
0.0
 10
174.096159898
 20
199.4989949923
 30
0.0
 10
173.9612476115
 20
199.3638765926
 30
0.0
 10
173.8719686431
 20
199.2531393466
 30
0.0
  0
SPLINE
  5
26C
100
AcDbEntity
  8
0
100
AcDbSpline
 62
7
  6
BYLAYER
 70
0
 71
3
 72
9
 73
5
 74
0
 42
0.0000001
 43
0.0000001
 44
0.0000000001
 40
0.0
 40
0.0
 40
0.0
 40
0.0
 40
0.2551082357
 40
1.0
 40
1.0
 40
1.0
 40
1.0
 10
179.0490324027
 20
190.2949333605
 30
0.0
 10
179.0961531156
 20
190.3024046256
 30
0.0
 10
179.2797550095
 20
190.3381704796
 30
0.0
 10
179.4582561994
 20
190.4009677459
 30
0.0
 10
179.5832476326
 20
190.4624779826
 30
0.0
  0
SPLINE
  5
26D
100
AcDbEntity
  8
0
100
AcDbSpline
 62
7
  6
BYLAYER
 70
0
 71
3
 72
9
 73
5
 74
0
 42
0.0000001
 43
0.0000001
 44
0.0000000001
 40
0.0
 40
0.0
 40
0.0
 40
0.0
 40
0.5178606133
 40
1.0
 40
1.0
 40
1.0
 40
1.0
 10
184.810670491
 20
207.2274086927
 30
0.0
 10
184.9093146229
 20
207.2843605689
 30
0.0
 10
185.0877764386
 20
207.4144452643
 30
0.0
 10
185.2551188427
 20
207.5574996811
 30
0.0
 10
185.3311959415
 20
207.6313800541
 30
0.0
  0
SPLINE
  5
26E
100
AcDbEntity
  8
0
100
AcDbSpline
 62
7
  6
BYLAYER
 70
0
 71
3
 72
11
 73
7
 74
0
 42
0.0000001
 43
0.0000001
 44
0.0000000001
 40
0.0
 40
0.0
 40
0.0
 40
0.0
 40
0.2078413139
 40
0.4490430509
 40
0.7171291971
 40
1.0
 40
1.0
 40
1.0
 40
1.0
 10
188.9010143556
 20
208.758312523
 30
0.0
 10
189.3423848794
 20
208.6887094897
 30
0.0
 10
190.2674269661
 20
208.3539618899
 30
0.0
 10
191.5460025872
 20
207.4736449127
 30
0.0
 10
192.7411290073
 20
206.2474324359
 30
0.0
 10
193.416788651
 20
205.2670732921
 30
0.0
 10
193.7208584466
 20
204.7404245345
 30
0.0
  0
SPLINE
  5
26F
100
AcDbEntity
  8
0
100
AcDbSpline
 62
7
  6
BYLAYER
 70
0
 71
3
 72
9
 73
5
 74
0
 42
0.0000001
 43
0.0000001
 44
0.0000000001
 40
0.0
 40
0.0
 40
0.0
 40
0.0
 40
0.4810684955
 40
1.0
 40
1.0
 40
1.0
 40
1.0
 10
187.0708280583
 20
208.7528024593
 30
0.0
 10
187.3088495369
 20
208.8902380587
 30
0.0
 10
187.8611136582
 20
209.0840230999
 30
0.0
 10
188.4422707472
 20
209.0820990736
 30
0.0
 10
188.7362535818
 20
209.0436781137
 30
0.0
  0
SPLINE
  5
270
100
AcDbEntity
  8
0
100
AcDbSpline
 62
7
  6
BYLAYER
 70
0
 71
3
 72
9
 73
5
 74
0
 42
0.0000001
 43
0.0000001
 44
0.0000000001
 40
0.0
 40
0.0
 40
0.0
 40
0.0
 40
0.5189353588
 40
1.0
 40
1.0
 40
1.0
 40
1.0
 10
194.9555152749
 20
198.2719194867
 30
0.0
 10
194.8418120422
 20
197.9980978975
 30
0.0
 10
194.5529318704
 20
197.493809499
 30
0.0
 10
194.1090029506
 20
197.1123811458
 30
0.0
 10
193.8709789047
 20
196.974944064
 30
0.0
  0
SPLINE
  5
271
100
AcDbEntity
  8
0
100
AcDbSpline
 62
7
  6
BYLAYER
 70
0
 71
3
 72
11
 73
7
 74
0
 42
0.0000001
 43
0.0000001
 44
0.0000000001
 40
0.0
 40
0.0
 40
0.0
 40
0.0
 40
0.2828672891
 40
0.5509527388
 40
0.792156078
 40
1.0
 40
1.0
 40
1.0
 40
1.0
 10
193.7208584466
 20
204.7404245345
 30
0.0
 10
194.0249298529
 20
204.2137729872
 30
0.0
 10
194.5361481006
 20
203.1384570998
 30
0.0
 10
195.0005694975
 20
201.4903309828
 30
0.0
 10
195.1237166197
 20
199.942863932
 30
0.0
 10
194.9511404161
 20
198.9743473824
 30
0.0
 10
194.7907545011
 20
198.5572850774
 30
0.0
  0
SPLINE
  5
272
100
AcDbEntity
  8
0
100
AcDbSpline
 62
7
  6
BYLAYER
 70
0
 71
3
 72
9
 73
5
 74
0
 42
0.0000001
 43
0.0000001
 44
0.0000000001
 40
0.0
 40
0.0
 40
0.0
 40
0.0
 40
0.4659905519
 40
1.0
 40
1.0
 40
1.0
 40
1.0
 10
192.0741288231
 20
196.0409197708
 30
0.0
 10
191.9678799111
 20
196.0141293306
 30
0.0
 10
191.7455044913
 20
195.9364605209
 30
0.0
 10
191.5286475329
 20
195.8430069539
 30
0.0
 10
191.4199017589
 20
195.7802229268
 30
0.0
  0
SPLINE
  5
273
100
AcDbEntity
  8
0
100
AcDbSpline
 62
7
  6
BYLAYER
 70
0
 71
3
 72
9
 73
5
 74
0
 42
0.0000001
 43
0.0000001
 44
0.0000000001
 40
0.0
 40
0.0
 40
0.0
 40
0.0
 40
0.5189317615
 40
1.0
 40
1.0
 40
1.0
 40
1.0
 10
181.9691055397
 20
190.7740882891
 30
0.0
 10
182.2630887469
 20
190.7356672387
 30
0.0
 10
182.8442466899
 20
190.7337394243
 30
0.0
 10
183.3965102559
 20
190.9275282132
 30
0.0
 10
183.6345317954
 20
191.0649638478
 30
0.0
  0
SPLINE
  5
274
100
AcDbEntity
  8
0
100
AcDbSpline
 62
7
  6
BYLAYER
 70
0
 71
3
 72
9
 73
5
 74
0
 42
0.0000001
 43
0.0000001
 44
0.0000000001
 40
0.0
 40
0.0
 40
0.0
 40
0.0
 40
0.4810643777
 40
1.0
 40
1.0
 40
1.0
 40
1.0
 10
176.8343809491
 20
202.8428222431
 30
0.0
 10
176.5963568455
 20
202.705385128
 30
0.0
 10
176.1524249973
 20
202.323959111
 30
0.0
 10
175.8635475629
 20
201.8196681295
 30
0.0
 10
175.7498442956
 20
201.5458461381
 30
0.0
  0
SPLINE
  5
275
100
AcDbEntity
  8
0
100
AcDbSpline
 62
7
  6
BYLAYER
 70
0
 71
3
 72
10
 73
6
 74
0
 42
0.0000001
 43
0.0000001
 44
0.0000000001
 40
0.0
 40
0.0
 40
0.0
 40
0.0
 40
0.6429966222
 40
0.8588107269
 40
1.0
 40
1.0
 40
1.0
 40
1.0
 10
186.41064832
 20
208.1512493195
 30
0.0
 10
186.4493556886
 20
208.1735968958
 30
0.0
 10
186.5005502079
 20
208.2055218749
 30
0.0
 10
186.5518330379
 20
208.2521210486
 30
0.0
 10
186.5671871553
 20
208.2725708514
 30
0.0
 10
186.5703303029
 20
208.2818681282
 30
0.0
  0
SPLINE
  5
276
100
AcDbEntity
  8
0
100
AcDbSpline
 62
7
  6
BYLAYER
 70
0
 71
3
 72
8
 73
4
 74
0
 42
0.0000001
 43
0.0000001
 44
0.0000000001
 40
0.0
 40
0.0
 40
0.0
 40
0.0
 40
1.0
 40
1.0
 40
1.0
 40
1.0
 10
186.5703303029
 20
208.2818681282
 30
0.0
 10
186.5720680794
 20
208.2870083857
 30
0.0
 10
186.5725576997
 20
208.2934392533
 30
0.0
 10
186.5698459511
 20
208.2981390973
 30
0.0
  0
SPLINE
  5
277
100
AcDbEntity
  8
0
100
AcDbSpline
 62
7
  6
BYLAYER
 70
0
 71
3
 72
14
 73
10
 74
0
 42
0.0000001
 43
0.0000001
 44
0.0000000001
 40
0.0
 40
0.0
 40
0.0
 40
0.0
 40
0.0907895829
 40
0.188001626
 40
0.2960826019
 40
0.4168989246
 40
0.5501487477
 40
0.6938976317
 40
1.0
 40
1.0
 40
1.0
 40
1.0
 10
195.4562112306
 20
213.82491027
 30
0.0
 10
195.6870901542
 20
213.9582122043
 30
0.0
 10
196.2176176531
 20
214.1508913968
 30
0.0
 10
197.0986319133
 20
214.1730461419
 30
0.0
 10
198.0380320503
 20
213.9464599486
 30
0.0
 10
199.0036542084
 20
213.4869328302
 30
0.0
 10
199.9640048375
 20
212.8136085015
 30
0.0
 10
201.2171563648
 20
211.6413157337
 30
0.0
 10
202.006665748
 20
210.5621261958
 30
0.0
 10
202.456101029
 20
209.7837044788
 30
0.0
  0
SPLINE
  5
278
100
AcDbEntity
  8
0
100
AcDbSpline
 62
7
  6
BYLAYER
 70
0
 71
3
 72
9
 73
5
 74
0
 42
0.0000001
 43
0.0000001
 44
0.0000000001
 40
0.0
 40
0.0
 40
0.0
 40
0.0
 40
0.2193636457
 40
1.0
 40
1.0
 40
1.0
 40
1.0
 10
178.9416367129
 20
203.9424603442
 30
0.0
 10
178.9558137782
 20
203.9464836035
 30
0.0
 10
179.020230592
 20
203.9655653493
 30
0.0
 10
179.0839322112
 20
203.9870193689
 30
0.0
 10
179.1332898892
 20
204.0047427147
 30
0.0
  0
SPLINE
  5
279
100
AcDbEntity
  8
0
100
AcDbSpline
 62
7
  6
BYLAYER
 70
0
 71
3
 72
9
 73
5
 74
0
 42
0.0000001
 43
0.0000001
 44
0.0000000001
 40
0.0
 40
0.0
 40
0.0
 40
0.0
 40
0.2555345082
 40
1.0
 40
1.0
 40
1.0
 40
1.0
 10
179.1332898892
 20
204.0047427147
 30
0.0
 10
179.1700394989
 20
204.0179387577
 30
0.0
 10
179.3129093258
 20
204.0719560051
 30
0.0
 10
179.4532234292
 20
204.1344021633
 30
0.0
 10
179.551741099
 20
204.191281027
 30
0.0
  0
SPLINE
  5
27A
100
AcDbEntity
  8
0
100
AcDbSpline
 62
7
  6
BYLAYER
 70
0
 71
3
 72
9
 73
5
 74
0
 42
0.0000001
 43
0.0000001
 44
0.0000000001
 40
0.0
 40
0.0
 40
0.0
 40
0.0
 40
0.2482748798
 40
1.0
 40
1.0
 40
1.0
 40
1.0
 10
178.3027404769
 20
203.6905749513
 30
0.0
 10
178.3487906608
 20
203.717164714
 30
0.0
 10
178.5379824808
 20
203.8177457019
 30
0.0
 10
178.7413959686
 20
203.89121934
 30
0.0
 10
178.8975140348
 20
203.9305841828
 30
0.0
  0
SPLINE
  5
27B
100
AcDbEntity
  8
0
100
AcDbSpline
 62
7
  6
BYLAYER
 70
0
 71
3
 72
9
 73
5
 74
0
 42
0.0000001
 43
0.0000001
 44
0.0000000001
 40
0.0
 40
0.0
 40
0.0
 40
0.0
 40
0.2468084857
 40
1.0
 40
1.0
 40
1.0
 40
1.0
 10
188.5145460366
 20
210.1637133579
 30
0.0
 10
188.4832889448
 20
210.1360871478
 30
0.0
 10
188.3594107679
 20
210.0210474216
 30
0.0
 10
188.2468487043
 20
209.8939324271
 30
0.0
 10
188.1690197131
 20
209.7931887232
 30
0.0
  0
SPLINE
  5
27C
100
AcDbEntity
  8
0
100
AcDbSpline
 62
7
  6
BYLAYER
 70
0
 71
3
 72
11
 73
7
 74
0
 42
0.0000001
 43
0.0000001
 44
0.0000000001
 40
0.0
 40
0.0
 40
0.0
 40
0.0
 40
0.2097857969
 40
0.4429736384
 40
0.7063018574
 40
1.0
 40
1.0
 40
1.0
 40
1.0
 10
193.6122914887
 20
213.1069331482
 30
0.0
 10
193.9107555764
 20
213.20699122
 30
0.0
 10
194.5842546124
 20
213.2988047114
 30
0.0
 10
195.6401534648
 20
213.1146152992
 30
0.0
 10
196.7360971275
 20
212.6401576503
 30
0.0
 10
197.4318023832
 20
212.1687006961
 30
0.0
 10
197.7775618802
 20
211.8954445483
 30
0.0
  0
SPLINE
  5
27D
100
AcDbEntity
  8
0
100
AcDbSpline
 62
7
  6
BYLAYER
 70
0
 71
3
 72
9
 73
5
 74
0
 42
0.0000001
 43
0.0000001
 44
0.0000000001
 40
0.0
 40
0.0
 40
0.0
 40
0.0
 40
0.484978307
 40
1.0
 40
1.0
 40
1.0
 40
1.0
 10
197.7775618802
 20
211.8954445483
 30
0.0
 10
198.2454800706
 20
211.525645531
 30
0.0
 10
199.1355541449
 20
210.6664657449
 30
0.0
 10
199.8751227824
 20
209.6773970738
 30
0.0
 10
200.2159809057
 20
209.1435908609
 30
0.0
  0
SPLINE
  5
27E
100
AcDbEntity
  8
0
100
AcDbSpline
 62
7
  6
BYLAYER
 70
0
 71
3
 72
9
 73
5
 74
0
 42
0.0000001
 43
0.0000001
 44
0.0000000001
 40
0.0
 40
0.0
 40
0.0
 40
0.0
 40
0.2482733169
 40
1.0
 40
1.0
 40
1.0
 40
1.0
 10
185.868751535
 20
208.0587873977
 30
0.0
 10
185.8227012514
 20
208.0321975775
 30
0.0
 10
185.6410080189
 20
207.9186263246
 30
0.0
 10
185.4756819632
 20
207.7791864679
 30
0.0
 10
185.3635403356
 20
207.6636561984
 30
0.0
  0
SPLINE
  5
27F
100
AcDbEntity
  8
0
100
AcDbSpline
 62
7
  6
BYLAYER
 70
0
 71
3
 72
9
 73
5
 74
0
 42
0.0000001
 43
0.0000001
 44
0.0000000001
 40
0.0
 40
0.0
 40
0.0
 40
0.0
 40
0.2468715315
 40
1.0
 40
1.0
 40
1.0
 40
1.0
 10
188.2138066074
 20
209.6436372562
 30
0.0
 10
188.1520876057
 20
209.6080001866
 30
0.0
 10
187.9087594464
 20
209.4522394173
 30
0.0
 10
187.6950800784
 20
209.2512590852
 30
0.0
 10
187.5565447153
 20
209.0836914254
 30
0.0
  0
SPLINE
  5
280
100
AcDbEntity
  8
0
100
AcDbSpline
 62
7
  6
BYLAYER
 70
0
 71
3
 72
10
 73
6
 74
0
 42
0.0000001
 43
0.0000001
 44
0.0000000001
 40
0.0
 40
0.0
 40
0.0
 40
0.0
 40
0.1587729458
 40
0.4912551554
 40
1.0
 40
1.0
 40
1.0
 40
1.0
 10
193.22669516
 20
196.7684764876
 30
0.0
 10
193.2251022765
 20
196.7712345802
 30
0.0
 10
193.2168925796
 20
196.7778326096
 30
0.0
 10
193.1958965231
 20
196.7785918798
 30
0.0
 10
193.1794789699
 20
196.7752882911
 30
0.0
 10
193.169615687
 20
196.7726674994
 30
0.0
  0
SPLINE
  5
281
100
AcDbEntity
  8
0
100
AcDbSpline
 62
7
  6
BYLAYER
 70
0
 71
3
 72
9
 73
5
 74
0
 42
0.0000001
 43
0.0000001
 44
0.0000000001
 40
0.0
 40
0.0
 40
0.0
 40
0.0
 40
0.2200554854
 40
1.0
 40
1.0
 40
1.0
 40
1.0
 10
193.169615687
 20
196.7726674994
 30
0.0
 10
193.1658980661
 20
196.7716796833
 30
0.0
 10
193.1491145631
 20
196.7667742806
 30
0.0
 10
193.1327677589
 20
196.7604671423
 30
0.0
 10
193.120217082
 20
196.7551421289
 30
0.0
  0
SPLINE
  5
282
100
AcDbEntity
  8
0
100
AcDbSpline
 62
7
  6
BYLAYER
 70
0
 71
3
 72
9
 73
5
 74
0
 42
0.0000001
 43
0.0000001
 44
0.0000000001
 40
0.0
 40
0.0
 40
0.0
 40
0.0
 40
0.2216933676
 40
1.0
 40
1.0
 40
1.0
 40
1.0
 10
193.120217082
 20
196.7551421289
 30
0.0
 10
193.1125550457
 20
196.7518912727
 30
0.0
 10
193.0783118925
 20
196.7364787317
 30
0.0
 10
193.0451852181
 20
196.7186736784
 30
0.0
 10
193.019879588
 20
196.7040635533
 30
0.0
  0
SPLINE
  5
283
100
AcDbEntity
  8
0
100
AcDbSpline
 62
7
  6
BYLAYER
 70
0
 71
3
 72
9
 73
5
 74
0
 42
0.0000001
 43
0.0000001
 44
0.0000000001
 40
0.0
 40
0.0
 40
0.0
 40
0.0
 40
0.2531114785
 40
1.0
 40
1.0
 40
1.0
 40
1.0
 10
185.6081025224
 20
192.3078477551
 30
0.0
 10
185.5703445541
 20
192.2689488346
 30
0.0
 10
185.4161416047
 20
192.1202396558
 30
0.0
 10
185.2414226317
 20
191.9927056962
 30
0.0
 10
185.1028913232
 20
191.912716556
 30
0.0
  0
SPLINE
  5
284
100
AcDbEntity
  8
0
100
AcDbSpline
 62
7
  6
BYLAYER
 70
0
 71
3
 72
9
 73
5
 74
0
 42
0.0000001
 43
0.0000001
 44
0.0000000001
 40
0.0
 40
0.0
 40
0.0
 40
0.0
 40
0.534017327
 40
1.0
 40
1.0
 40
1.0
 40
1.0
 10
186.160972367
 20
192.7440952607
 30
0.0
 10
186.0522248321
 20
192.6813102169
 30
0.0
 10
185.8628705719
 20
192.5402222726
 30
0.0
 10
185.6844205062
 20
192.3864718792
 30
0.0
 10
185.6081025224
 20
192.3078477551
 30
0.0
  0
SPLINE
  5
285
100
AcDbEntity
  8
0
100
AcDbSpline
 62
7
  6
BYLAYER
 70
0
 71
3
 72
9
 73
5
 74
0
 42
0.0000001
 43
0.0000001
 44
0.0000000001
 40
0.0
 40
0.0
 40
0.0
 40
0.0
 40
0.2529721284
 40
1.0
 40
1.0
 40
1.0
 40
1.0
 10
167.8935158476
 20
196.1074805904
 30
0.0
 10
167.9336602302
 20
196.1472724709
 30
0.0
 10
168.0989845536
 20
196.2977297069
 30
0.0
 10
168.2916907179
 20
196.4181279011
 30
0.0
 10
168.4440657049
 20
196.4862653759
 30
0.0
  0
SPLINE
  5
286
100
AcDbEntity
  8
0
100
AcDbSpline
 62
7
  6
BYLAYER
 70
0
 71
3
 72
13
 73
9
 74
0
 42
0.0000001
 43
0.0000001
 44
0.0000000001
 40
0.0
 40
0.0
 40
0.0
 40
0.0
 40
0.0910613104
 40
0.1896041722
 40
0.2991116476
 40
0.4208396326
 40
0.6966796964
 40
1.0
 40
1.0
 40
1.0
 40
1.0
 10
168.4440657049
 20
196.4862653759
 30
0.0
 10
168.6305555689
 20
196.5696579895
 30
0.0
 10
169.0504682162
 20
196.6781435463
 30
0.0
 10
169.7283757925
 20
196.6480341201
 30
0.0
 10
170.4442940358
 20
196.4399927357
 30
0.0
 10
171.4607576379
 20
195.9173579891
 30
0.0
 10
172.6653218066
 20
194.8742238406
 30
0.0
 10
173.4352693787
 20
193.8143064628
 30
0.0
 10
173.7755098517
 20
193.2250101072
 30
0.0
  0
SPLINE
  5
287
100
AcDbEntity
  8
0
100
AcDbSpline
 62
7
  6
BYLAYER
 70
0
 71
3
 72
9
 73
5
 74
0
 42
0.0000001
 43
0.0000001
 44
0.0000000001
 40
0.0
 40
0.0
 40
0.0
 40
0.0
 40
0.2531099764
 40
1.0
 40
1.0
 40
1.0
 40
1.0
 10
192.0741288231
 20
196.0409197708
 30
0.0
 10
192.1266934103
 20
196.0541738212
 30
0.0
 10
192.3325741302
 20
196.1133796434
 30
0.0
 10
192.5303719641
 20
196.2009403769
 30
0.0
 10
192.6689023814
 20
196.2809290024
 30
0.0
  0
SPLINE
  5
288
100
AcDbEntity
  8
0
100
AcDbSpline
 62
7
  6
BYLAYER
 70
0
 71
3
 72
11
 73
7
 74
0
 42
0.0000001
 43
0.0000001
 44
0.0000000001
 40
0.0
 40
0.0
 40
0.0
 40
0.0
 40
0.2080021803
 40
0.4414601348
 40
0.705860131
 40
1.0
 40
1.0
 40
1.0
 40
1.0
 10
165.8422710183
 20
194.0739992582
 30
0.0
 10
165.6905824413
 20
193.9235798051
 30
0.0
 10
165.4293975482
 20
193.540503748
 30
0.0
 10
165.2165002076
 20
192.8393910855
 30
0.0
 10
165.16321806
 20
192.0221894224
 30
0.0
 10
165.2305763382
 20
191.449487409
 30
0.0
 10
165.2875372862
 20
191.15281564
 30
0.0
  0
SPLINE
  5
289
100
AcDbEntity
  8
0
100
AcDbSpline
 62
7
  6
BYLAYER
 70
0
 71
3
 72
9
 73
5
 74
0
 42
0.0000001
 43
0.0000001
 44
0.0000000001
 40
0.0
 40
0.0
 40
0.0
 40
0.0
 40
0.2546028945
 40
1.0
 40
1.0
 40
1.0
 40
1.0
 10
194.4747664744
 20
197.2437902516
 30
0.0
 10
194.5405940956
 20
197.2568941527
 30
0.0
 10
194.7970457159
 20
197.3182682786
 30
0.0
 10
195.0437888013
 20
197.4211118912
 30
0.0
 10
195.2139618904
 20
197.5193712611
 30
0.0
  0
SPLINE
  5
28A
100
AcDbEntity
  8
0
100
AcDbSpline
 62
7
  6
BYLAYER
 70
0
 71
3
 72
9
 73
5
 74
0
 42
0.0000001
 43
0.0000001
 44
0.0000000001
 40
0.0
 40
0.0
 40
0.0
 40
0.0
 40
0.2537280497
 40
1.0
 40
1.0
 40
1.0
 40
1.0
 10
195.3095528877
 20
197.4041906563
 30
0.0
 10
195.3504053386
 20
197.4095376428
 30
0.0
 10
195.5109356462
 20
197.4340703302
 30
0.0
 10
195.6693530097
 20
197.4727821468
 30
0.0
 10
195.7847171793
 20
197.5098764567
 30
0.0
  0
SPLINE
  5
28B
100
AcDbEntity
  8
0
100
AcDbSpline
 62
7
  6
BYLAYER
 70
0
 71
3
 72
9
 73
5
 74
0
 42
0.0000001
 43
0.0000001
 44
0.0000000001
 40
0.0
 40
0.0
 40
0.0
 40
0.0
 40
0.254513751
 40
1.0
 40
1.0
 40
1.0
 40
1.0
 10
200.7791411621
 20
208.1687813477
 30
0.0
 10
200.8729213066
 20
207.9883788696
 30
0.0
 10
201.2241970444
 20
207.2708424611
 30
0.0
 10
201.5070024795
 20
206.5191498231
 30
0.0
 10
201.6702652621
 20
205.9464233927
 30
0.0
  0
SPLINE
  5
28C
100
AcDbEntity
  8
0
100
AcDbSpline
 62
7
  6
BYLAYER
 70
0
 71
3
 72
11
 73
7
 74
0
 42
0.0000001
 43
0.0000001
 44
0.0000000001
 40
0.0
 40
0.0
 40
0.0
 40
0.0
 40
0.2946333003
 40
0.5580563422
 40
0.7906816299
 40
1.0
 40
1.0
 40
1.0
 40
1.0
 10
201.9449883713
 20
204.6815225018
 30
0.0
 10
202.0104198375
 20
204.2359073922
 30
0.0
 10
202.0714492452
 20
203.3801197846
 30
0.0
 10
201.9247495998
 20
202.1711454706
 30
0.0
 10
201.5357994245
 20
201.1513426047
 30
0.0
 10
201.0982017341
 20
200.6153168246
 30
0.0
 10
200.851897917
 20
200.4110643501
 30
0.0
  0
SPLINE
  5
28D
100
AcDbEntity
  8
0
100
AcDbSpline
 62
7
  6
BYLAYER
 70
0
 71
3
 72
14
 73
10
 74
0
 42
0.0000001
 43
0.0000001
 44
0.0000000001
 40
0.0
 40
0.0
 40
0.0
 40
0.0
 40
0.3061004416
 40
0.4498468681
 40
0.5830940491
 40
0.703909994
 40
0.8119937391
 40
0.9092085865
 40
1.0
 40
1.0
 40
1.0
 40
1.0
 10
202.456101029
 20
209.7837044788
 30
0.0
 10
202.9055527011
 20
209.0052543725
 30
0.0
 10
203.4454490646
 20
207.7818958721
 30
0.0
 10
203.8341596602
 20
206.1104462702
 30
0.0
 10
203.9371291732
 20
204.9420643723
 30
0.0
 10
203.8523043195
 20
203.876001307
 30
0.0
 10
203.5788575614
 20
202.9490986944
 30
0.0
 10
203.1191486925
 20
202.1971281369
 30
0.0
 10
202.6869812777
 20
201.834006269
 30
0.0
 10
202.4560878252
 20
201.7006959461
 30
0.0
  0
SPLINE
  5
28E
100
AcDbEntity
  8
0
100
AcDbSpline
 62
7
  6
BYLAYER
 70
0
 71
3
 72
13
 73
9
 74
0
 42
0.0000001
 43
0.0000001
 44
0.0000000001
 40
0.0
 40
0.0
 40
0.0
 40
0.0
 40
0.090854193
 40
0.1881359715
 40
0.2962889732
 40
0.4171910852
 40
0.6936747321
 40
1.0
 40
1.0
 40
1.0
 40
1.0
 10
174.5359563545
 20
199.437342549
 30
0.0
 10
174.7008751545
 20
199.5325496221
 30
0.0
 10
175.0798396699
 20
199.6701614533
 30
0.0
 10
175.7091097121
 20
199.6858876923
 30
0.0
 10
176.3801706797
 20
199.5241848526
 30
0.0
 10
177.3419445054
 20
199.0657924488
 30
0.0
 10
178.486866976
 20
198.1010721559
 30
0.0
 10
179.2148649563
 20
197.1067608319
 30
0.0
 10
179.5358959322
 20
196.5507353172
 30
0.0
  0
SPLINE
  5
28F
100
AcDbEntity
  8
0
100
AcDbSpline
 62
7
  6
BYLAYER
 70
0
 71
3
 72
9
 73
5
 74
0
 42
0.0000001
 43
0.0000001
 44
0.0000000001
 40
0.0
 40
0.0
 40
0.0
 40
0.0
 40
0.2250865908
 40
1.0
 40
1.0
 40
1.0
 40
1.0
 10
62.9317500225
 20
128.6018914838
 30
0.0
 10
62.9559441378
 20
128.5916146734
 30
0.0
 10
63.059336192
 20
128.5363666751
 30
0.0
 10
63.1448110323
 20
128.4516968184
 30
0.0
 10
63.2000825651
 20
128.3800399796
 30
0.0
  0
SPLINE
  5
290
100
AcDbEntity
  8
0
100
AcDbSpline
 62
7
  6
BYLAYER
 70
0
 71
3
 72
11
 73
7
 74
0
 42
0.0000001
 43
0.0000001
 44
0.0000000001
 40
0.0
 40
0.0
 40
0.0
 40
0.0
 40
0.3019522272
 40
0.5844789597
 40
0.8171293362
 40
1.0
 40
1.0
 40
1.0
 40
1.0
 10
63.2000825651
 20
128.3800399796
 30
0.0
 10
63.2522863931
 20
128.3123602701
 30
0.0
 10
63.3365834135
 20
128.1673453889
 30
0.0
 10
63.3986353842
 20
127.9420878474
 30
0.0
 10
63.3913605313
 20
127.7391443586
 30
0.0
 10
63.3174553975
 20
127.6335861171
 30
0.0
 10
63.272626415
 20
127.6077014864
 30
0.0
  0
SPLINE
  5
291
100
AcDbEntity
  8
0
100
AcDbSpline
 62
7
  6
BYLAYER
 70
0
 71
3
 72
13
 73
9
 74
0
 42
0.0000001
 43
0.0000001
 44
0.0000000001
 40
0.0
 40
0.0
 40
0.0
 40
0.0
 40
0.0890310082
 40
0.1940589487
 40
0.3198032087
 40
0.4622567289
 40
0.7572186958
 40
1.0
 40
1.0
 40
1.0
 40
1.0
 10
26.9881407748
 20
107.813637012
 30
0.0
 10
27.0209934026
 20
107.8326063951
 30
0.0
 10
27.0794711751
 20
107.8978493816
 30
0.0
 10
27.1131152145
 20
108.0333068327
 30
0.0
 10
27.1025711174
 20
108.1937209464
 30
0.0
 10
27.031818167
 20
108.4249307989
 30
0.0
 10
26.8722734996
 20
108.6717423588
 30
0.0
 10
26.6717970423
 20
108.8128251853
 30
0.0
 10
26.5700653409
 20
108.8315938067
 30
0.0
  0
SPLINE
  5
292
100
AcDbEntity
  8
0
100
AcDbSpline
 62
7
  6
BYLAYER
 70
0
 71
3
 72
9
 73
5
 74
0
 42
0.0000001
 43
0.0000001
 44
0.0000000001
 40
0.0
 40
0.0
 40
0.0
 40
0.0
 40
0.2714336299
 40
1.0
 40
1.0
 40
1.0
 40
1.0
 10
26.5700653409
 20
108.8315938067
 30
0.0
 10
26.5558036511
 20
108.8342249654
 30
0.0
 10
26.5027970746
 20
108.8403729516
 30
0.0
 10
26.4468384429
 20
108.8290235431
 30
0.0
 10
26.4131280194
 20
108.8095588616
 30
0.0
  0
SPLINE
  5
293
100
AcDbEntity
  8
0
100
AcDbSpline
 62
7
  6
BYLAYER
 70
0
 71
3
 72
15
 73
11
 74
0
 42
0.0000001
 43
0.0000001
 44
0.0000000001
 40
0.0
 40
0.0
 40
0.0
 40
0.0
 40
0.0932443943
 40
0.2075964804
 40
0.3462953379
 40
0.4999691514
 40
0.6536459792
 40
0.7923613603
 40
0.9067455729
 40
1.0
 40
1.0
 40
1.0
 40
1.0
 10
62.6975956395
 20
129.7583425315
 30
0.0
 10
62.7363814926
 20
129.7807378086
 30
0.0
 10
62.8426348914
 20
129.7965445379
 30
0.0
 10
63.0006194713
 20
129.7317290121
 30
0.0
 10
63.1518521092
 20
129.6047830266
 30
0.0
 10
63.2795068077
 20
129.4304181103
 30
0.0
 10
63.3667059457
 20
129.2326845257
 30
0.0
 10
63.401053606
 20
129.0382198019
 30
0.0
 10
63.3782141595
 20
128.868962069
 30
0.0
 10
63.3113984213
 20
128.7848183686
 30
0.0
 10
63.2726083949
 20
128.7624206819
 30
0.0
  0
SPLINE
  5
294
100
AcDbEntity
  8
0
100
AcDbSpline
 62
7
  6
BYLAYER
 70
0
 71
3
 72
14
 73
10
 74
0
 42
0.0000001
 43
0.0000001
 44
0.0000000001
 40
0.0
 40
0.0
 40
0.0
 40
0.0
 40
0.3126880656
 40
0.4576849546
 40
0.5901508855
 40
0.7082827333
 40
0.8127860861
 40
0.9076370096
 40
1.0
 40
1.0
 40
1.0
 40
1.0
 10
170.9286775929
 20
191.5813776452
 30
0.0
 10
170.5952711492
 20
192.1588374649
 30
0.0
 10
170.0030640639
 20
192.9529333013
 30
0.0
 10
169.0551695249
 20
193.7861685072
 30
0.0
 10
168.3367563228
 20
194.2370067905
 30
0.0
 10
167.6230498998
 20
194.5078409413
 30
0.0
 10
166.9405403352
 20
194.5824177848
 30
0.0
 10
166.3204907781
 20
194.4450160353
 30
0.0
 10
165.9821275663
 20
194.2126856764
 30
0.0
 10
165.8422710183
 20
194.0739992582
 30
0.0
  0
SPLINE
  5
295
100
AcDbEntity
  8
0
100
AcDbSpline
 62
7
  6
BYLAYER
 70
0
 71
3
 72
14
 73
10
 74
0
 42
0.0000001
 43
0.0000001
 44
0.0000000001
 40
0.0
 40
0.0
 40
0.0
 40
0.0
 40
0.0907919103
 40
0.1881682831
 40
0.2964387711
 40
0.4173782286
 40
0.5506435474
 40
0.6942982743
 40
1.0
 40
1.0
 40
1.0
 40
1.0
 10
196.2970620681
 20
197.7409446056
 30
0.0
 10
196.5366138175
 20
197.8837918266
 30
0.0
 10
196.9837903524
 20
198.2698872335
 30
0.0
 10
197.4574150944
 20
199.0618166707
 30
0.0
 10
197.7375560756
 20
200.0344855228
 30
0.0
 10
197.8216660964
 20
201.1509544528
 30
0.0
 10
197.7106506134
 20
202.3729883566
 30
0.0
 10
197.3014685547
 20
204.1193585219
 30
0.0
 10
196.7367264449
 20
205.3972703259
 30
0.0
 10
196.2671640691
 20
206.2105521625
 30
0.0
  0
SPLINE
  5
296
100
AcDbEntity
  8
0
100
AcDbSpline
 62
7
  6
BYLAYER
 70
0
 71
3
 72
19
 73
15
 74
0
 42
0.0000001
 43
0.0000001
 44
0.0000000001
 40
0.0
 40
0.0
 40
0.0
 40
0.0
 40
0.0453956658
 40
0.0940835292
 40
0.1481590637
 40
0.2086067925
 40
0.3468412282
 40
0.4999825262
 40
0.6531255095
 40
0.7913714668
 40
0.8518269233
 40
0.9059102597
 40
0.9546031137
 40
1.0
 40
1.0
 40
1.0
 40
1.0
 10
167.3756584624
 20
192.2434491408
 30
0.0
 10
167.4531135052
 20
192.2881723326
 30
0.0
 10
167.631307553
 20
192.3526655264
 30
0.0
 10
167.9270679986
 20
192.3604116522
 30
0.0
 10
168.2425593711
 20
192.2842425697
 30
0.0
 10
168.6944822797
 20
192.0687196031
 30
0.0
 10
169.2327327734
 20
191.6152155725
 30
0.0
 10
169.7541191997
 20
190.903264129
 30
0.0
 10
170.110049626
 20
190.0957545493
 30
0.0
 10
170.2337274588
 20
189.4028332104
 30
0.0
 10
170.1944577935
 20
188.9036383139
 30
0.0
 10
170.1026953694
 20
188.5922816349
 30
0.0
 10
169.9481137025
 20
188.3399819614
 30
0.0
 10
169.8031677184
 20
188.2178842366
 30
0.0
 10
169.7257105931
 20
188.1731598424
 30
0.0
  0
SPLINE
  5
297
100
AcDbEntity
  8
0
100
AcDbSpline
 62
7
  6
BYLAYER
 70
0
 71
3
 72
9
 73
5
 74
0
 42
0.0000001
 43
0.0000001
 44
0.0000000001
 40
0.0
 40
0.0
 40
0.0
 40
0.0
 40
0.4860403053
 40
1.0
 40
1.0
 40
1.0
 40
1.0
 10
192.1854431958
 20
206.7893602878
 30
0.0
 10
192.5099422255
 20
206.5234165358
 30
0.0
 10
193.1195644412
 20
205.9039101392
 30
0.0
 10
193.6129895283
 20
205.1903770442
 30
0.0
 10
193.8348216615
 20
204.8061638832
 30
0.0
  0
SPLINE
  5
298
100
AcDbEntity
  8
0
100
AcDbSpline
 62
7
  6
BYLAYER
 70
0
 71
3
 72
15
 73
11
 74
0
 42
0.0000001
 43
0.0000001
 44
0.0000000001
 40
0.0
 40
0.0
 40
0.0
 40
0.0
 40
0.1072565535
 40
0.2288396398
 40
0.3614512985
 40
0.4999951985
 40
0.63853964
 40
0.7711528397
 40
0.8927382844
 40
1.0
 40
1.0
 40
1.0
 40
1.0
 10
183.6408288617
 20
204.1521908859
 30
0.0
 10
183.9743225848
 20
204.0538497815
 30
0.0
 10
184.6545708243
 20
203.7353006288
 30
0.0
 10
185.5912988752
 20
203.0214054991
 30
0.0
 10
186.4610901964
 20
202.0839597583
 30
0.0
 10
187.2095050099
 20
200.9810546584
 30
0.0
 10
187.7904672313
 20
199.7814643562
 30
0.0
 10
188.1674633188
 20
198.5594748027
 30
0.0
 10
188.3173648532
 20
197.3912740257
 30
0.0
 10
188.2531884672
 20
196.6428574415
 30
0.0
 10
188.171626658
 20
196.3048510153
 30
0.0
  0
SPLINE
  5
299
100
AcDbEntity
  8
0
100
AcDbSpline
 62
7
  6
BYLAYER
 70
0
 71
3
 72
11
 73
7
 74
0
 42
0.0000001
 43
0.0000001
 44
0.0000000001
 40
0.0
 40
0.0
 40
0.0
 40
0.0
 40
0.2828708759
 40
0.5509570356
 40
0.7921587451
 40
1.0
 40
1.0
 40
1.0
 40
1.0
 10
187.781186214
 20
201.3111736419
 30
0.0
 10
187.4771163399
 20
201.8378225357
 30
0.0
 10
186.801456568
 20
202.8181818233
 30
0.0
 10
185.6063299932
 20
204.04439433
 30
0.0
 10
184.3277544395
 20
204.9247111317
 30
0.0
 10
183.4027125218
 20
205.2594586169
 30
0.0
 10
182.961342123
 20
205.3290616305
 30
0.0
  0
SPLINE
  5
29A
100
AcDbEntity
  8
0
100
AcDbSpline
 62
7
  6
BYLAYER
 70
0
 71
3
 72
11
 73
7
 74
0
 42
0.0000001
 43
0.0000001
 44
0.0000000001
 40
0.0
 40
0.0
 40
0.0
 40
0.0
 40
0.207843981
 40
0.4490473478
 40
0.7171327839
 40
1.0
 40
1.0
 40
1.0
 40
1.0
 10
188.8510822685
 20
195.1280341848
 30
0.0
 10
189.011468229
 20
195.545096608
 30
0.0
 10
189.1840444178
 20
196.5136133613
 30
0.0
 10
189.0608971773
 20
198.0610805582
 30
0.0
 10
188.5964757289
 20
199.7092065262
 30
0.0
 10
188.0852575417
 20
200.7845222307
 30
0.0
 10
187.781186214
 20
201.3111736419
 30
0.0
  0
SPLINE
  5
29B
100
AcDbEntity
  8
0
100
AcDbSpline
 62
7
  6
BYLAYER
 70
0
 71
3
 72
11
 73
7
 74
0
 42
0.0000001
 43
0.0000001
 44
0.0000000001
 40
0.0
 40
0.0
 40
0.0
 40
0.0
 40
0.2276421277
 40
0.4654120546
 40
0.7211327564
 40
1.0
 40
1.0
 40
1.0
 40
1.0
 10
195.2139618904
 20
197.5193712611
 30
0.0
 10
195.392602066
 20
197.6225195977
 30
0.0
 10
195.7308052675
 20
197.8839906919
 30
0.0
 10
196.1332507905
 20
198.4065116169
 30
0.0
 10
196.4282899311
 20
199.0465622845
 30
0.0
 10
196.545406502
 20
199.5194855588
 30
0.0
 10
196.5874213533
 20
199.768667754
 30
0.0
  0
SPLINE
  5
29C
100
AcDbEntity
  8
0
100
AcDbSpline
 62
7
  6
BYLAYER
 70
0
 71
3
 72
9
 73
5
 74
0
 42
0.0000001
 43
0.0000001
 44
0.0000000001
 40
0.0
 40
0.0
 40
0.0
 40
0.0
 40
0.2413836822
 40
1.0
 40
1.0
 40
1.0
 40
1.0
 10
196.5874213533
 20
199.768667754
 30
0.0
 10
196.6002497339
 20
199.8447504708
 30
0.0
 10
196.6460436067
 20
200.1611675403
 30
0.0
 10
196.6636561083
 20
200.4814354623
 30
0.0
 10
196.6636523241
 20
200.723921971
 30
0.0
  0
SPLINE
  5
29D
100
AcDbEntity
  8
0
100
AcDbSpline
 62
7
  6
BYLAYER
 70
0
 71
3
 72
14
 73
10
 74
0
 42
0.0000001
 43
0.0000001
 44
0.0000000001
 40
0.0
 40
0.0
 40
0.0
 40
0.0
 40
0.0907846757
 40
0.1879988089
 40
0.2960872253
 40
0.4169129273
 40
0.5501582748
 40
0.6939283095
 40
1.0
 40
1.0
 40
1.0
 40
1.0
 10
189.0922505214
 20
210.1507582019
 30
0.0
 10
189.3232116362
 20
210.2840515107
 30
0.0
 10
189.8538701858
 20
210.4768360531
 30
0.0
 10
190.7351955264
 20
210.4988145914
 30
0.0
 10
191.6748839327
 20
210.27195714
 30
0.0
 10
192.6407413239
 20
209.8120873933
 30
0.0
 10
193.6013853729
 20
209.1384241997
 30
0.0
 10
194.8545950527
 20
207.9654725552
 30
0.0
 10
195.6440896824
 20
206.8858228271
 30
0.0
 10
196.093489376
 20
206.1071681732
 30
0.0
  0
SPLINE
  5
29E
100
AcDbEntity
  8
0
100
AcDbSpline
 62
7
  6
BYLAYER
 70
0
 71
3
 72
9
 73
5
 74
0
 42
0.0000001
 43
0.0000001
 44
0.0000000001
 40
0.0
 40
0.0
 40
0.0
 40
0.0
 40
0.5255336253
 40
1.0
 40
1.0
 40
1.0
 40
1.0
 10
196.093489376
 20
206.1071681732
 30
0.0
 10
196.5425144515
 20
205.3291626032
 30
0.0
 10
197.2382044267
 20
203.7518602621
 30
0.0
 10
197.5419704121
 20
202.042020242
 30
0.0
 10
197.5419830682
 20
201.2310234356
 30
0.0
  0
SPLINE
  5
29F
100
AcDbEntity
  8
0
100
AcDbSpline
 62
7
  6
BYLAYER
 70
0
 71
3
 72
9
 73
5
 74
0
 42
0.0000001
 43
0.0000001
 44
0.0000000001
 40
0.0
 40
0.0
 40
0.0
 40
0.0
 40
0.7476920117
 40
1.0
 40
1.0
 40
1.0
 40
1.0
 10
192.6689023814
 20
196.2809290024
 30
0.0
 10
192.7874766136
 20
196.3493947593
 30
0.0
 10
192.9381601706
 20
196.4558144913
 30
0.0
 10
193.0742860968
 20
196.5783580241
 30
0.0
 10
193.1077227758
 20
196.6102451889
 30
0.0
  0
SPLINE
  5
2A0
100
AcDbEntity
  8
0
100
AcDbSpline
 62
7
  6
BYLAYER
 70
0
 71
3
 72
19
 73
15
 74
0
 42
0.0000001
 43
0.0000001
 44
0.0000000001
 40
0.0
 40
0.0
 40
0.0
 40
0.0
 40
0.0456587988
 40
0.0949691578
 40
0.1498593725
 40
0.2110681169
 40
0.3502160802
 40
0.503242016
 40
0.6555197275
 40
0.7926629699
 40
0.8526369997
 40
0.9063401508
 40
0.9547540556
 40
1.0
 40
1.0
 40
1.0
 40
1.0
 10
179.7843241302
 20
190.5785317744
 30
0.0
 10
179.9515129469
 20
190.6903763813
 30
0.0
 10
180.2605022251
 20
190.9853963094
 30
0.0
 10
180.5800895132
 20
191.5723695906
 30
0.0
 10
180.7618307544
 20
192.2843044742
 30
0.0
 10
180.8203239115
 20
193.4128748202
 30
0.0
 10
180.5160743919
 20
194.9625452792
 30
0.0
 10
179.6994037148
 20
196.7581004881
 30
0.0
 10
178.5241045793
 20
198.331249111
 30
0.0
 10
177.3206115149
 20
199.3283086637
 30
0.0
 10
176.3138494557
 20
199.7980895877
 30
0.0
 10
175.6121146095
 20
199.9619804256
 30
0.0
 10
174.9545414045
 20
199.9414825364
 30
0.0
 10
174.5584932868
 20
199.796808138
 30
0.0
 10
174.3858717886
 20
199.6971350362
 30
0.0
  0
SPLINE
  5
2A1
100
AcDbEntity
  8
0
100
AcDbSpline
 62
7
  6
BYLAYER
 70
0
 71
3
 72
13
 73
9
 74
0
 42
0.0000001
 43
0.0000001
 44
0.0000000001
 40
0.0
 40
0.0
 40
0.0
 40
0.0
 40
0.3063237567
 40
0.5828016415
 40
0.7037036191
 40
0.8118589413
 40
0.9091435306
 40
1.0
 40
1.0
 40
1.0
 40
1.0
 10
179.5358959322
 20
196.5507353172
 30
0.0
 10
179.8569389985
 20
195.9946888618
 30
0.0
 10
180.3540816329
 20
194.8670453936
 30
0.0
 10
180.6171301995
 20
193.3931133756
 30
0.0
 10
180.5332609366
 20
192.3309566863
 30
0.0
 10
180.3377726379
 20
191.6689031002
 30
0.0
 10
180.0094969296
 20
191.1317719388
 30
0.0
 10
179.700834751
 20
190.8723396411
 30
0.0
 10
179.535904794
 20
190.7771261271
 30
0.0
  0
SPLINE
  5
2A2
100
AcDbEntity
  8
0
100
AcDbSpline
 62
7
  6
BYLAYER
 70
0
 71
3
 72
15
 73
11
 74
0
 42
0.0000001
 43
0.0000001
 44
0.0000000001
 40
0.0
 40
0.0
 40
0.0
 40
0.0
 40
0.0932461641
 40
0.2076017334
 40
0.3463034568
 40
0.4999783433
 40
0.6536540989
 40
0.7923666144
 40
0.9067473431
 40
1.0
 40
1.0
 40
1.0
 40
1.0
 10
26.9881227547
 20
108.9683562075
 30
0.0
 10
27.026909344
 20
108.9907519097
 30
0.0
 10
27.0937191399
 20
109.0748741481
 30
0.0
 10
27.1165719195
 20
109.2441047834
 30
0.0
 10
27.0822432076
 20
109.4385515285
 30
0.0
 10
26.9950606663
 20
109.6362852238
 30
0.0
 10
26.8674143614
 20
109.8106644589
 30
0.0
 10
26.7161756272
 20
109.9376358435
 30
0.0
 10
26.5581742459
 20
110.0024764649
 30
0.0
 10
26.4518992893
 20
109.9866753187
 30
0.0
 10
26.4131099993
 20
109.9642780571
 30
0.0
  0
SPLINE
  5
2A3
100
AcDbEntity
  8
0
100
AcDbSpline
 62
7
  6
BYLAYER
 70
0
 71
3
 72
14
 73
10
 74
0
 42
0.0000001
 43
0.0000001
 44
0.0000000001
 40
0.0
 40
0.0
 40
0.0
 40
0.0
 40
0.0923596413
 40
0.1872064925
 40
0.291706121
 40
0.409837016
 40
0.5423069323
 40
0.6873100692
 40
1.0
 40
1.0
 40
1.0
 40
1.0
 10
170.5442478052
 20
185.9298869741
 30
0.0
 10
170.7342789657
 20
185.9816766687
 30
0.0
 10
171.1046724002
 20
186.1585186113
 30
0.0
 10
171.5336829953
 20
186.6268121913
 30
0.0
 10
171.8103524311
 20
187.2551755175
 30
0.0
 10
171.9326775175
 20
188.0087067803
 30
0.0
 10
171.9014372282
 20
188.8563445681
 30
0.0
 10
171.6537380733
 20
190.0939310116
 30
0.0
 10
171.2620991371
 20
191.0038916713
 30
0.0
 10
170.9286775929
 20
191.5813776452
 30
0.0
  0
SPLINE
  5
2A4
100
AcDbEntity
  8
0
100
AcDbSpline
 62
7
  6
BYLAYER
 70
0
 71
3
 72
9
 73
5
 74
0
 42
0.0000001
 43
0.0000001
 44
0.0000000001
 40
0.0
 40
0.0
 40
0.0
 40
0.0
 40
0.4810643978
 40
1.0
 40
1.0
 40
1.0
 40
1.0
 10
183.6345317954
 20
191.0649638478
 30
0.0
 10
183.8725559096
 20
191.202400969
 30
0.0
 10
184.3164878785
 20
191.5838269307
 30
0.0
 10
184.6053649591
 20
192.0881180657
 30
0.0
 10
184.7190684491
 20
192.361939953
 30
0.0
  0
SPLINE
  5
2A5
100
AcDbEntity
  8
0
100
AcDbSpline
 62
7
  6
BYLAYER
 70
0
 71
3
 72
9
 73
5
 74
0
 42
0.0000001
 43
0.0000001
 44
0.0000000001
 40
0.0
 40
0.0
 40
0.0
 40
0.0
 40
0.2340125462
 40
1.0
 40
1.0
 40
1.0
 40
1.0
 10
196.6636523241
 20
200.723921971
 30
0.0
 10
196.6636489175
 20
200.9422172721
 30
0.0
 10
196.6170780553
 20
201.8749428637
 30
0.0
 10
196.4048413706
 20
202.7953159112
 30
0.0
 10
196.1780914138
 20
203.4729239882
 30
0.0
  0
SPLINE
  5
2A6
100
AcDbEntity
  8
0
100
AcDbSpline
 62
7
  6
BYLAYER
 70
0
 71
3
 72
11
 73
7
 74
0
 42
0.0000001
 43
0.0000001
 44
0.0000000001
 40
0.0
 40
0.0
 40
0.0
 40
0.0
 40
0.266355999
 40
0.5325893073
 40
0.7815684164
 40
1.0
 40
1.0
 40
1.0
 40
1.0
 10
196.1241194036
 20
203.6301935577
 30
0.0
 10
195.8822416334
 20
204.317864587
 30
0.0
 10
195.2627353937
 20
205.6479842998
 30
0.0
 10
194.0239096634
 20
207.4059207885
 30
0.0
 10
192.5714059738
 20
208.8095611559
 30
0.0
 10
191.4561343978
 20
209.4753456454
 30
0.0
 10
190.8981093247
 20
209.6897826592
 30
0.0
  0
SPLINE
  5
2A7
100
AcDbEntity
  8
0
100
AcDbSpline
 62
7
  6
BYLAYER
 70
0
 71
3
 72
11
 73
7
 74
0
 42
0.0000001
 43
0.0000001
 44
0.0000000001
 40
0.0
 40
0.0
 40
0.0
 40
0.0
 40
0.2795062815
 40
0.5354314601
 40
0.7729813533
 40
1.0
 40
1.0
 40
1.0
 40
1.0
 10
190.8981093247
 20
209.6897826592
 30
0.0
 10
190.6570916124
 20
209.7824005737
 30
0.0
 10
190.1805822061
 20
209.9253152963
 30
0.0
 10
189.4650322439
 20
209.9975027226
 30
0.0
 10
188.798509052
 20
209.9125546139
 30
0.0
 10
188.3954196862
 20
209.7485021721
 30
0.0
 10
188.2138066074
 20
209.6436372562
 30
0.0
  0
SPLINE
  5
2A8
100
AcDbEntity
  8
0
100
AcDbSpline
 62
7
  6
BYLAYER
 70
0
 71
3
 72
9
 73
5
 74
0
 42
0.0000001
 43
0.0000001
 44
0.0000000001
 40
0.0
 40
0.0
 40
0.0
 40
0.0
 40
0.5139581757
 40
1.0
 40
1.0
 40
1.0
 40
1.0
 10
193.8348216615
 20
204.8061638832
 30
0.0
 10
194.0566629694
 20
204.4219348315
 30
0.0
 10
194.4279222715
 20
203.6378229184
 30
0.0
 10
194.6596456109
 20
202.8000885047
 30
0.0
 10
194.7277207696
 20
202.3860738019
 30
0.0
  0
SPLINE
  5
2A9
100
AcDbEntity
  8
0
100
AcDbSpline
 62
7
  6
BYLAYER
 70
0
 71
3
 72
14
 73
10
 74
0
 42
0.0000001
 43
0.0000001
 44
0.0000000001
 40
0.0
 40
0.0
 40
0.0
 40
0.0
 40
0.3062174665
 40
0.4498892568
 40
0.583038952
 40
0.703780181
 40
0.8118449316
 40
0.9091093334
 40
1.0
 40
1.0
 40
1.0
 40
1.0
 10
196.2393433838
 20
206.2584939815
 30
0.0
 10
195.766509485
 20
207.0691953072
 30
0.0
 10
194.9382654635
 20
208.1925125432
 30
0.0
 10
193.6261594334
 20
209.4113474597
 30
0.0
 10
192.6221012032
 20
210.1102993018
 30
0.0
 10
191.6132622489
 20
210.5864338275
 30
0.0
 10
190.6322456956
 20
210.8200488182
 30
0.0
 10
189.7124089481
 20
210.7948377383
 30
0.0
 10
189.1585283114
 20
210.5930980343
 30
0.0
 10
188.9172796435
 20
210.4538184459
 30
0.0
  0
SPLINE
  5
2AA
100
AcDbEntity
  8
0
100
AcDbSpline
 62
7
  6
BYLAYER
 70
0
 71
3
 72
11
 73
7
 74
0
 42
0.0000001
 43
0.0000001
 44
0.0000000001
 40
0.0
 40
0.0
 40
0.0
 40
0.0
 40
0.2897491629
 40
0.5490837844
 40
0.7822244486
 40
1.0
 40
1.0
 40
1.0
 40
1.0
 10
197.5419830682
 20
201.2310234356
 30
0.0
 10
197.5419886042
 20
200.8762790255
 30
0.0
 10
197.488298088
 20
200.2017333086
 30
0.0
 10
197.2150373294
 20
199.2749528907
 30
0.0
 10
196.7551129777
 20
198.52299172
 30
0.0
 10
196.3231069278
 20
198.1597271322
 30
0.0
 10
196.0921794646
 20
198.0264532445
 30
0.0
  0
SPLINE
  5
2AB
100
AcDbEntity
  8
0
100
AcDbSpline
 62
7
  6
BYLAYER
 70
0
 71
3
 72
10
 73
6
 74
0
 42
0.0000001
 43
0.0000001
 44
0.0000000001
 40
0.0
 40
0.0
 40
0.0
 40
0.0
 40
0.5281958564
 40
0.768258981
 40
1.0
 40
1.0
 40
1.0
 40
1.0
 10
183.5906496515
 20
193.6600375079
 30
0.0
 10
183.5159992204
 20
193.350673026
 30
0.0
 10
183.3404839992
 20
192.9074314208
 30
0.0
 10
182.951139562
 20
192.4422671393
 30
0.0
 10
182.7212303356
 20
192.2697278187
 30
0.0
 10
182.6003133046
 20
192.1999093102
 30
0.0
  0
SPLINE
  5
2AC
100
AcDbEntity
  8
0
100
AcDbSpline
 62
7
  6
BYLAYER
 70
0
 71
3
 72
9
 73
5
 74
0
 42
0.0000001
 43
0.0000001
 44
0.0000000001
 40
0.0
 40
0.0
 40
0.0
 40
0.0
 40
0.518931755
 40
1.0
 40
1.0
 40
1.0
 40
1.0
 10
178.4998072047
 20
203.1336978018
 30
0.0
 10
178.2058239903
 20
203.1721187696
 30
0.0
 10
177.6246660622
 20
203.1740467133
 30
0.0
 10
177.0724024921
 20
202.9802578797
 30
0.0
 10
176.8343809491
 20
202.8428222431
 30
0.0
  0
SPLINE
  5
2AD
100
AcDbEntity
  8
0
100
AcDbSpline
 62
7
  6
BYLAYER
 70
0
 71
3
 72
10
 73
6
 74
0
 42
0.0000001
 43
0.0000001
 44
0.0000000001
 40
0.0
 40
0.0
 40
0.0
 40
0.0
 40
0.231745683
 40
0.4718118651
 40
1.0
 40
1.0
 40
1.0
 40
1.0
 10
177.3001957332
 20
201.3797107065
 30
0.0
 10
177.4211095314
 20
201.4495273484
 30
0.0
 10
177.6854693749
 20
201.5623851505
 30
0.0
 10
178.2829488739
 20
201.6670323526
 30
0.0
 10
178.7545461125
 20
201.5974515103
 30
0.0
 10
179.0597764351
 20
201.5074455821
 30
0.0
  0
SPLINE
  5
2AE
100
AcDbEntity
  8
0
100
AcDbSpline
 62
7
  6
BYLAYER
 70
0
 71
3
 72
13
 73
9
 74
0
 42
0.0000001
 43
0.0000001
 44
0.0000000001
 40
0.0
 40
0.0
 40
0.0
 40
0.0
 40
0.0890310082
 40
0.1940589487
 40
0.3198032087
 40
0.4622567289
 40
0.7572186958
 40
1.0
 40
1.0
 40
1.0
 40
1.0
 10
27.988144938
 20
107.2363182082
 30
0.0
 10
28.0209975658
 20
107.2552875912
 30
0.0
 10
28.0794753383
 20
107.3205305778
 30
0.0
 10
28.1131193777
 20
107.4559880289
 30
0.0
 10
28.1025752806
 20
107.6164021426
 30
0.0
 10
28.0318223302
 20
107.8476119951
 30
0.0
 10
27.8722776629
 20
108.094423555
 30
0.0
 10
27.6718012056
 20
108.2355063814
 30
0.0
 10
27.5700695041
 20
108.2542750028
 30
0.0
  0
SPLINE
  5
2AF
100
AcDbEntity
  8
0
100
AcDbSpline
 62
7
  6
BYLAYER
 70
0
 71
3
 72
9
 73
5
 74
0
 42
0.0000001
 43
0.0000001
 44
0.0000000001
 40
0.0
 40
0.0
 40
0.0
 40
0.0
 40
0.2714336299
 40
1.0
 40
1.0
 40
1.0
 40
1.0
 10
27.5700695041
 20
108.2542750028
 30
0.0
 10
27.5558078143
 20
108.2569061616
 30
0.0
 10
27.5028012379
 20
108.2630541478
 30
0.0
 10
27.4468426061
 20
108.2517047393
 30
0.0
 10
27.4131321826
 20
108.2322400578
 30
0.0
  0
SPLINE
  5
2B0
100
AcDbEntity
  8
0
100
AcDbSpline
 62
7
  6
BYLAYER
 70
0
 71
3
 72
19
 73
15
 74
0
 42
0.0000001
 43
0.0000001
 44
0.0000000001
 40
0.0
 40
0.0
 40
0.0
 40
0.0
 40
0.0453961301
 40
0.0940852269
 40
0.1481624211
 40
0.2086119011
 40
0.3468491951
 40
0.4999915621
 40
0.6531334766
 40
0.7913765758
 40
0.851830281
 40
0.9059119575
 40
0.954603578
 40
1.0
 40
1.0
 40
1.0
 40
1.0
 10
63.660135011
 20
126.9365367617
 30
0.0
 10
63.737590846
 20
126.9812604109
 30
0.0
 10
63.8825322927
 20
127.1033493004
 30
0.0
 10
64.037105271
 20
127.3556291481
 30
0.0
 10
64.1288710646
 20
127.6669510431
 30
0.0
 10
64.1681626739
 20
128.1661030612
 30
0.0
 10
64.0445186501
 20
128.8590001093
 30
0.0
 10
63.6886215461
 20
129.6665060761
 30
0.0
 10
63.1672486505
 20
130.3784881856
 30
0.0
 10
62.6289940237
 20
130.8320336417
 30
0.0
 10
62.1770449522
 20
131.0475970511
 30
0.0
 10
61.8615251403
 20
131.1237864423
 30
0.0
 10
61.5657431811
 20
131.1160427033
 30
0.0
 10
61.3875392134
 20
131.0515499968
 30
0.0
 10
61.3100828803
 20
131.00682606
 30
0.0
  0
SPLINE
  5
2B1
100
AcDbEntity
  8
0
100
AcDbSpline
 62
7
  6
BYLAYER
 70
0
 71
3
 72
15
 73
11
 74
0
 42
0.0000001
 43
0.0000001
 44
0.0000000001
 40
0.0
 40
0.0
 40
0.0
 40
0.0
 40
0.0932461641
 40
0.2076017334
 40
0.3463034568
 40
0.4999783433
 40
0.6536540989
 40
0.7923666144
 40
0.9067473431
 40
1.0
 40
1.0
 40
1.0
 40
1.0
 10
27.9881269179
 20
108.3910374037
 30
0.0
 10
28.0269135072
 20
108.4134331059
 30
0.0
 10
28.0937233032
 20
108.4975553443
 30
0.0
 10
28.1165760827
 20
108.6667859795
 30
0.0
 10
28.0822473708
 20
108.8612327247
 30
0.0
 10
27.9950648296
 20
109.05896642
 30
0.0
 10
27.8674185246
 20
109.2333456551
 30
0.0
 10
27.7161797904
 20
109.3603170397
 30
0.0
 10
27.5581784091
 20
109.425157661
 30
0.0
 10
27.4519034526
 20
109.4093565149
 30
0.0
 10
27.4131141625
 20
109.3869592533
 30
0.0
  0
SPLINE
  5
2B2
100
AcDbEntity
  8
0
100
AcDbSpline
 62
7
  6
BYLAYER
 70
0
 71
3
 72
13
 73
9
 74
0
 42
0.0000001
 43
0.0000001
 44
0.0000000001
 40
0.0
 40
0.0
 40
0.0
 40
0.0
 40
0.0876449842
 40
0.1893128241
 40
0.3099449238
 40
0.4472794242
 40
0.7404678753
 40
1.0
 40
1.0
 40
1.0
 40
1.0
 10
61.6975914763
 20
130.3356613353
 30
0.0
 10
61.7279510009
 20
130.3531911796
 30
0.0
 10
61.805495179
 20
130.3715206273
 30
0.0
 10
61.9289575403
 20
130.3426069649
 30
0.0
 10
62.0538875605
 20
130.2681423365
 30
0.0
 10
62.2139969635
 20
130.114437248
 30
0.0
 10
62.3564195291
 20
129.8726461059
 30
0.0
 10
62.4007656508
 20
129.6465175187
 30
0.0
 10
62.3881684775
 20
129.5434746454
 30
0.0
  0
ENDSEC
  0
SECTION
  2
OBJECTS
  0
DICTIONARY
  5
C
100
AcDbDictionary
280
0
281
1
  3
ACAD_GROUP
350
D
  3
ACAD_MLINESTYLE
350
17
  3
ACAD_LAYOUT
350
1A
  3
ACAD_PLOTSETTINGS
350
19
  3
ACAD_PLOTSTYLENAME
350
E
  0
DICTIONARY
  5
D
102
{ACAD_REACTORS
330
C
102
}
100
AcDbDictionary
280
0
281
1
  0
ACDBDICTIONARYWDFLT
  5
E
102
{ACAD_REACTORS
330
C
102
}
100
AcDbDictionary
281
1
  3
Normal
350
F
100
AcDbDictionaryWithDefault
340
F
  0
DICTIONARY
  5
17
102
{ACAD_REACTORS
330
C
102
}
100
AcDbDictionary
280
0
281
1
  3
Standard
350
18
  0
DICTIONARY
  5
19
102
{ACAD_REACTORS
330
C
102
}
100
AcDbDictionary
281
1
  0
DICTIONARY
  5
1A
102
{ACAD_REACTORS
330
C
102
}
100
AcDbDictionary
281
1
  3
Model
350
2B3
  3
Layout1
350
2B4
  0
ACDBPLACEHOLDER
  5
F
102
{ACAD_REACTORS
330
E
102
}
  0
MLINESTYLE
  5
18
102
{ACAD_REACTORS
330
17
102
}
100
AcDbMlineStyle
  2
STANDARD
 70
0
  3

 62
256
 51
90.0
 52
90.0
 71
2
 49
0.5
 62
256
  6
BYLAYER
 49
-0.5
 62
256
  6
BYLAYER
  0
LAYOUT
  5
2B3
102
{ACAD_REACTORS
330
1A
102
}
100
AcDbPlotSettings
  1

  2
none_device
  4

  6

 40
0.0
 41
0.0
 42
0.0
 43
0.0
 44
210.0
 45
297.0
 46
0.0
 47
0.0
 48
0.0
 49
0.0
140
0.0
141
0.0
142
1.0
143
1.0
 70
1024
 72
1
 73
0
 74
0
  7

 75
0
147
1.0
148
0.0
149
0.0
100
AcDbLayout
  1
Model
 70
0
 71
0
 10
0.0
 20
0.0
 11
210.0
 21
297.0
 12
0.0
 22
0.0
 32
0.0
 14
0.0
 24
0.0
 34
0.0
 15
0.0
 25
0.0
 35
0.0
146
0.0
 13
0.0
 23
0.0
 33
0.0
 16
1.0
 26
0.0
 36
0.0
 17
0.0
 27
1.0
 37
0.0
 76
0
330
210
345
0
346
0
  0
LAYOUT
  5
2B4
102
{ACAD_REACTORS
330
1A
102
}
100
AcDbPlotSettings
  1

  2
none_device
  4

  6

 40
0.0
 41
0.0
 42
0.0
 43
0.0
 44
210.0
 45
297.0
 46
0.0
 47
0.0
 48
0.0
 49
0.0
140
0.0
141
0.0
142
1.0
143
1.0
 70
0
 72
1
 73
0
 74
0
  7

 75
0
147
1.0
148
0.0
149
0.0
100
AcDbLayout
  1
Layout1
 70
0
 71
1
 10
0.0
 20
0.0
 11
210.0
 21
297.0
 12
0.0
 22
0.0
 32
0.0
 14
0.0
 24
0.0
 34
0.0
 15
0.0
 25
0.0
 35
0.0
146
0.0
 13
0.0
 23
0.0
 33
0.0
 16
1.0
 26
0.0
 36
0.0
 17
0.0
 27
1.0
 37
0.0
 76
0
330
211
345
0
346
0
  0
ENDSEC
  0
EOF
