999
DXF file: C:\Users\sesa63760\Dev\_Creo\CAD\MCADID0003592_3D-CAD\drw0001_3.dxf
999
Pro/ENGINEER 2019471 by Parametric Technology Corporation
  0
SECTION
  2
HEADER
  9
$ACADVER
  1
AC1024
  9
$DWGCODEPAGE
  3
ANSI_1252
  9
$EXTMAX
 10
252.8125897929
 20
357.5492341357
 30
0.0
  9
$EXTMIN
 10
0.0
 20
0.0
 30
0.0
  9
$LIMMIN
 10
0.0
 20
0.0
  9
$LIMMAX
 10
252.8125897929
 20
357.5492341357
  9
$VIEWCTR
 10
126.4062948964
 20
178.7746170678
  9
$VIEWSIZE
 40
357.5492341357
  9
$CLAYER
  8
0
  9
$LTSCALE
 40
23.30691304
  9
$CELTYPE
  6
BYLAYER
  9
$DIMSCALE
 40
1.0
  9
$DIMASZ
 40
3.009673688
  9
$DIMEXO
 40
1.0
  9
$DIMDLI
 40
16.1029581003
  9
$DIMEXE
 40
1.0
  9
$DIMCEN
 40
3.8138584974
  9
$DIMLFAC
 40
1.0
  9
$DIMBLK
  1
_FILLED
  9
$DIMALT
 70
0
  9
$DIMALTF
 40
0.0393700787
  9
$DIMTXT
 40
4.2135431632
  9
$DIMTOL
 70
1
  9
$DIMLIM
 70
0
  9
$DIMTFAC
 40
1.0
  9
$DIMTP
 40
0.01
  9
$DIMTM
 40
0.01
  9
$DIMGAP
 40
0.625
  9
$DIMDSEP
 70
46
  9
$AUNITS
 70
0
  9
$PDMODE
 70
3
  9
$PDSIZE
 40
0.3125
  9
$HANDSEED
  5
28D
  9
$TILEMODE
 70
1
  9
$MEASUREMENT
 70
1
  9
$INSUNITS
 70
4
  0
ENDSEC
  0
SECTION
  2
CLASSES
  0
CLASS
  1
ACDBDICTIONARYWDFLT
  2
AcDbDictionaryWithDefault
  3
AutoCAD 2000
 90
0
 91
1
280
0
281
0
  0
CLASS
  1
ACDBPLACEHOLDER
  2
AcDbPlaceHolder
  3
AutoCAD 2000
 90
0
 91
1
280
0
281
0
  0
CLASS
  1
LAYOUT
  2
AcDbLayout
  3
AutoCAD 2000
 90
0
 91
0
280
0
281
0
  0
ENDSEC
  0
SECTION
  2
TABLES
  0
TABLE
  2
VPORT
  5
8
100
AcDbSymbolTable
 70
2
  0
VPORT
  5
1F4
100
AcDbSymbolTableRecord
100
AcDbViewportTableRecord
  2
*ACTIVE
 70
0
 10
0.0
 20
0.0
 11
1.0
 21
1.0
 12
126.4062948964
 22
178.7746170678
 13
0.0
 23
0.0
 14
1.0
 24
1.0
 15
0.0
 25
0.0
 16
0.0
 26
0.0
 36
1.0
 17
0.0
 27
0.0
 37
0.0
 40
357.5492341357
 41
0.7070707071
 42
50.0
 43
0.0
 44
0.0
 50
0.0
 51
0.0
 71
0
 72
100
 73
1
 74
1
 75
0
 76
0
 77
0
 78
0
  0
ENDTAB
  0
TABLE
  2
LTYPE
  5
5
100
AcDbSymbolTable
 70
6
  0
LTYPE
  5
14
100
AcDbSymbolTableRecord
100
AcDbLinetypeTableRecord
  2
BYBLOCK
 70
0
  3

 72
65
 73
0
 40
0.0
  0
LTYPE
  5
15
100
AcDbSymbolTableRecord
100
AcDbLinetypeTableRecord
  2
BYLAYER
 70
0
  3

 72
65
 73
0
 40
0.0
  0
LTYPE
  5
16
100
AcDbSymbolTableRecord
100
AcDbLinetypeTableRecord
  2
CONTINUOUS
 70
64
  3
Solid line
 72
65
 73
0
 40
0.0
  0
LTYPE
  5
1F5
100
AcDbSymbolTableRecord
100
AcDbLinetypeTableRecord
  2
CENTER
 70
64
  3
____ _ ____ _ ____ _ ____ _ ____ _ ____ _ ____
 72
65
 73
4
 40
0.6
 49
0.375
 74
0
 49
-0.075
 74
0
 49
0.075
 74
0
 49
-0.075
 74
0
  0
LTYPE
  5
1F6
100
AcDbSymbolTableRecord
100
AcDbLinetypeTableRecord
  2
HIDDEN
 70
64
  3
- - - - - - - - - - - - - - - - - - - -
 72
65
 73
2
 40
0.2
 49
0.1
 74
0
 49
-0.1
 74
0
  0
LTYPE
  5
1F7
100
AcDbSymbolTableRecord
100
AcDbLinetypeTableRecord
  2
PHANTOM
 70
64
  3
_____ _ _ _____ _ _ _____ _ _ _____
 72
65
 73
6
 40
0.8
 49
0.45
 74
0
 49
-0.05
 74
0
 49
0.1
 74
0
 49
-0.05
 74
0
 49
0.1
 74
0
 49
-0.05
 74
0
  0
LTYPE
  5
1F8
100
AcDbSymbolTableRecord
100
AcDbLinetypeTableRecord
  2
DOT
 70
64
  3
. . . . . . . . . . . . . . . . . . . .
 72
65
 73
2
 40
0.2
 49
0.1
 74
0
 49
-0.1
 74
0
  0
LTYPE
  5
1F9
100
AcDbSymbolTableRecord
100
AcDbLinetypeTableRecord
  2
DASHED
 70
64
  3
- - - - - - - - - - - - - - - - - - - -
 72
65
 73
2
 40
0.2
 49
0.1
 74
0
 49
-0.1
 74
0
  0
ENDTAB
  0
TABLE
  2
LAYER
  5
2
100
AcDbSymbolTable
 70
36
  0
LAYER
  5
10
100
AcDbSymbolTableRecord
100
AcDbLayerTableRecord
  2
0
 70
0
 62
7
  6
CONTINUOUS
370
-3
390
F
  0
LAYER
  5
1FA
100
AcDbSymbolTableRecord
100
AcDbLayerTableRecord
  2
DEFAULT_1
 70
0
 62
7
  6
CENTER
370
-3
390
F
  0
LAYER
  5
1FB
100
AcDbSymbolTableRecord
100
AcDbLayerTableRecord
  2
DEFAULT_2
 70
0
 62
7
  6
HIDDEN
370
-3
390
F
  0
LAYER
  5
1FC
100
AcDbSymbolTableRecord
100
AcDbLayerTableRecord
  2
DEFAULT_3
 70
0
 62
7
  6
PHANTOM
370
-3
390
F
  0
LAYER
  5
1FD
100
AcDbSymbolTableRecord
100
AcDbLayerTableRecord
  2
00_COMPONENTS
 70
0
 62
7
  6
CONTINUOUS
370
-3
390
F
  0
LAYER
  5
1FE
100
AcDbSymbolTableRecord
100
AcDbLayerTableRecord
  2
01_1_DEFAULT_DATUMS
 70
0
 62
7
  6
CONTINUOUS
370
-3
390
F
  0
LAYER
  5
1FF
100
AcDbSymbolTableRecord
100
AcDbLayerTableRecord
  2
01_PLANES
 70
0
 62
7
  6
CONTINUOUS
370
-3
390
F
  0
LAYER
  5
200
100
AcDbSymbolTableRecord
100
AcDbLayerTableRecord
  2
02_COORD_SYS
 70
0
 62
7
  6
CONTINUOUS
370
-3
390
F
  0
LAYER
  5
201
100
AcDbSymbolTableRecord
100
AcDbLayerTableRecord
  2
03_AXES
 70
0
 62
7
  6
CONTINUOUS
370
-3
390
F
  0
LAYER
  5
202
100
AcDbSymbolTableRecord
100
AcDbLayerTableRecord
  2
04_POINTS
 70
0
 62
7
  6
CONTINUOUS
370
-3
390
F
  0
LAYER
  5
203
100
AcDbSymbolTableRecord
100
AcDbLayerTableRecord
  2
05_CURVES
 70
0
 62
7
  6
CONTINUOUS
370
-3
390
F
  0
LAYER
  5
204
100
AcDbSymbolTableRecord
100
AcDbLayerTableRecord
  2
06_SURFS
 70
0
 62
7
  6
CONTINUOUS
370
-3
390
F
  0
LAYER
  5
205
100
AcDbSymbolTableRecord
100
AcDbLayerTableRecord
  2
07_COSMETICS
 70
0
 62
7
  6
CONTINUOUS
370
-3
390
F
  0
LAYER
  5
206
100
AcDbSymbolTableRecord
100
AcDbLayerTableRecord
  2
10_NOTES
 70
0
 62
7
  6
CONTINUOUS
370
-3
390
F
  0
LAYER
  5
207
100
AcDbSymbolTableRecord
100
AcDbLayerTableRecord
  2
11_NOTES_PUB
 70
0
 62
7
  6
CONTINUOUS
370
-3
390
F
  0
LAYER
  5
208
100
AcDbSymbolTableRecord
100
AcDbLayerTableRecord
  2
13_REF_GTOL
 70
0
 62
7
  6
CONTINUOUS
370
-3
390
F
  0
LAYER
  5
209
100
AcDbSymbolTableRecord
100
AcDbLayerTableRecord
  2
16_MISC
 70
0
 62
7
  6
CONTINUOUS
370
-3
390
F
  0
LAYER
  5
20A
100
AcDbSymbolTableRecord
100
AcDbLayerTableRecord
  2
17_NO_PRINT
 70
0
 62
7
  6
CONTINUOUS
370
-3
390
F
  0
LAYER
  5
20B
100
AcDbSymbolTableRecord
100
AcDbLayerTableRecord
  2
18_DATUM_CAMS_JOINTS
 70
0
 62
7
  6
CONTINUOUS
370
-3
390
F
  0
LAYER
  5
20C
100
AcDbSymbolTableRecord
100
AcDbLayerTableRecord
  2
19_DATUM_FUNCTIONAL
 70
0
 62
7
  6
CONTINUOUS
370
-3
390
F
  0
LAYER
  5
20D
100
AcDbSymbolTableRecord
100
AcDbLayerTableRecord
  2
20_DATUM_KINEMATIC_SCHEME
 70
0
 62
7
  6
CONTINUOUS
370
-3
390
F
  0
ENDTAB
  0
TABLE
  2
STYLE
  5
3
100
AcDbSymbolTable
 70
1
  0
STYLE
  5
11
100
AcDbSymbolTableRecord
100
AcDbTextStyleTableRecord
  2
STANDARD
 70
0
 40
0.0
 41
1.0
 50
0.0
 71
0
 42
0.2
  3
ARIAL.TTF
  4

  0
STYLE
  5
20E
100
AcDbSymbolTableRecord
100
AcDbTextStyleTableRecord
  2
TEXTSTYLE_1
 70
0
 40
0.0
 41
0.8
 50
0.0
 71
0
 42
0.2
  3
gdt
  4

  0
ENDTAB
  0
TABLE
  2
VIEW
  5
6
100
AcDbSymbolTable
 70
0
  0
ENDTAB
  0
TABLE
  2
UCS
  5
7
100
AcDbSymbolTable
 70
0
  0
ENDTAB
  0
TABLE
  2
APPID
  5
9
100
AcDbSymbolTable
 70
1
  0
APPID
  5
20F
100
AcDbSymbolTableRecord
100
AcDbRegAppTableRecord
  2
ACAD
 70
0
  0
ENDTAB
  0
TABLE
  2
BLOCK_RECORD
  5
1
100
AcDbSymbolTable
 70
0
  0
BLOCK_RECORD
  5
210
100
AcDbSymbolTableRecord
100
AcDbBlockTableRecord
  2
*Model_Space
  0
BLOCK_RECORD
  5
211
100
AcDbSymbolTableRecord
100
AcDbBlockTableRecord
  2
*Paper_Space
  0
BLOCK_RECORD
  5
212
100
AcDbSymbolTableRecord
100
AcDbBlockTableRecord
  2
_FILLED
  0
ENDTAB
  0
TABLE
  2
DIMSTYLE
  5
A
100
AcDbSymbolTable
 70
1
100
AcDbDimStyleTable
 71
0
  0
DIMSTYLE
105
213
100
AcDbSymbolTableRecord
100
AcDbDimStyleTableRecord
  2
STANDARD
 70
0
  3

  4

 40
1.0
 41
3.009673688
 42
1.0
 43
0.38
 44
1.0
 45
0.0
 46
0.0
 47
0.01
 48
0.01
140
4.2135431632
141
0.09
142
0.0
143
25.4
144
1.0
145
0.0
146
1.0
147
0.625
 71
1
 72
0
 73
0
 74
0
 75
0
 76
0
 77
1
 78
8
 79
2
170
0
171
1
172
0
173
0
174
0
175
0
176
0
177
0
178
0
270
2
179
2
271
2
272
2
273
2
274
2
275
0
280
0
281
0
282
0
283
1
284
8
285
0
286
0
287
3
288
0
340
11
278
46
341
212
342
212
343
212
344
212
  0
ENDTAB
  0
ENDSEC
  0
SECTION
  2
BLOCKS
  0
BLOCK
  5
20
100
AcDbEntity
  8
0
100
AcDbBlockBegin
  2
*Model_Space
 70
0
 10
0.0
 20
0.0
 30
0.0
  3
*Model_Space
  1

  0
ENDBLK
  5
21
100
AcDbEntity
  8
0
100
AcDbBlockEnd
  0
BLOCK
  5
1C
100
AcDbEntity
  8
0
100
AcDbBlockBegin
  2
*Paper_Space
 70
0
 10
0.0
 20
0.0
 30
0.0
  3
*Paper_Space
  1

  0
ENDBLK
  5
1D
100
AcDbEntity
  8
0
100
AcDbBlockEnd
  0
BLOCK
  5
214
100
AcDbEntity
  8
0
100
AcDbBlockBegin
  2
_FILLED
 70
64
 10
0.0
 20
0.0
  3
_FILLED
  1

  0
SOLID
  5
215
100
AcDbEntity
  8
0
  6
BYBLOCK
 62
0
100
AcDbTrace
 10
0.0
 20
0.0
 11
-1.0
 21
0.25
 12
-1.0
 22
-0.25
 13
-1.0
 23
-0.25
  0
ENDBLK
  5
216
100
AcDbEntity
  8
0
  6
BYBLOCK
 62
0
100
AcDbBlockEnd
  0
ENDSEC
  0
SECTION
  2
ENTITIES
  0
LINE
  5
217
100
AcDbEntity
  8
0
100
AcDbLine
 62
7
  6
BYLAYER
 10
29.9073889884
 20
210.5998905908
 11
29.9073889884
 21
216.5998905908
  0
LINE
  5
218
100
AcDbEntity
  8
0
100
AcDbLine
 62
7
  6
BYLAYER
 10
87.4073889884
 20
194.1998905908
 11
87.4073889884
 21
141.1998905908
  0
LINE
  5
219
100
AcDbEntity
  8
0
100
AcDbLine
 62
7
  6
BYLAYER
 10
87.7895926778
 20
194.1998905908
 11
87.7895926778
 21
188.1998905908
  0
LINE
  5
21A
100
AcDbEntity
  8
0
100
AcDbLine
 62
7
  6
BYLAYER
 10
87.7895926778
 20
141.1998905908
 11
87.7895926778
 21
147.1998905908
  0
LINE
  5
21B
100
AcDbEntity
  8
0
100
AcDbLine
 62
7
  6
BYLAYER
 10
88.6295501462
 20
194.1998905908
 11
88.6295501462
 21
188.1998905908
  0
LINE
  5
21C
100
AcDbEntity
  8
0
100
AcDbLine
 62
7
  6
BYLAYER
 10
88.6295501462
 20
147.1998905908
 11
88.6295501462
 21
141.1998905908
  0
LINE
  5
21D
100
AcDbEntity
  8
0
100
AcDbLine
 62
7
  6
BYLAYER
 10
88.9358637027
 20
190.1411692582
 11
88.9358637027
 21
188.1998905908
  0
LINE
  5
21E
100
AcDbEntity
  8
0
100
AcDbLine
 62
7
  6
BYLAYER
 10
88.9358637027
 20
145.2586119235
 11
88.9358637027
 21
147.1998905908
  0
LINE
  5
21F
100
AcDbEntity
  8
0
100
AcDbLine
 62
7
  6
BYLAYER
 10
91.9073889884
 20
149.1998905908
 11
91.9073889884
 21
186.1998905908
  0
LINE
  5
220
100
AcDbEntity
  8
0
100
AcDbLine
 62
7
  6
BYLAYER
 10
92.5251733957
 20
194.1998905908
 11
92.5251733957
 21
192.1860998755
  0
LINE
  5
221
100
AcDbEntity
  8
0
100
AcDbLine
 62
7
  6
BYLAYER
 10
92.5251733957
 20
141.1998905908
 11
92.5251733957
 21
143.2136826496
  0
LINE
  5
222
100
AcDbEntity
  8
0
100
AcDbLine
 62
7
  6
BYLAYER
 10
87.4073889884
 20
141.1998905908
 11
172.4073889884
 21
141.1998905908
  0
LINE
  5
223
100
AcDbEntity
  8
0
100
AcDbLine
 62
7
  6
BYLAYER
 10
170.630268516
 20
144.8324371289
 11
163.4080619909
 21
144.8324371289
  0
LINE
  5
224
100
AcDbEntity
  8
0
100
AcDbLine
 62
7
  6
BYLAYER
 10
96.4067159858
 20
144.8324371289
 11
89.1845094607
 21
144.8324371289
  0
LINE
  5
225
100
AcDbEntity
  8
0
100
AcDbLine
 62
7
  6
BYLAYER
 10
96.4067159858
 20
141.1998905908
 11
96.4067159858
 21
147.1998905908
  0
LINE
  5
226
100
AcDbEntity
  8
0
100
AcDbLine
 62
7
  6
BYLAYER
 10
96.4067159858
 20
188.1998905908
 11
96.4067159858
 21
194.1998905908
  0
LINE
  5
227
100
AcDbEntity
  8
0
100
AcDbLine
 62
7
  6
BYLAYER
 10
97.3776111439
 20
141.1998905908
 11
97.3776111439
 21
147.1998905908
  0
LINE
  5
228
100
AcDbEntity
  8
0
100
AcDbLine
 62
7
  6
BYLAYER
 10
97.3776111439
 20
188.1998905908
 11
97.3776111439
 21
194.1998905908
  0
LINE
  5
229
100
AcDbEntity
  8
0
100
AcDbLine
 62
7
  6
BYLAYER
 10
170.8351663692
 20
145.0498905908
 11
170.7777575489
 21
145.0498905908
  0
LINE
  5
22A
100
AcDbEntity
  8
0
100
AcDbLine
 62
7
  6
BYLAYER
 10
89.0370204278
 20
145.0498905908
 11
88.9796116075
 21
145.0498905908
  0
LINE
  5
22B
100
AcDbEntity
  8
0
100
AcDbLine
 62
7
  6
BYLAYER
 10
170.878914274
 20
145.2586119235
 11
163.4080619909
 21
145.2586119235
  0
LINE
  5
22C
100
AcDbEntity
  8
0
100
AcDbLine
 62
7
  6
BYLAYER
 10
96.4067159858
 20
145.2586119235
 11
88.9358637027
 21
145.2586119235
  0
LINE
  5
22D
100
AcDbEntity
  8
0
100
AcDbLine
 62
7
  6
BYLAYER
 10
172.4073889884
 20
147.1998905908
 11
162.4371668328
 21
147.1998905908
  0
LINE
  5
22E
100
AcDbEntity
  8
0
100
AcDbLine
 62
7
  6
BYLAYER
 10
97.3776111439
 20
147.1998905908
 11
87.4073889884
 21
147.1998905908
  0
LINE
  5
22F
100
AcDbEntity
  8
0
100
AcDbLine
 62
7
  6
BYLAYER
 10
172.4073889884
 20
149.1998905908
 11
151.7110687502
 21
149.1998905908
  0
LINE
  5
230
100
AcDbEntity
  8
0
100
AcDbLine
 62
7
  6
BYLAYER
 10
108.1037092265
 20
149.1998905908
 11
87.4073889884
 21
149.1998905908
  0
LINE
  5
231
100
AcDbEntity
  8
0
100
AcDbLine
 62
7
  6
BYLAYER
 10
108.1037092265
 20
141.1998905908
 11
108.1037092265
 21
149.1998905908
  0
LINE
  5
232
100
AcDbEntity
  8
0
100
AcDbLine
 62
7
  6
BYLAYER
 10
108.1037092265
 20
186.1998905908
 11
108.1037092265
 21
194.1998905908
  0
LINE
  5
233
100
AcDbEntity
  8
0
100
AcDbLine
 62
7
  6
BYLAYER
 10
108.9073889884
 20
204.3998905908
 11
108.9073889884
 21
196.5998905908
  0
LINE
  5
234
100
AcDbEntity
  8
0
100
AcDbLine
 62
7
  6
BYLAYER
 10
110.9073889884
 20
210.5998905908
 11
108.9073889884
 21
204.3998905908
  0
LINE
  5
235
100
AcDbEntity
  8
0
100
AcDbLine
 62
7
  6
BYLAYER
 10
110.9073889884
 20
210.5998905908
 11
110.9073889884
 21
218.0998905908
  0
LINE
  5
236
100
AcDbEntity
  8
0
100
AcDbLine
 62
7
  6
BYLAYER
 10
111.0593121634
 20
212.5998905908
 11
111.0593121634
 21
210.5998905908
  0
LINE
  5
237
100
AcDbEntity
  8
0
100
AcDbLine
 62
7
  6
BYLAYER
 10
111.5425961845
 20
212.1167141021
 11
111.5425961845
 21
210.5998905908
  0
LINE
  5
238
100
AcDbEntity
  8
0
100
AcDbLine
 62
7
  6
BYLAYER
 10
111.9073889884
 20
196.5998905908
 11
111.9073889884
 21
194.1998905908
  0
LINE
  5
239
100
AcDbEntity
  8
0
100
AcDbLine
 62
7
  6
BYLAYER
 10
115.3993871486
 20
213.0941515922
 11
115.3993871486
 21
212.0998905908
  0
LINE
  5
23A
100
AcDbEntity
  8
0
100
AcDbLine
 62
7
  6
BYLAYER
 10
117.0468481446
 20
214.6998905908
 11
116.7933447351
 21
213.0941515922
  0
LINE
  5
23B
100
AcDbEntity
  8
0
100
AcDbLine
 62
7
  6
BYLAYER
 10
148.7554658133
 20
212.5998905908
 11
148.2721817922
 21
212.1166065697
  0
LINE
  5
23C
100
AcDbEntity
  8
0
100
AcDbLine
 62
7
  6
BYLAYER
 10
126.0153908281
 20
213.0941515922
 11
126.0153908281
 21
212.0998905908
  0
LINE
  5
23D
100
AcDbEntity
  8
0
100
AcDbLine
 62
7
  6
BYLAYER
 10
126.9073889884
 20
204.5998905908
 11
126.9073889884
 21
210.5998905908
  0
LINE
  5
23E
100
AcDbEntity
  8
0
100
AcDbLine
 62
7
  6
BYLAYER
 10
135.4468481446
 20
214.6998905908
 11
135.1933447351
 21
213.0941515922
  0
LINE
  5
23F
100
AcDbEntity
  8
0
100
AcDbLine
 62
7
  6
BYLAYER
 10
124.3679298321
 20
214.6998905908
 11
124.6214332416
 21
213.0941515922
  0
LINE
  5
240
100
AcDbEntity
  8
0
100
AcDbLine
 62
7
  6
BYLAYER
 10
132.9073889884
 20
204.5998905908
 11
132.9073889884
 21
210.5998905908
  0
LINE
  5
241
100
AcDbEntity
  8
0
100
AcDbLine
 62
7
  6
BYLAYER
 10
133.7993871486
 20
213.0941515922
 11
133.7993871486
 21
212.0998905908
  0
LINE
  5
242
100
AcDbEntity
  8
0
100
AcDbLine
 62
7
  6
BYLAYER
 10
87.4073889884
 20
186.1998905908
 11
108.1037092265
 21
186.1998905908
  0
LINE
  5
243
100
AcDbEntity
  8
0
100
AcDbLine
 62
7
  6
BYLAYER
 10
151.7110687502
 20
186.1998905908
 11
172.4073889884
 21
186.1998905908
  0
LINE
  5
244
100
AcDbEntity
  8
0
100
AcDbLine
 62
7
  6
BYLAYER
 10
144.4153908281
 20
213.0941515922
 11
144.4153908281
 21
212.0998905908
  0
LINE
  5
245
100
AcDbEntity
  8
0
100
AcDbLine
 62
7
  6
BYLAYER
 10
87.4073889884
 20
188.1998905908
 11
97.3776111439
 21
188.1998905908
  0
LINE
  5
246
100
AcDbEntity
  8
0
100
AcDbLine
 62
7
  6
BYLAYER
 10
162.4371668328
 20
188.1998905908
 11
172.4073889884
 21
188.1998905908
  0
LINE
  5
247
100
AcDbEntity
  8
0
100
AcDbLine
 62
7
  6
BYLAYER
 10
88.9358637027
 20
190.1411692582
 11
96.4067159858
 21
190.1411692582
  0
LINE
  5
248
100
AcDbEntity
  8
0
100
AcDbLine
 62
7
  6
BYLAYER
 10
163.4080619909
 20
190.1411692582
 11
170.878914274
 21
190.1411692582
  0
LINE
  5
249
100
AcDbEntity
  8
0
100
AcDbLine
 62
7
  6
BYLAYER
 10
88.9796116075
 20
190.3498905908
 11
89.0370204278
 21
190.3498905908
  0
LINE
  5
24A
100
AcDbEntity
  8
0
100
AcDbLine
 62
7
  6
BYLAYER
 10
170.7777575489
 20
190.3498905908
 11
170.8351663692
 21
190.3498905908
  0
LINE
  5
24B
100
AcDbEntity
  8
0
100
AcDbLine
 62
7
  6
BYLAYER
 10
89.1845094607
 20
190.5673440527
 11
96.4067159858
 21
190.5673440527
  0
LINE
  5
24C
100
AcDbEntity
  8
0
100
AcDbLine
 62
7
  6
BYLAYER
 10
163.4080619909
 20
190.5673440527
 11
170.630268516
 21
190.5673440527
  0
LINE
  5
24D
100
AcDbEntity
  8
0
100
AcDbLine
 62
7
  6
BYLAYER
 10
87.4073889884
 20
194.1998905908
 11
172.4073889884
 21
194.1998905908
  0
LINE
  5
24E
100
AcDbEntity
  8
0
100
AcDbLine
 62
7
  6
BYLAYER
 10
111.5425961845
 20
212.1166065697
 11
111.0593121634
 21
212.5998905908
  0
LINE
  5
24F
100
AcDbEntity
  8
0
100
AcDbLine
 62
7
  6
BYLAYER
 10
147.9073889884
 20
196.5998905908
 11
147.9073889884
 21
194.1998905908
  0
LINE
  5
250
100
AcDbEntity
  8
0
100
AcDbLine
 62
7
  6
BYLAYER
 10
148.2721817922
 20
212.1166065697
 11
148.2721817922
 21
210.5998905908
  0
LINE
  5
251
100
AcDbEntity
  8
0
100
AcDbLine
 62
7
  6
BYLAYER
 10
148.7554658133
 20
210.5998905908
 11
148.7554658133
 21
212.5998905908
  0
LINE
  5
252
100
AcDbEntity
  8
0
100
AcDbLine
 62
7
  6
BYLAYER
 10
148.9073889884
 20
218.0998905908
 11
148.9073889884
 21
210.5998905908
  0
LINE
  5
253
100
AcDbEntity
  8
0
100
AcDbLine
 62
7
  6
BYLAYER
 10
150.9073889884
 20
204.3998905908
 11
150.9073889884
 21
196.5998905908
  0
LINE
  5
254
100
AcDbEntity
  8
0
100
AcDbLine
 62
7
  6
BYLAYER
 10
151.7110687502
 20
194.1998905908
 11
151.7110687502
 21
186.1998905908
  0
LINE
  5
255
100
AcDbEntity
  8
0
100
AcDbLine
 62
7
  6
BYLAYER
 10
151.7110687502
 20
149.1998905908
 11
151.7110687502
 21
141.1998905908
  0
LINE
  5
256
100
AcDbEntity
  8
0
100
AcDbLine
 62
7
  6
BYLAYER
 10
150.9072063554
 20
196.5998905908
 11
108.9075716213
 21
196.5998905908
  0
LINE
  5
257
100
AcDbEntity
  8
0
100
AcDbLine
 62
7
  6
BYLAYER
 10
142.7679298321
 20
214.6998905908
 11
143.0214332416
 21
213.0941515922
  0
LINE
  5
258
100
AcDbEntity
  8
0
100
AcDbLine
 62
7
  6
BYLAYER
 10
108.9073889884
 20
204.3998905908
 11
150.9073889884
 21
204.3998905908
  0
LINE
  5
259
100
AcDbEntity
  8
0
100
AcDbLine
 62
7
  6
BYLAYER
 10
126.9073889884
 20
204.5998905908
 11
132.9073889884
 21
204.5998905908
  0
LINE
  5
25A
100
AcDbEntity
  8
0
100
AcDbLine
 62
7
  6
BYLAYER
 10
148.9073889884
 20
210.5998905908
 11
150.9073889884
 21
204.3998905908
  0
LINE
  5
25B
100
AcDbEntity
  8
0
100
AcDbLine
 62
7
  6
BYLAYER
 10
162.4371668328
 20
194.1998905908
 11
162.4371668328
 21
188.1998905908
  0
LINE
  5
25C
100
AcDbEntity
  8
0
100
AcDbLine
 62
7
  6
BYLAYER
 10
162.4371668328
 20
147.1998905908
 11
162.4371668328
 21
141.1998905908
  0
LINE
  5
25D
100
AcDbEntity
  8
0
100
AcDbLine
 62
7
  6
BYLAYER
 10
163.4080619909
 20
194.1998905908
 11
163.4080619909
 21
188.1998905908
  0
LINE
  5
25E
100
AcDbEntity
  8
0
100
AcDbLine
 62
7
  6
BYLAYER
 10
163.4080619909
 20
147.1998905908
 11
163.4080619909
 21
141.1998905908
  0
LINE
  5
25F
100
AcDbEntity
  8
0
100
AcDbLine
 62
7
  6
BYLAYER
 10
29.9073889884
 20
210.5998905908
 11
229.9073889884
 21
210.5998905908
  0
LINE
  5
260
100
AcDbEntity
  8
0
100
AcDbLine
 62
7
  6
BYLAYER
 10
111.5770862085
 20
212.0998905908
 11
148.2376917682
 21
212.0998905908
  0
LINE
  5
261
100
AcDbEntity
  8
0
100
AcDbLine
 62
7
  6
BYLAYER
 10
148.7554658133
 20
212.5998905908
 11
144.4153908281
 21
212.5998905908
  0
LINE
  5
262
100
AcDbEntity
  8
0
100
AcDbLine
 62
7
  6
BYLAYER
 10
133.7993871486
 20
212.5998905908
 11
126.0153908281
 21
212.5998905908
  0
LINE
  5
263
100
AcDbEntity
  8
0
100
AcDbLine
 62
7
  6
BYLAYER
 10
115.3993871486
 20
212.5998905908
 11
111.0593121634
 21
212.5998905908
  0
LINE
  5
264
100
AcDbEntity
  8
0
100
AcDbLine
 62
7
  6
BYLAYER
 10
115.3993973883
 20
213.0941515922
 11
126.0153805884
 21
213.0941515922
  0
LINE
  5
265
100
AcDbEntity
  8
0
100
AcDbLine
 62
7
  6
BYLAYER
 10
133.7993973883
 20
213.0941515922
 11
144.4153805884
 21
213.0941515922
  0
LINE
  5
266
100
AcDbEntity
  8
0
100
AcDbLine
 62
7
  6
BYLAYER
 10
117.0468692356
 20
214.6998905908
 11
117.1096210319
 21
214.6998905908
  0
LINE
  5
267
100
AcDbEntity
  8
0
100
AcDbLine
 62
7
  6
BYLAYER
 10
124.3051569448
 20
214.6998905908
 11
124.3679087411
 21
214.6998905908
  0
LINE
  5
268
100
AcDbEntity
  8
0
100
AcDbLine
 62
7
  6
BYLAYER
 10
135.4468692356
 20
214.6998905908
 11
135.5096210319
 21
214.6998905908
  0
LINE
  5
269
100
AcDbEntity
  8
0
100
AcDbLine
 62
7
  6
BYLAYER
 10
142.7051569448
 20
214.6998905908
 11
142.7679087411
 21
214.6998905908
  0
LINE
  5
26A
100
AcDbEntity
  8
0
100
AcDbLine
 62
7
  6
BYLAYER
 10
117.3336250487
 20
216.0928724192
 11
124.081152928
 21
216.0928724192
  0
LINE
  5
26B
100
AcDbEntity
  8
0
100
AcDbLine
 62
7
  6
BYLAYER
 10
135.7336250487
 20
216.0928724192
 11
142.481152928
 21
216.0928724192
  0
LINE
  5
26C
100
AcDbEntity
  8
0
100
AcDbLine
 62
7
  6
BYLAYER
 10
167.289604581
 20
194.1998905908
 11
167.289604581
 21
192.186098532
  0
LINE
  5
26D
100
AcDbEntity
  8
0
100
AcDbLine
 62
7
  6
BYLAYER
 10
167.289604581
 20
141.1998905908
 11
167.289604581
 21
143.2136813061
  0
LINE
  5
26E
100
AcDbEntity
  8
0
100
AcDbLine
 62
7
  6
BYLAYER
 10
167.9073889884
 20
186.1998905908
 11
167.9073889884
 21
149.1998905908
  0
LINE
  5
26F
100
AcDbEntity
  8
0
100
AcDbLine
 62
7
  6
BYLAYER
 10
170.878914274
 20
190.1411692582
 11
170.878914274
 21
188.1998905908
  0
LINE
  5
270
100
AcDbEntity
  8
0
100
AcDbLine
 62
7
  6
BYLAYER
 10
170.878914274
 20
145.2586119235
 11
170.878914274
 21
147.1998905908
  0
LINE
  5
271
100
AcDbEntity
  8
0
100
AcDbLine
 62
7
  6
BYLAYER
 10
171.1852278305
 20
141.1998905908
 11
171.1852278305
 21
147.1998905908
  0
LINE
  5
272
100
AcDbEntity
  8
0
100
AcDbLine
 62
7
  6
BYLAYER
 10
171.1852278305
 20
188.1998905908
 11
171.1852278305
 21
194.1998905908
  0
LINE
  5
273
100
AcDbEntity
  8
0
100
AcDbLine
 62
7
  6
BYLAYER
 10
172.0251852989
 20
194.1998905908
 11
172.0251852989
 21
188.1998905908
  0
LINE
  5
274
100
AcDbEntity
  8
0
100
AcDbLine
 62
7
  6
BYLAYER
 10
172.0251852989
 20
141.1998905908
 11
172.0251852989
 21
147.1998905908
  0
LINE
  5
275
100
AcDbEntity
  8
0
100
AcDbLine
 62
7
  6
BYLAYER
 10
172.4073889884
 20
141.1998905908
 11
172.4073889884
 21
194.1998905908
  0
LINE
  5
276
100
AcDbEntity
  8
0
100
AcDbLine
 62
7
  6
BYLAYER
 10
29.9073889884
 20
216.5998905908
 11
229.9073889884
 21
216.5998905908
  0
LINE
  5
277
100
AcDbEntity
  8
0
100
AcDbLine
 62
7
  6
BYLAYER
 10
148.9073889884
 20
218.0998905908
 11
110.9073889884
 21
218.0998905908
  0
LINE
  5
278
100
AcDbEntity
  8
0
100
AcDbLine
 62
7
  6
BYLAYER
 10
229.9073889884
 20
210.5998905908
 11
229.9073889884
 21
216.5998905908
  0
ARC
  5
279
100
AcDbEntity
  8
0
100
AcDbCircle
 62
7
  6
BYLAYER
 10
170.256470541
 20
190.1196507474
 40
0.6228155803
100
AcDbArc
 50
1.9799846272
 51
21.6956239789
  0
ARC
  5
27A
100
AcDbEntity
  8
0
100
AcDbCircle
 62
7
  6
BYLAYER
 10
170.256470541
 20
145.2801304342
 40
0.6228155803
100
AcDbArc
 50
338.3043760211
 51
358.0200153728
  0
ARC
  5
27B
100
AcDbEntity
  8
0
100
AcDbCircle
 62
7
  6
BYLAYER
 10
89.5583074357
 20
145.2801304342
 40
0.6228155803
100
AcDbArc
 50
181.9799846272
 51
201.6956239789
  0
ARC
  5
27C
100
AcDbEntity
  8
0
100
AcDbCircle
 62
7
  6
BYLAYER
 10
89.5583074357
 20
190.1196507474
 40
0.6228155803
100
AcDbArc
 50
158.3043760211
 51
178.0200153728
  0
LINE
  5
27D
100
AcDbEntity
  8
0
100
AcDbLine
 62
7
  6
BYLAYER
 10
124.3051569448
 20
214.6998905908
 11
124.081152928
 21
216.0928724192
  0
LINE
  5
27E
100
AcDbEntity
  8
0
100
AcDbLine
 62
7
  6
BYLAYER
 10
117.3336250487
 20
216.0928724192
 11
117.1096210319
 21
214.6998905908
  0
LINE
  5
27F
100
AcDbEntity
  8
0
100
AcDbLine
 62
7
  6
BYLAYER
 10
142.7051569448
 20
214.6998905908
 11
142.481152928
 21
216.0928724192
  0
LINE
  5
280
100
AcDbEntity
  8
0
100
AcDbLine
 62
7
  6
BYLAYER
 10
135.7336250487
 20
216.0928724192
 11
135.5096210319
 21
214.6998905908
  0
SPLINE
  5
281
100
AcDbEntity
  8
0
100
AcDbSpline
 62
7
  6
BYLAYER
 70
0
 71
3
 72
9
 73
5
 74
0
 42
0.0000001
 43
0.0000001
 44
0.0000000001
 40
0.0
 40
0.0
 40
0.0
 40
0.0
 40
0.2272098967
 40
1.0
 40
1.0
 40
1.0
 40
1.0
 10
111.5770862085
 20
212.0998905908
 30
0.0
 10
111.5741331272
 20
212.0998905908
 30
0.0
 10
111.5610981782
 20
212.1015637284
 30
0.0
 10
111.5496983692
 20
212.1096118272
 30
0.0
 10
111.5425961845
 20
212.1167141021
 30
0.0
  0
SPLINE
  5
282
100
AcDbEntity
  8
0
100
AcDbSpline
 62
7
  6
BYLAYER
 70
0
 71
3
 72
9
 73
5
 74
0
 42
0.0000001
 43
0.0000001
 44
0.0000000001
 40
0.0
 40
0.0
 40
0.0
 40
0.0
 40
0.286214303
 40
1.0
 40
1.0
 40
1.0
 40
1.0
 10
148.2721817922
 20
212.1167141019
 30
0.0
 10
148.2695580686
 20
212.114090345
 30
0.0
 10
148.2599029091
 20
212.105541704
 30
0.0
 10
148.2469454025
 20
212.0998905908
 30
0.0
 10
148.2376917682
 20
212.0998905908
 30
0.0
  0
SPLINE
  5
283
100
AcDbEntity
  8
0
100
AcDbSpline
 62
7
  6
BYLAYER
 70
0
 71
3
 72
17
 73
13
 74
0
 42
0.0000001
 43
0.0000001
 44
0.0000000001
 40
0.0
 40
0.0
 40
0.0
 40
0.0
 40
0.2496651694
 40
0.3747049997
 40
0.4997359854
 40
0.5622779703
 40
0.6248153991
 40
0.6873463893
 40
0.7498813435
 40
0.8124221584
 40
0.8749656572
 40
1.0
 40
1.0
 40
1.0
 40
1.0
 10
170.6297604751
 20
190.5677047783
 30
0.0
 10
170.1330418249
 20
190.9725463786
 30
0.0
 10
169.3107263039
 20
191.4940529358
 30
0.0
 10
168.1207892834
 20
191.9780858711
 30
0.0
 10
167.3444725846
 20
192.1900910409
 30
0.0
 10
166.7116553334
 20
192.3000045224
 30
0.0
 10
166.2322156704
 20
192.349780928
 30
0.0
 10
165.750066222
 20
192.3579561273
 30
0.0
 10
165.2693758108
 20
192.3212799608
 30
0.0
 10
164.7927969775
 20
192.2497012718
 30
0.0
 10
164.1651296234
 20
192.1135659217
 30
0.0
 10
163.7045476882
 20
191.9681133378
 30
0.0
 10
163.4048423963
 20
191.8533728747
 30
0.0
  0
SPLINE
  5
284
100
AcDbEntity
  8
0
100
AcDbSpline
 62
7
  6
BYLAYER
 70
0
 71
3
 72
8
 73
4
 74
0
 42
0.0000001
 43
0.0000001
 44
0.0000000001
 40
0.0
 40
0.0
 40
0.0
 40
0.0
 40
1.0
 40
1.0
 40
1.0
 40
1.0
 10
170.6297604751
 20
190.5677047783
 30
0.0
 10
170.6931881657
 20
190.5071210783
 30
0.0
 10
170.7446478853
 20
190.4312577166
 30
0.0
 10
170.7774022359
 20
190.3498905908
 30
0.0
  0
SPLINE
  5
285
100
AcDbEntity
  8
0
100
AcDbSpline
 62
7
  6
BYLAYER
 70
0
 71
3
 72
17
 73
13
 74
0
 42
0.0000001
 43
0.0000001
 44
0.0000000001
 40
0.0
 40
0.0
 40
0.0
 40
0.0
 40
0.1250343465
 40
0.1875778469
 40
0.2501186631
 40
0.3126536181
 40
0.3751846091
 40
0.4377220384
 40
0.5002640232
 40
0.6252950082
 40
0.7503348371
 40
1.0
 40
1.0
 40
1.0
 40
1.0
 10
163.4048415972
 20
143.5464086129
 30
0.0
 10
163.7045469186
 20
143.4316681019
 30
0.0
 10
164.1651289037
 20
143.2862154541
 30
0.0
 10
164.7927963304
 20
143.1500800251
 30
0.0
 10
165.2693752197
 20
143.0785012906
 30
0.0
 10
165.7500656865
 20
143.0418250683
 30
0.0
 10
166.2322151939
 20
143.0500002223
 30
0.0
 10
166.7116549163
 20
143.0997765981
 30
0.0
 10
167.3444722423
 20
143.2096900587
 30
0.0
 10
168.1207890294
 20
143.4216952206
 30
0.0
 10
169.310726173
 20
143.9057281685
 30
0.0
 10
170.1330417759
 20
144.427234761
 30
0.0
 10
170.6297604674
 20
144.8320763951
 30
0.0
  0
SPLINE
  5
286
100
AcDbEntity
  8
0
100
AcDbSpline
 62
7
  6
BYLAYER
 70
0
 71
3
 72
8
 73
4
 74
0
 42
0.0000001
 43
0.0000001
 44
0.0000000001
 40
0.0
 40
0.0
 40
0.0
 40
0.0
 40
1.0
 40
1.0
 40
1.0
 40
1.0
 10
170.7774022363
 20
145.0498905908
 30
0.0
 10
170.7446478843
 20
144.9685234615
 30
0.0
 10
170.6931881608
 20
144.8926600977
 30
0.0
 10
170.6297604674
 20
144.8320763951
 30
0.0
  0
SPLINE
  5
287
100
AcDbEntity
  8
0
100
AcDbSpline
 62
7
  6
BYLAYER
 70
0
 71
3
 72
17
 73
13
 74
0
 42
0.0000001
 43
0.0000001
 44
0.0000000001
 40
0.0
 40
0.0
 40
0.0
 40
0.0
 40
0.2496651694
 40
0.3747049997
 40
0.4997359854
 40
0.5622779703
 40
0.6248153991
 40
0.6873463893
 40
0.7498813435
 40
0.8124221584
 40
0.8749656572
 40
1.0
 40
1.0
 40
1.0
 40
1.0
 10
89.1850175016
 20
144.8320764034
 30
0.0
 10
89.6817361518
 20
144.427234803
 30
0.0
 10
90.5040516728
 20
143.9057282458
 30
0.0
 10
91.6939886933
 20
143.4216953105
 30
0.0
 10
92.4703053921
 20
143.2096901407
 30
0.0
 10
93.1031226433
 20
143.0997766592
 30
0.0
 10
93.5825623063
 20
143.0500002536
 30
0.0
 10
94.0647117547
 20
143.0418250543
 30
0.0
 10
94.5454021659
 20
143.0785012209
 30
0.0
 10
95.0219809992
 20
143.1500799098
 30
0.0
 10
95.6496483533
 20
143.2862152599
 30
0.0
 10
96.1102302885
 20
143.4316678439
 30
0.0
 10
96.4099355804
 20
143.5464083069
 30
0.0
  0
SPLINE
  5
288
100
AcDbEntity
  8
0
100
AcDbSpline
 62
7
  6
BYLAYER
 70
0
 71
3
 72
8
 73
4
 74
0
 42
0.0000001
 43
0.0000001
 44
0.0000000001
 40
0.0
 40
0.0
 40
0.0
 40
0.0
 40
1.0
 40
1.0
 40
1.0
 40
1.0
 10
89.1850175016
 20
144.8320764034
 30
0.0
 10
89.121589811
 20
144.8926601033
 30
0.0
 10
89.0701300914
 20
144.968523465
 30
0.0
 10
89.0373757408
 20
145.0498905908
 30
0.0
  0
SPLINE
  5
289
100
AcDbEntity
  8
0
100
AcDbSpline
 62
7
  6
BYLAYER
 70
0
 71
3
 72
17
 73
13
 74
0
 42
0.0000001
 43
0.0000001
 44
0.0000000001
 40
0.0
 40
0.0
 40
0.0
 40
0.0
 40
0.1250343465
 40
0.1875778469
 40
0.2501186631
 40
0.3126536181
 40
0.3751846091
 40
0.4377220384
 40
0.5002640232
 40
0.6252950082
 40
0.7503348371
 40
1.0
 40
1.0
 40
1.0
 40
1.0
 10
96.4099363795
 20
191.8533725687
 30
0.0
 10
96.1102310581
 20
191.9681130798
 30
0.0
 10
95.649649073
 20
192.1135657275
 30
0.0
 10
95.0219816463
 20
192.2497011565
 30
0.0
 10
94.545402757
 20
192.321279891
 30
0.0
 10
94.0647122902
 20
192.3579561133
 30
0.0
 10
93.5825627828
 20
192.3497809594
 30
0.0
 10
93.1031230604
 20
192.3000045835
 30
0.0
 10
92.4703057344
 20
192.1900911229
 30
0.0
 10
91.6939889473
 20
191.9780859611
 30
0.0
 10
90.5040518037
 20
191.4940530131
 30
0.0
 10
89.6817362008
 20
190.9725464206
 30
0.0
 10
89.1850175093
 20
190.5677047865
 30
0.0
  0
SPLINE
  5
28A
100
AcDbEntity
  8
0
100
AcDbSpline
 62
7
  6
BYLAYER
 70
0
 71
3
 72
8
 73
4
 74
0
 42
0.0000001
 43
0.0000001
 44
0.0000000001
 40
0.0
 40
0.0
 40
0.0
 40
0.0
 40
1.0
 40
1.0
 40
1.0
 40
1.0
 10
89.0373757404
 20
190.3498905908
 30
0.0
 10
89.0701300924
 20
190.4312577201
 30
0.0
 10
89.1215898159
 20
190.5071210839
 30
0.0
 10
89.1850175093
 20
190.5677047865
 30
0.0
  0
ENDSEC
  0
SECTION
  2
OBJECTS
  0
DICTIONARY
  5
C
100
AcDbDictionary
280
0
281
1
  3
ACAD_GROUP
350
D
  3
ACAD_MLINESTYLE
350
17
  3
ACAD_LAYOUT
350
1A
  3
ACAD_PLOTSETTINGS
350
19
  3
ACAD_PLOTSTYLENAME
350
E
  0
DICTIONARY
  5
D
102
{ACAD_REACTORS
330
C
102
}
100
AcDbDictionary
280
0
281
1
  0
ACDBDICTIONARYWDFLT
  5
E
102
{ACAD_REACTORS
330
C
102
}
100
AcDbDictionary
281
1
  3
Normal
350
F
100
AcDbDictionaryWithDefault
340
F
  0
DICTIONARY
  5
17
102
{ACAD_REACTORS
330
C
102
}
100
AcDbDictionary
280
0
281
1
  3
Standard
350
18
  0
DICTIONARY
  5
19
102
{ACAD_REACTORS
330
C
102
}
100
AcDbDictionary
281
1
  0
DICTIONARY
  5
1A
102
{ACAD_REACTORS
330
C
102
}
100
AcDbDictionary
281
1
  3
Model
350
28B
  3
Layout1
350
28C
  0
ACDBPLACEHOLDER
  5
F
102
{ACAD_REACTORS
330
E
102
}
  0
MLINESTYLE
  5
18
102
{ACAD_REACTORS
330
17
102
}
100
AcDbMlineStyle
  2
STANDARD
 70
0
  3

 62
256
 51
90.0
 52
90.0
 71
2
 49
0.5
 62
256
  6
BYLAYER
 49
-0.5
 62
256
  6
BYLAYER
  0
LAYOUT
  5
28B
102
{ACAD_REACTORS
330
1A
102
}
100
AcDbPlotSettings
  1

  2
none_device
  4

  6

 40
0.0
 41
0.0
 42
0.0
 43
0.0
 44
210.0
 45
297.0
 46
0.0
 47
0.0
 48
0.0
 49
0.0
140
0.0
141
0.0
142
1.0
143
1.0
 70
1024
 72
1
 73
0
 74
0
  7

 75
0
147
1.0
148
0.0
149
0.0
100
AcDbLayout
  1
Model
 70
0
 71
0
 10
0.0
 20
0.0
 11
210.0
 21
297.0
 12
0.0
 22
0.0
 32
0.0
 14
0.0
 24
0.0
 34
0.0
 15
0.0
 25
0.0
 35
0.0
146
0.0
 13
0.0
 23
0.0
 33
0.0
 16
1.0
 26
0.0
 36
0.0
 17
0.0
 27
1.0
 37
0.0
 76
0
330
210
345
0
346
0
  0
LAYOUT
  5
28C
102
{ACAD_REACTORS
330
1A
102
}
100
AcDbPlotSettings
  1

  2
none_device
  4

  6

 40
0.0
 41
0.0
 42
0.0
 43
0.0
 44
210.0
 45
297.0
 46
0.0
 47
0.0
 48
0.0
 49
0.0
140
0.0
141
0.0
142
1.0
143
1.0
 70
0
 72
1
 73
0
 74
0
  7

 75
0
147
1.0
148
0.0
149
0.0
100
AcDbLayout
  1
Layout1
 70
0
 71
1
 10
0.0
 20
0.0
 11
210.0
 21
297.0
 12
0.0
 22
0.0
 32
0.0
 14
0.0
 24
0.0
 34
0.0
 15
0.0
 25
0.0
 35
0.0
146
0.0
 13
0.0
 23
0.0
 33
0.0
 16
1.0
 26
0.0
 36
0.0
 17
0.0
 27
1.0
 37
0.0
 76
0
330
211
345
0
346
0
  0
ENDSEC
  0
EOF
