999
DXF file: C:\Users\sesa63760\Dev\_Creo\CAD\MCADID0004002_3D-CAD\drw0001_6.dxf
999
Pro/ENGINEER 2019471 by Parametric Technology Corporation
  0
SECTION
  2
HEADER
  9
$ACADVER
  1
AC1024
  9
$DWGCODEPAGE
  3
ANSI_1252
  9
$EXTMAX
 10
90.5069071459
 20
128.0026258206
 30
0.0
  9
$EXTMIN
 10
0.0
 20
0.0
 30
0.0
  9
$LIMMIN
 10
0.0
 20
0.0
  9
$LIMMAX
 10
90.5069071459
 20
128.0026258206
  9
$VIEWCTR
 10
45.2534535729
 20
64.0013129103
  9
$VIEWSIZE
 40
128.0026258206
  9
$CLAYER
  8
0
  9
$LTSCALE
 40
8.3438748683
  9
$CELTYPE
  6
BYLAYER
  9
$DIMSCALE
 40
1.0
  9
$DIMASZ
 40
1.0774631803
  9
$DIMEXO
 40
1.0
  9
$DIMDLI
 40
5.7648589999
  9
$DIMEXE
 40
1.0
  9
$DIMCEN
 40
1.3653613421
  9
$DIMLFAC
 40
1.0
  9
$DIMBLK
  1
_FILLED
  9
$DIMALT
 70
0
  9
$DIMALTF
 40
0.0393700787
  9
$DIMTXT
 40
1.5084484524
  9
$DIMTOL
 70
1
  9
$DIMLIM
 70
0
  9
$DIMTFAC
 40
1.0
  9
$DIMTP
 40
0.01
  9
$DIMTM
 40
0.01
  9
$DIMGAP
 40
0.625
  9
$DIMDSEP
 70
46
  9
$AUNITS
 70
0
  9
$PDMODE
 70
3
  9
$PDSIZE
 40
0.3125
  9
$HANDSEED
  5
33B
  9
$TILEMODE
 70
1
  9
$MEASUREMENT
 70
1
  9
$INSUNITS
 70
4
  0
ENDSEC
  0
SECTION
  2
CLASSES
  0
CLASS
  1
ACDBDICTIONARYWDFLT
  2
AcDbDictionaryWithDefault
  3
AutoCAD 2000
 90
0
 91
1
280
0
281
0
  0
CLASS
  1
ACDBPLACEHOLDER
  2
AcDbPlaceHolder
  3
AutoCAD 2000
 90
0
 91
1
280
0
281
0
  0
CLASS
  1
LAYOUT
  2
AcDbLayout
  3
AutoCAD 2000
 90
0
 91
0
280
0
281
0
  0
ENDSEC
  0
SECTION
  2
TABLES
  0
TABLE
  2
VPORT
  5
8
100
AcDbSymbolTable
 70
2
  0
VPORT
  5
1F4
100
AcDbSymbolTableRecord
100
AcDbViewportTableRecord
  2
*ACTIVE
 70
0
 10
0.0
 20
0.0
 11
1.0
 21
1.0
 12
45.2534535729
 22
64.0013129103
 13
0.0
 23
0.0
 14
1.0
 24
1.0
 15
0.0
 25
0.0
 16
0.0
 26
0.0
 36
1.0
 17
0.0
 27
0.0
 37
0.0
 40
128.0026258206
 41
0.7070707071
 42
50.0
 43
0.0
 44
0.0
 50
0.0
 51
0.0
 71
0
 72
100
 73
1
 74
1
 75
0
 76
0
 77
0
 78
0
  0
ENDTAB
  0
TABLE
  2
LTYPE
  5
5
100
AcDbSymbolTable
 70
6
  0
LTYPE
  5
14
100
AcDbSymbolTableRecord
100
AcDbLinetypeTableRecord
  2
BYBLOCK
 70
0
  3

 72
65
 73
0
 40
0.0
  0
LTYPE
  5
15
100
AcDbSymbolTableRecord
100
AcDbLinetypeTableRecord
  2
BYLAYER
 70
0
  3

 72
65
 73
0
 40
0.0
  0
LTYPE
  5
16
100
AcDbSymbolTableRecord
100
AcDbLinetypeTableRecord
  2
CONTINUOUS
 70
64
  3
Solid line
 72
65
 73
0
 40
0.0
  0
LTYPE
  5
1F5
100
AcDbSymbolTableRecord
100
AcDbLinetypeTableRecord
  2
CENTER
 70
64
  3
____ _ ____ _ ____ _ ____ _ ____ _ ____ _ ____
 72
65
 73
4
 40
0.6
 49
0.375
 74
0
 49
-0.075
 74
0
 49
0.075
 74
0
 49
-0.075
 74
0
  0
LTYPE
  5
1F6
100
AcDbSymbolTableRecord
100
AcDbLinetypeTableRecord
  2
HIDDEN
 70
64
  3
- - - - - - - - - - - - - - - - - - - -
 72
65
 73
2
 40
0.2
 49
0.1
 74
0
 49
-0.1
 74
0
  0
LTYPE
  5
1F7
100
AcDbSymbolTableRecord
100
AcDbLinetypeTableRecord
  2
PHANTOM
 70
64
  3
_____ _ _ _____ _ _ _____ _ _ _____
 72
65
 73
6
 40
0.8
 49
0.45
 74
0
 49
-0.05
 74
0
 49
0.1
 74
0
 49
-0.05
 74
0
 49
0.1
 74
0
 49
-0.05
 74
0
  0
LTYPE
  5
1F8
100
AcDbSymbolTableRecord
100
AcDbLinetypeTableRecord
  2
DOT
 70
64
  3
. . . . . . . . . . . . . . . . . . . .
 72
65
 73
2
 40
0.2
 49
0.1
 74
0
 49
-0.1
 74
0
  0
LTYPE
  5
1F9
100
AcDbSymbolTableRecord
100
AcDbLinetypeTableRecord
  2
DASHED
 70
64
  3
- - - - - - - - - - - - - - - - - - - -
 72
65
 73
2
 40
0.2
 49
0.1
 74
0
 49
-0.1
 74
0
  0
ENDTAB
  0
TABLE
  2
LAYER
  5
2
100
AcDbSymbolTable
 70
36
  0
LAYER
  5
10
100
AcDbSymbolTableRecord
100
AcDbLayerTableRecord
  2
0
 70
0
 62
7
  6
CONTINUOUS
370
-3
390
F
  0
LAYER
  5
1FA
100
AcDbSymbolTableRecord
100
AcDbLayerTableRecord
  2
DEFAULT_1
 70
0
 62
7
  6
CENTER
370
-3
390
F
  0
LAYER
  5
1FB
100
AcDbSymbolTableRecord
100
AcDbLayerTableRecord
  2
DEFAULT_2
 70
0
 62
7
  6
HIDDEN
370
-3
390
F
  0
LAYER
  5
1FC
100
AcDbSymbolTableRecord
100
AcDbLayerTableRecord
  2
DEFAULT_3
 70
0
 62
7
  6
PHANTOM
370
-3
390
F
  0
LAYER
  5
1FD
100
AcDbSymbolTableRecord
100
AcDbLayerTableRecord
  2
00_COMPONENTS
 70
0
 62
7
  6
CONTINUOUS
370
-3
390
F
  0
LAYER
  5
1FE
100
AcDbSymbolTableRecord
100
AcDbLayerTableRecord
  2
01_1_DEFAULT_DATUMS
 70
0
 62
7
  6
CONTINUOUS
370
-3
390
F
  0
LAYER
  5
1FF
100
AcDbSymbolTableRecord
100
AcDbLayerTableRecord
  2
01_PLANES
 70
0
 62
7
  6
CONTINUOUS
370
-3
390
F
  0
LAYER
  5
200
100
AcDbSymbolTableRecord
100
AcDbLayerTableRecord
  2
02_COORD_SYS
 70
0
 62
7
  6
CONTINUOUS
370
-3
390
F
  0
LAYER
  5
201
100
AcDbSymbolTableRecord
100
AcDbLayerTableRecord
  2
03_AXES
 70
0
 62
7
  6
CONTINUOUS
370
-3
390
F
  0
LAYER
  5
202
100
AcDbSymbolTableRecord
100
AcDbLayerTableRecord
  2
04_POINTS
 70
0
 62
7
  6
CONTINUOUS
370
-3
390
F
  0
LAYER
  5
203
100
AcDbSymbolTableRecord
100
AcDbLayerTableRecord
  2
05_CURVES
 70
0
 62
7
  6
CONTINUOUS
370
-3
390
F
  0
LAYER
  5
204
100
AcDbSymbolTableRecord
100
AcDbLayerTableRecord
  2
06_SURFS
 70
0
 62
7
  6
CONTINUOUS
370
-3
390
F
  0
LAYER
  5
205
100
AcDbSymbolTableRecord
100
AcDbLayerTableRecord
  2
07_COSMETICS
 70
0
 62
7
  6
CONTINUOUS
370
-3
390
F
  0
LAYER
  5
206
100
AcDbSymbolTableRecord
100
AcDbLayerTableRecord
  2
10_NOTES
 70
0
 62
7
  6
CONTINUOUS
370
-3
390
F
  0
LAYER
  5
207
100
AcDbSymbolTableRecord
100
AcDbLayerTableRecord
  2
11_NOTES_PUB
 70
0
 62
7
  6
CONTINUOUS
370
-3
390
F
  0
LAYER
  5
208
100
AcDbSymbolTableRecord
100
AcDbLayerTableRecord
  2
13_REF_GTOL
 70
0
 62
7
  6
CONTINUOUS
370
-3
390
F
  0
LAYER
  5
209
100
AcDbSymbolTableRecord
100
AcDbLayerTableRecord
  2
16_MISC
 70
0
 62
7
  6
CONTINUOUS
370
-3
390
F
  0
LAYER
  5
20A
100
AcDbSymbolTableRecord
100
AcDbLayerTableRecord
  2
17_NO_PRINT
 70
0
 62
7
  6
CONTINUOUS
370
-3
390
F
  0
LAYER
  5
20B
100
AcDbSymbolTableRecord
100
AcDbLayerTableRecord
  2
18_DATUM_CAMS_JOINTS
 70
0
 62
7
  6
CONTINUOUS
370
-3
390
F
  0
LAYER
  5
20C
100
AcDbSymbolTableRecord
100
AcDbLayerTableRecord
  2
19_DATUM_FUNCTIONAL
 70
0
 62
7
  6
CONTINUOUS
370
-3
390
F
  0
LAYER
  5
20D
100
AcDbSymbolTableRecord
100
AcDbLayerTableRecord
  2
20_DATUM_KINEMATIC_SCHEME
 70
0
 62
7
  6
CONTINUOUS
370
-3
390
F
  0
ENDTAB
  0
TABLE
  2
STYLE
  5
3
100
AcDbSymbolTable
 70
1
  0
STYLE
  5
11
100
AcDbSymbolTableRecord
100
AcDbTextStyleTableRecord
  2
STANDARD
 70
0
 40
0.0
 41
1.0
 50
0.0
 71
0
 42
0.2
  3
ARIAL.TTF
  4

  0
STYLE
  5
20E
100
AcDbSymbolTableRecord
100
AcDbTextStyleTableRecord
  2
TEXTSTYLE_1
 70
0
 40
0.0
 41
0.8
 50
0.0
 71
0
 42
0.2
  3
gdt
  4

  0
ENDTAB
  0
TABLE
  2
VIEW
  5
6
100
AcDbSymbolTable
 70
0
  0
ENDTAB
  0
TABLE
  2
UCS
  5
7
100
AcDbSymbolTable
 70
0
  0
ENDTAB
  0
TABLE
  2
APPID
  5
9
100
AcDbSymbolTable
 70
1
  0
APPID
  5
20F
100
AcDbSymbolTableRecord
100
AcDbRegAppTableRecord
  2
ACAD
 70
0
  0
ENDTAB
  0
TABLE
  2
BLOCK_RECORD
  5
1
100
AcDbSymbolTable
 70
0
  0
BLOCK_RECORD
  5
210
100
AcDbSymbolTableRecord
100
AcDbBlockTableRecord
  2
*Model_Space
  0
BLOCK_RECORD
  5
211
100
AcDbSymbolTableRecord
100
AcDbBlockTableRecord
  2
*Paper_Space
  0
BLOCK_RECORD
  5
212
100
AcDbSymbolTableRecord
100
AcDbBlockTableRecord
  2
_FILLED
  0
ENDTAB
  0
TABLE
  2
DIMSTYLE
  5
A
100
AcDbSymbolTable
 70
1
100
AcDbDimStyleTable
 71
0
  0
DIMSTYLE
105
213
100
AcDbSymbolTableRecord
100
AcDbDimStyleTableRecord
  2
STANDARD
 70
0
  3

  4

 40
1.0
 41
1.0774631803
 42
1.0
 43
0.38
 44
1.0
 45
0.0
 46
0.0
 47
0.01
 48
0.01
140
1.5084484524
141
0.09
142
0.0
143
25.4
144
1.0
145
0.0
146
1.0
147
0.625
 71
1
 72
0
 73
0
 74
0
 75
0
 76
0
 77
1
 78
8
 79
2
170
0
171
1
172
0
173
0
174
0
175
0
176
0
177
0
178
0
270
2
179
2
271
2
272
2
273
2
274
2
275
0
280
0
281
0
282
0
283
1
284
8
285
0
286
0
287
3
288
0
340
11
278
46
341
212
342
212
343
212
344
212
  0
ENDTAB
  0
ENDSEC
  0
SECTION
  2
BLOCKS
  0
BLOCK
  5
20
100
AcDbEntity
  8
0
100
AcDbBlockBegin
  2
*Model_Space
 70
0
 10
0.0
 20
0.0
 30
0.0
  3
*Model_Space
  1

  0
ENDBLK
  5
21
100
AcDbEntity
  8
0
100
AcDbBlockEnd
  0
BLOCK
  5
1C
100
AcDbEntity
  8
0
100
AcDbBlockBegin
  2
*Paper_Space
 70
0
 10
0.0
 20
0.0
 30
0.0
  3
*Paper_Space
  1

  0
ENDBLK
  5
1D
100
AcDbEntity
  8
0
100
AcDbBlockEnd
  0
BLOCK
  5
214
100
AcDbEntity
  8
0
100
AcDbBlockBegin
  2
_FILLED
 70
64
 10
0.0
 20
0.0
  3
_FILLED
  1

  0
SOLID
  5
215
100
AcDbEntity
  8
0
  6
BYBLOCK
 62
0
100
AcDbTrace
 10
0.0
 20
0.0
 11
-1.0
 21
0.25
 12
-1.0
 22
-0.25
 13
-1.0
 23
-0.25
  0
ENDBLK
  5
216
100
AcDbEntity
  8
0
  6
BYBLOCK
 62
0
100
AcDbBlockEnd
  0
ENDSEC
  0
SECTION
  2
ENTITIES
  0
LINE
  5
217
100
AcDbEntity
  8
0
100
AcDbLine
 62
7
  6
BYLAYER
 10
10.236823376
 20
58.8805323278
 11
10.236823376
 21
69.1220934728
  0
LINE
  5
218
100
AcDbEntity
  8
0
100
AcDbLine
 62
7
  6
BYLAYER
 10
11.536823376
 20
58.6513129003
 11
11.536823376
 21
69.3513129003
  0
LINE
  5
219
100
AcDbEntity
  8
0
100
AcDbLine
 62
7
  6
BYLAYER
 10
11.836823376
 20
69.3513129003
 11
11.836823376
 21
58.6513129003
  0
LINE
  5
21A
100
AcDbEntity
  8
0
100
AcDbLine
 62
7
  6
BYLAYER
 10
12.836823376
 20
57.6513129003
 11
12.836823376
 21
70.3513129003
  0
LINE
  5
21B
100
AcDbEntity
  8
0
100
AcDbLine
 62
7
  6
BYLAYER
 10
17.986823376
 20
70.3513129003
 11
17.986823376
 21
57.6513129003
  0
LINE
  5
21C
100
AcDbEntity
  8
0
100
AcDbLine
 62
7
  6
BYLAYER
 10
11.836823376
 20
69.3513129003
 11
12.836823376
 21
70.3513129003
  0
LINE
  5
21D
100
AcDbEntity
  8
0
100
AcDbLine
 62
7
  6
BYLAYER
 10
11.836823376
 20
58.6513129003
 11
12.836823376
 21
57.6513129003
  0
LINE
  5
21E
100
AcDbEntity
  8
0
100
AcDbLine
 62
7
  6
BYLAYER
 10
18.986823376
 20
58.6513129003
 11
18.986823376
 21
69.3513129003
  0
LINE
  5
21F
100
AcDbEntity
  8
0
100
AcDbLine
 62
7
  6
BYLAYER
 10
23.936823376
 20
56.5014226009
 11
23.936823376
 21
71.5012031997
  0
LINE
  5
220
100
AcDbEntity
  8
0
100
AcDbLine
 62
7
  6
BYLAYER
 10
24.136823376
 20
56.3013129003
 11
24.136823376
 21
71.7013129003
  0
LINE
  5
221
100
AcDbEntity
  8
0
100
AcDbLine
 62
7
  6
BYLAYER
 10
26.936823376
 20
71.7012807838
 11
26.936823376
 21
56.3014595495
  0
LINE
  5
222
100
AcDbEntity
  8
0
100
AcDbLine
 62
7
  6
BYLAYER
 10
27.036823376
 20
56.3014234314
 11
27.036823376
 21
71.7012023692
  0
LINE
  5
223
100
AcDbEntity
  8
0
100
AcDbLine
 62
7
  6
BYLAYER
 10
30.436823376
 20
71.7013129003
 11
30.436823376
 21
56.3013129003
  0
LINE
  5
224
100
AcDbEntity
  8
0
100
AcDbLine
 62
7
  6
BYLAYER
 10
30.436823376
 20
71.7013129003
 11
31.736823376
 21
73.0013129003
  0
LINE
  5
225
100
AcDbEntity
  8
0
100
AcDbLine
 62
7
  6
BYLAYER
 10
18.986823376
 20
58.6513129003
 11
17.986823376
 21
57.6513129003
  0
LINE
  5
226
100
AcDbEntity
  8
0
100
AcDbLine
 62
7
  6
BYLAYER
 10
68.036823376
 20
53.2499027388
 11
67.836823376
 21
53.1963129003
  0
LINE
  5
227
100
AcDbEntity
  8
0
100
AcDbLine
 62
7
  6
BYLAYER
 10
30.436823376
 20
56.3013129003
 11
31.736823376
 21
55.0013129003
  0
LINE
  5
228
100
AcDbEntity
  8
0
100
AcDbLine
 62
7
  6
BYLAYER
 10
18.986823376
 20
69.3513129003
 11
17.986823376
 21
70.3513129003
  0
LINE
  5
229
100
AcDbEntity
  8
0
100
AcDbLine
 62
7
  6
BYLAYER
 10
31.736823376
 20
55.0013129003
 11
31.736823376
 21
73.0013129003
  0
LINE
  5
22A
100
AcDbEntity
  8
0
100
AcDbLine
 62
7
  6
BYLAYER
 10
74.3789324539
 20
50.2949064343
 11
72.2947130783
 21
50.2949064397
  0
LINE
  5
22B
100
AcDbEntity
  8
0
100
AcDbLine
 62
7
  6
BYLAYER
 10
65.2947133162
 20
50.2949064624
 11
67.3789334287
 21
50.29490644
  0
LINE
  5
22C
100
AcDbEntity
  8
0
100
AcDbLine
 62
7
  6
BYLAYER
 10
10.236823376
 20
58.8805379752
 11
11.536823376
 21
58.6513129003
  0
LINE
  5
22D
100
AcDbEntity
  8
0
100
AcDbLine
 62
7
  6
BYLAYER
 10
81.236823376
 20
55.0013129003
 11
74.836823376
 21
55.0013129003
  0
LINE
  5
22E
100
AcDbEntity
  8
0
100
AcDbLine
 62
7
  6
BYLAYER
 10
71.2219634159
 20
55.0013129003
 11
68.4516877735
 21
55.0013129003
  0
LINE
  5
22F
100
AcDbEntity
  8
0
100
AcDbLine
 62
7
  6
BYLAYER
 10
64.836823376
 20
55.0013129003
 11
31.736823376
 21
55.0013129003
  0
LINE
  5
230
100
AcDbEntity
  8
0
100
AcDbLine
 62
7
  6
BYLAYER
 10
81.436823376
 20
55.8013129003
 11
81.7691040908
 21
55.8013129003
  0
LINE
  5
231
100
AcDbEntity
  8
0
100
AcDbLine
 62
7
  6
BYLAYER
 10
30.436823376
 20
56.3013129003
 11
27.036823376
 21
56.3013129003
  0
LINE
  5
232
100
AcDbEntity
  8
0
100
AcDbLine
 62
7
  6
BYLAYER
 10
26.936823376
 20
56.3013129003
 11
24.136823376
 21
56.3013129003
  0
LINE
  5
233
100
AcDbEntity
  8
0
100
AcDbLine
 62
7
  6
BYLAYER
 10
27.036823376
 20
56.3513129003
 11
26.936823376
 21
56.3513129003
  0
LINE
  5
234
100
AcDbEntity
  8
0
100
AcDbLine
 62
7
  6
BYLAYER
 10
65.2947133161
 20
56.9231096349
 11
67.3789334289
 21
56.9231096702
  0
LINE
  5
235
100
AcDbEntity
  8
0
100
AcDbLine
 62
7
  6
BYLAYER
 10
74.378933436
 20
56.9231096471
 11
72.2947133231
 21
56.9231096696
  0
LINE
  5
236
100
AcDbEntity
  8
0
100
AcDbLine
 62
7
  6
BYLAYER
 10
74.4045433041
 20
57.5731096731
 11
72.2691046726
 21
57.57310967
  0
LINE
  5
237
100
AcDbEntity
  8
0
100
AcDbLine
 62
7
  6
BYLAYER
 10
65.2691044274
 20
57.573109674
 11
67.4045423245
 21
57.5731096701
  0
LINE
  5
238
100
AcDbEntity
  8
0
100
AcDbLine
 62
7
  6
BYLAYER
 10
17.986823376
 20
57.6513129003
 11
12.836823376
 21
57.6513129003
  0
LINE
  5
239
100
AcDbEntity
  8
0
100
AcDbLine
 62
7
  6
BYLAYER
 10
23.936823376
 20
58.6513129003
 11
18.986823376
 21
58.6513129003
  0
LINE
  5
23A
100
AcDbEntity
  8
0
100
AcDbLine
 62
7
  6
BYLAYER
 10
11.836823376
 20
58.6513129003
 11
11.536823376
 21
58.6513129003
  0
LINE
  5
23B
100
AcDbEntity
  8
0
100
AcDbLine
 62
7
  6
BYLAYER
 10
71.636823376
 20
53.2499027388
 11
71.836823376
 21
53.1963129003
  0
LINE
  5
23C
100
AcDbEntity
  8
0
100
AcDbLine
 62
7
  6
BYLAYER
 10
71.636823376
 20
74.7527230618
 11
71.836823376
 21
74.8063129003
  0
LINE
  5
23D
100
AcDbEntity
  8
0
100
AcDbLine
 62
7
  6
BYLAYER
 10
23.936823376
 20
69.3513129003
 11
18.986823376
 21
69.3513129003
  0
LINE
  5
23E
100
AcDbEntity
  8
0
100
AcDbLine
 62
7
  6
BYLAYER
 10
11.836823376
 20
69.3513129003
 11
11.536823376
 21
69.3513129003
  0
LINE
  5
23F
100
AcDbEntity
  8
0
100
AcDbLine
 62
7
  6
BYLAYER
 10
17.986823376
 20
70.3513129003
 11
12.836823376
 21
70.3513129003
  0
LINE
  5
240
100
AcDbEntity
  8
0
100
AcDbLine
 62
7
  6
BYLAYER
 10
74.4045423246
 20
70.4295161266
 11
72.2691044276
 21
70.4295161305
  0
LINE
  5
241
100
AcDbEntity
  8
0
100
AcDbLine
 62
7
  6
BYLAYER
 10
65.2691044274
 20
70.4295161275
 11
67.4045423245
 21
70.4295161306
  0
LINE
  5
242
100
AcDbEntity
  8
0
100
AcDbLine
 62
7
  6
BYLAYER
 10
74.3789324512
 20
71.0795161659
 11
72.2947130769
 21
71.0795161304
  0
LINE
  5
243
100
AcDbEntity
  8
0
100
AcDbLine
 62
7
  6
BYLAYER
 10
65.2947133221
 20
71.0795161541
 11
67.3789334287
 21
71.0795161309
  0
LINE
  5
244
100
AcDbEntity
  8
0
100
AcDbLine
 62
7
  6
BYLAYER
 10
27.036823376
 20
71.6513129003
 11
26.936823376
 21
71.6513129003
  0
LINE
  5
245
100
AcDbEntity
  8
0
100
AcDbLine
 62
7
  6
BYLAYER
 10
30.436823376
 20
71.7013129003
 11
27.036823376
 21
71.7013129003
  0
LINE
  5
246
100
AcDbEntity
  8
0
100
AcDbLine
 62
7
  6
BYLAYER
 10
26.936823376
 20
71.7013129003
 11
24.136823376
 21
71.7013129003
  0
LINE
  5
247
100
AcDbEntity
  8
0
100
AcDbLine
 62
7
  6
BYLAYER
 10
81.7691040908
 20
72.2013129003
 11
81.436823376
 21
72.2013129003
  0
LINE
  5
248
100
AcDbEntity
  8
0
100
AcDbLine
 62
7
  6
BYLAYER
 10
81.236823376
 20
73.0013129003
 11
74.836823376
 21
73.0013129003
  0
LINE
  5
249
100
AcDbEntity
  8
0
100
AcDbLine
 62
7
  6
BYLAYER
 10
71.2219589785
 20
73.0013129003
 11
68.4516833361
 21
73.0013129003
  0
LINE
  5
24A
100
AcDbEntity
  8
0
100
AcDbLine
 62
7
  6
BYLAYER
 10
64.836823376
 20
73.0013129003
 11
31.736823376
 21
73.0013129003
  0
LINE
  5
24B
100
AcDbEntity
  8
0
100
AcDbLine
 62
7
  6
BYLAYER
 10
10.236823376
 20
69.1220878254
 11
11.536823376
 21
69.3513129003
  0
LINE
  5
24C
100
AcDbEntity
  8
0
100
AcDbLine
 62
7
  6
BYLAYER
 10
64.836823376
 20
76.0013129003
 11
65.2840055144
 21
77.6702193609
  0
LINE
  5
24D
100
AcDbEntity
  8
0
100
AcDbLine
 62
7
  6
BYLAYER
 10
68.036823376
 20
64.0013129003
 11
68.536823376
 21
64.5013129003
  0
LINE
  5
24E
100
AcDbEntity
  8
0
100
AcDbLine
 62
7
  6
BYLAYER
 10
74.3789334301
 20
77.7077193372
 11
72.2947133231
 21
77.7077193605
  0
LINE
  5
24F
100
AcDbEntity
  8
0
100
AcDbLine
 62
7
  6
BYLAYER
 10
65.2947133217
 20
77.7077193663
 11
67.3789334289
 21
77.7077193609
  0
LINE
  5
250
100
AcDbEntity
  8
0
100
AcDbLine
 62
7
  6
BYLAYER
 10
68.036823376
 20
64.0013129003
 11
68.536823376
 21
63.5013129003
  0
LINE
  5
251
100
AcDbEntity
  8
0
100
AcDbLine
 62
7
  6
BYLAYER
 10
64.836823376
 20
52.0013129003
 11
65.2840055143
 21
50.3324064397
  0
LINE
  5
252
100
AcDbEntity
  8
0
100
AcDbLine
 62
7
  6
BYLAYER
 10
71.636823376
 20
64.0013129003
 11
71.136823376
 21
63.5013129003
  0
LINE
  5
253
100
AcDbEntity
  8
0
100
AcDbLine
 62
7
  6
BYLAYER
 10
68.036823376
 20
74.7527230618
 11
67.836823376
 21
74.8063129003
  0
LINE
  5
254
100
AcDbEntity
  8
0
100
AcDbLine
 62
7
  6
BYLAYER
 10
71.636823376
 20
64.0013129003
 11
71.136823376
 21
64.5013129003
  0
LINE
  5
255
100
AcDbEntity
  8
0
100
AcDbLine
 62
7
  6
BYLAYER
 10
64.836823376
 20
52.0013169486
 11
64.836823376
 21
76.001308852
  0
LINE
  5
256
100
AcDbEntity
  8
0
100
AcDbLine
 62
7
  6
BYLAYER
 10
67.836823376
 20
76.001308852
 11
67.836823376
 21
52.0013169486
  0
LINE
  5
257
100
AcDbEntity
  8
0
100
AcDbLine
 62
7
  6
BYLAYER
 10
68.536823376
 20
74.6069688434
 11
68.536823376
 21
74.2128729947
  0
LINE
  5
258
100
AcDbEntity
  8
0
100
AcDbLine
 62
7
  6
BYLAYER
 10
68.536823376
 20
74.1161803579
 11
68.536823376
 21
73.8359339486
  0
LINE
  5
259
100
AcDbEntity
  8
0
100
AcDbLine
 62
7
  6
BYLAYER
 10
68.536823376
 20
73.6083196388
 11
68.536823376
 21
73.2907218097
  0
LINE
  5
25A
100
AcDbEntity
  8
0
100
AcDbLine
 62
7
  6
BYLAYER
 10
68.536823376
 20
72.9360803708
 11
68.536823376
 21
72.5865653089
  0
LINE
  5
25B
100
AcDbEntity
  8
0
100
AcDbLine
 62
7
  6
BYLAYER
 10
68.536823376
 20
72.1109647542
 11
68.536823376
 21
71.7355127591
  0
LINE
  5
25C
100
AcDbEntity
  8
0
100
AcDbLine
 62
7
  6
BYLAYER
 10
68.536823376
 20
71.147090746
 11
68.536823376
 21
70.7521259053
  0
LINE
  5
25D
100
AcDbEntity
  8
0
100
AcDbLine
 62
7
  6
BYLAYER
 10
68.536823376
 20
70.0609504976
 11
68.536823376
 21
69.6532307694
  0
LINE
  5
25E
100
AcDbEntity
  8
0
100
AcDbLine
 62
7
  6
BYLAYER
 10
68.536823376
 20
68.8711281699
 11
68.536823376
 21
68.4576297517
  0
LINE
  5
25F
100
AcDbEntity
  8
0
100
AcDbLine
 62
7
  6
BYLAYER
 10
68.536823376
 20
67.5979819528
 11
68.536823376
 21
67.1857799171
  0
LINE
  5
260
100
AcDbEntity
  8
0
100
AcDbLine
 62
7
  6
BYLAYER
 10
68.536823376
 20
66.263295731
 11
68.536823376
 21
65.859442969
  0
LINE
  5
261
100
AcDbEntity
  8
0
100
AcDbLine
 62
7
  6
BYLAYER
 10
68.536823376
 20
64.8899063559
 11
68.536823376
 21
64.5013129003
  0
LINE
  5
262
100
AcDbEntity
  8
0
100
AcDbLine
 62
7
  6
BYLAYER
 10
68.536823376
 20
63.5013129003
 11
68.536823376
 21
63.1127194447
  0
LINE
  5
263
100
AcDbEntity
  8
0
100
AcDbLine
 62
7
  6
BYLAYER
 10
68.536823376
 20
62.1431828315
 11
68.536823376
 21
61.7393300696
  0
LINE
  5
264
100
AcDbEntity
  8
0
100
AcDbLine
 62
7
  6
BYLAYER
 10
68.536823376
 20
60.8168458835
 11
68.536823376
 21
60.4046438478
  0
LINE
  5
265
100
AcDbEntity
  8
0
100
AcDbLine
 62
7
  6
BYLAYER
 10
68.536823376
 20
59.5449960489
 11
68.536823376
 21
59.1314976306
  0
LINE
  5
266
100
AcDbEntity
  8
0
100
AcDbLine
 62
7
  6
BYLAYER
 10
68.536823376
 20
58.3493950312
 11
68.536823376
 21
57.9416753029
  0
LINE
  5
267
100
AcDbEntity
  8
0
100
AcDbLine
 62
7
  6
BYLAYER
 10
68.536823376
 20
57.2504998953
 11
68.536823376
 21
56.8555350546
  0
LINE
  5
268
100
AcDbEntity
  8
0
100
AcDbLine
 62
7
  6
BYLAYER
 10
68.536823376
 20
56.2671130415
 11
68.536823376
 21
55.8916610464
  0
LINE
  5
269
100
AcDbEntity
  8
0
100
AcDbLine
 62
7
  6
BYLAYER
 10
68.536823376
 20
55.4160604917
 11
68.536823376
 21
55.0665454298
  0
LINE
  5
26A
100
AcDbEntity
  8
0
100
AcDbLine
 62
7
  6
BYLAYER
 10
68.536823376
 20
54.7119039908
 11
68.536823376
 21
54.3943061618
  0
LINE
  5
26B
100
AcDbEntity
  8
0
100
AcDbLine
 62
7
  6
BYLAYER
 10
68.536823376
 20
54.166691852
 11
68.536823376
 21
53.8864454427
  0
LINE
  5
26C
100
AcDbEntity
  8
0
100
AcDbLine
 62
7
  6
BYLAYER
 10
68.536823376
 20
53.7897528059
 11
68.536823376
 21
53.3956569572
  0
LINE
  5
26D
100
AcDbEntity
  8
0
100
AcDbLine
 62
7
  6
BYLAYER
 10
71.836823376
 20
76.0013129003
 11
72.2840055143
 21
77.6702193609
  0
LINE
  5
26E
100
AcDbEntity
  8
0
100
AcDbLine
 62
7
  6
BYLAYER
 10
71.836823376
 20
52.0013129003
 11
72.2840055143
 21
50.3324064397
  0
LINE
  5
26F
100
AcDbEntity
  8
0
100
AcDbLine
 62
7
  6
BYLAYER
 10
71.136823376
 20
53.3956569572
 11
71.136823376
 21
53.7897528059
  0
LINE
  5
270
100
AcDbEntity
  8
0
100
AcDbLine
 62
7
  6
BYLAYER
 10
71.136823376
 20
53.8864454427
 11
71.136823376
 21
54.166691852
  0
LINE
  5
271
100
AcDbEntity
  8
0
100
AcDbLine
 62
7
  6
BYLAYER
 10
71.136823376
 20
54.3943061618
 11
71.136823376
 21
54.7119039908
  0
LINE
  5
272
100
AcDbEntity
  8
0
100
AcDbLine
 62
7
  6
BYLAYER
 10
71.136823376
 20
55.0665454298
 11
71.136823376
 21
55.4160604917
  0
LINE
  5
273
100
AcDbEntity
  8
0
100
AcDbLine
 62
7
  6
BYLAYER
 10
71.136823376
 20
55.8916610464
 11
71.136823376
 21
56.2671130415
  0
LINE
  5
274
100
AcDbEntity
  8
0
100
AcDbLine
 62
7
  6
BYLAYER
 10
71.136823376
 20
56.8555350546
 11
71.136823376
 21
57.2504998953
  0
LINE
  5
275
100
AcDbEntity
  8
0
100
AcDbLine
 62
7
  6
BYLAYER
 10
71.136823376
 20
57.9416753029
 11
71.136823376
 21
58.3493950312
  0
LINE
  5
276
100
AcDbEntity
  8
0
100
AcDbLine
 62
7
  6
BYLAYER
 10
71.136823376
 20
59.1314976306
 11
71.136823376
 21
59.5449960489
  0
LINE
  5
277
100
AcDbEntity
  8
0
100
AcDbLine
 62
7
  6
BYLAYER
 10
71.136823376
 20
60.4046438478
 11
71.136823376
 21
60.8168458835
  0
LINE
  5
278
100
AcDbEntity
  8
0
100
AcDbLine
 62
7
  6
BYLAYER
 10
71.136823376
 20
61.7393300696
 11
71.136823376
 21
62.1431828315
  0
LINE
  5
279
100
AcDbEntity
  8
0
100
AcDbLine
 62
7
  6
BYLAYER
 10
71.136823376
 20
63.1127194447
 11
71.136823376
 21
63.5013129003
  0
LINE
  5
27A
100
AcDbEntity
  8
0
100
AcDbLine
 62
7
  6
BYLAYER
 10
71.136823376
 20
64.5013129003
 11
71.136823376
 21
64.8899063559
  0
LINE
  5
27B
100
AcDbEntity
  8
0
100
AcDbLine
 62
7
  6
BYLAYER
 10
71.136823376
 20
65.859442969
 11
71.136823376
 21
66.263295731
  0
LINE
  5
27C
100
AcDbEntity
  8
0
100
AcDbLine
 62
7
  6
BYLAYER
 10
71.136823376
 20
67.1857799171
 11
71.136823376
 21
67.5979819528
  0
LINE
  5
27D
100
AcDbEntity
  8
0
100
AcDbLine
 62
7
  6
BYLAYER
 10
71.136823376
 20
68.4576297517
 11
71.136823376
 21
68.8711281699
  0
LINE
  5
27E
100
AcDbEntity
  8
0
100
AcDbLine
 62
7
  6
BYLAYER
 10
71.136823376
 20
69.6532307694
 11
71.136823376
 21
70.0609504976
  0
LINE
  5
27F
100
AcDbEntity
  8
0
100
AcDbLine
 62
7
  6
BYLAYER
 10
71.136823376
 20
70.7521259053
 11
71.136823376
 21
71.147090746
  0
LINE
  5
280
100
AcDbEntity
  8
0
100
AcDbLine
 62
7
  6
BYLAYER
 10
71.136823376
 20
71.7355127591
 11
71.136823376
 21
72.1109647542
  0
LINE
  5
281
100
AcDbEntity
  8
0
100
AcDbLine
 62
7
  6
BYLAYER
 10
71.136823376
 20
72.5865653089
 11
71.136823376
 21
72.9360803708
  0
LINE
  5
282
100
AcDbEntity
  8
0
100
AcDbLine
 62
7
  6
BYLAYER
 10
71.136823376
 20
73.2907218097
 11
71.136823376
 21
73.6083196388
  0
LINE
  5
283
100
AcDbEntity
  8
0
100
AcDbLine
 62
7
  6
BYLAYER
 10
71.136823376
 20
73.8359339486
 11
71.136823376
 21
74.1161803579
  0
LINE
  5
284
100
AcDbEntity
  8
0
100
AcDbLine
 62
7
  6
BYLAYER
 10
71.136823376
 20
74.2128729947
 11
71.136823376
 21
74.6069688434
  0
LINE
  5
285
100
AcDbEntity
  8
0
100
AcDbLine
 62
7
  6
BYLAYER
 10
71.836823376
 20
52.0013169486
 11
71.836823376
 21
76.001308852
  0
LINE
  5
286
100
AcDbEntity
  8
0
100
AcDbLine
 62
7
  6
BYLAYER
 10
67.836823376
 20
52.0013129003
 11
67.3896412376
 21
50.3324064397
  0
LINE
  5
287
100
AcDbEntity
  8
0
100
AcDbLine
 62
7
  6
BYLAYER
 10
67.836823376
 20
76.0013129003
 11
67.3896412376
 21
77.6702193609
  0
LINE
  5
288
100
AcDbEntity
  8
0
100
AcDbLine
 62
7
  6
BYLAYER
 10
74.836823376
 20
76.001308852
 11
74.836823376
 21
52.0013169486
  0
LINE
  5
289
100
AcDbEntity
  8
0
100
AcDbLine
 62
7
  6
BYLAYER
 10
74.836823376
 20
52.0013129003
 11
74.3896412376
 21
50.3324064397
  0
LINE
  5
28A
100
AcDbEntity
  8
0
100
AcDbLine
 62
7
  6
BYLAYER
 10
74.836823376
 20
76.0013129003
 11
74.3896412376
 21
77.6702193609
  0
LINE
  5
28B
100
AcDbEntity
  8
0
100
AcDbLine
 62
7
  6
BYLAYER
 10
81.436823376
 20
55.2013129003
 11
81.236823376
 21
55.0013129003
  0
LINE
  5
28C
100
AcDbEntity
  8
0
100
AcDbLine
 62
7
  6
BYLAYER
 10
81.436823376
 20
72.8013129003
 11
81.236823376
 21
73.0013129003
  0
LINE
  5
28D
100
AcDbEntity
  8
0
100
AcDbLine
 62
7
  6
BYLAYER
 10
81.236823376
 20
73.0013129003
 11
81.236823376
 21
55.0013129003
  0
LINE
  5
28E
100
AcDbEntity
  8
0
100
AcDbLine
 62
7
  6
BYLAYER
 10
81.436823376
 20
72.8012622247
 11
81.436823376
 21
55.2014713179
  0
LINE
  5
28F
100
AcDbEntity
  8
0
100
AcDbLine
 62
7
  6
BYLAYER
 10
81.636823376
 20
72.2013129003
 11
81.636823376
 21
55.8013129003
  0
LINE
  5
290
100
AcDbEntity
  8
0
100
AcDbLine
 62
7
  6
BYLAYER
 10
81.836823376
 20
72.0513064144
 11
81.836823376
 21
55.9513193861
  0
ARC
  5
291
100
AcDbEntity
  8
0
100
AcDbCircle
 62
7
  6
BYLAYER
 10
117.1470479868
 20
59.0157707135
 40
44.9011254536
100
AcDbArc
 50
181.8412148132
 51
182.6712937234
  0
ARC
  5
292
100
AcDbEntity
  8
0
100
AcDbCircle
 62
7
  6
BYLAYER
 10
29.5265995218
 20
68.9868554553
 40
44.9011246859
100
AcDbArc
 50
1.8412143707
 51
2.6712933441
  0
ARC
  5
293
100
AcDbEntity
  8
0
100
AcDbCircle
 62
7
  6
BYLAYER
 10
22.5266349863
 20
68.986907297
 40
44.9010878187
100
AcDbArc
 50
1.8411497004
 51
2.6712292694
  0
ARC
  5
294
100
AcDbEntity
  8
0
100
AcDbCircle
 62
7
  6
BYLAYER
 10
110.1470117509
 20
59.0157179009
 40
44.9010877846
100
AcDbArc
 50
181.8411489284
 51
182.6712285466
  0
ARC
  5
295
100
AcDbEntity
  8
0
100
AcDbCircle
 62
7
  6
BYLAYER
 10
22.5266350199
 20
59.0157184926
 40
44.9010877847
100
AcDbArc
 50
357.3287707427
 51
358.1588503122
  0
ARC
  5
296
100
AcDbEntity
  8
0
100
AcDbCircle
 62
7
  6
BYLAYER
 10
110.1470110548
 20
68.9869075131
 40
44.9010871012
100
AcDbArc
 50
177.3287709186
 51
178.1588505499
  0
ARC
  5
297
100
AcDbEntity
  8
0
100
AcDbCircle
 62
7
  6
BYLAYER
 10
29.5266897923
 20
59.0157664116
 40
44.9010355592
100
AcDbArc
 50
357.3287063769
 51
358.1587869955
  0
ARC
  5
298
100
AcDbEntity
  8
0
100
AcDbCircle
 62
7
  6
BYLAYER
 10
117.146956881
 20
68.9868587504
 40
44.9010355022
100
AcDbArc
 50
177.328705601
 51
178.158786174
  0
ARC
  5
299
100
AcDbEntity
  8
0
100
AcDbCircle
 62
7
  6
BYLAYER
 10
81.636823376
 20
55.9513129003
 40
0.2
100
AcDbArc
 50
311.4096221093
 51
360.0
  0
ARC
  5
29A
100
AcDbEntity
  8
0
100
AcDbCircle
 62
7
  6
BYLAYER
 10
81.636823376
 20
72.0513129003
 40
0.2
100
AcDbArc
 50
0.0
 51
48.5903778907
  0
ARC
  5
29B
100
AcDbEntity
  8
0
100
AcDbCircle
 62
7
  6
BYLAYER
 10
24.136823376
 20
71.5013129003
 40
0.2
100
AcDbArc
 50
90.0
 51
180.0
  0
ARC
  5
29C
100
AcDbEntity
  8
0
100
AcDbCircle
 62
7
  6
BYLAYER
 10
24.136823376
 20
56.5013129003
 40
0.2
100
AcDbArc
 50
180.0
 51
270.0
  0
SPLINE
  5
29D
100
AcDbEntity
  8
0
100
AcDbSpline
 62
7
  6
BYLAYER
 70
0
 71
3
 72
10
 73
6
 74
0
 42
0.0000001
 43
0.0000001
 44
0.0000000001
 40
0.0
 40
0.0
 40
0.0
 40
0.0
 40
0.5031566729
 40
0.7520613186
 40
1.0
 40
1.0
 40
1.0
 40
1.0
 10
65.2947133162
 20
50.2949064624
 30
0.0
 10
65.1536371102
 20
50.839380434
 30
0.0
 10
64.9798247233
 20
51.6643473201
 30
0.0
 10
64.8576009482
 20
52.7762226313
 30
0.0
 10
64.8368235926
 20
53.3318499773
 30
0.0
 10
64.8368236103
 20
53.6090083427
 30
0.0
  0
SPLINE
  5
29E
100
AcDbEntity
  8
0
100
AcDbSpline
 62
7
  6
BYLAYER
 70
0
 71
3
 72
10
 73
6
 74
0
 42
0.0000001
 43
0.0000001
 44
0.0000000001
 40
0.0
 40
0.0
 40
0.0
 40
0.0
 40
0.2479365754
 40
0.4968402058
 40
1.0
 40
1.0
 40
1.0
 40
1.0
 10
64.8368235541
 20
74.3936192598
 30
0.0
 10
64.8368236457
 20
74.6707751172
 30
0.0
 10
64.8576014326
 20
75.2263986248
 30
0.0
 10
64.9798237173
 20
76.3382734434
 30
0.0
 10
65.1536363189
 20
77.16324229
 30
0.0
 10
65.2947133217
 20
77.7077193372
 30
0.0
  0
SPLINE
  5
29F
100
AcDbEntity
  8
0
100
AcDbSpline
 62
7
  6
BYLAYER
 70
0
 71
3
 72
10
 73
6
 74
0
 42
0.0000001
 43
0.0000001
 44
0.0000000001
 40
0.0
 40
0.0
 40
0.0
 40
0.0
 40
0.2479365752
 40
0.4968402054
 40
1.0
 40
1.0
 40
1.0
 40
1.0
 10
67.8368231417
 20
53.609007722
 30
0.0
 10
67.8368231544
 20
53.3318517656
 30
0.0
 10
67.8160453836
 20
52.7762280539
 30
0.0
 10
67.6938231346
 20
51.6643528309
 30
0.0
 10
67.520010483
 20
50.8393836824
 30
0.0
 10
67.3789334287
 20
50.29490644
 30
0.0
  0
SPLINE
  5
2A0
100
AcDbEntity
  8
0
100
AcDbSpline
 62
7
  6
BYLAYER
 70
0
 71
3
 72
10
 73
6
 74
0
 42
0.0000001
 43
0.0000001
 44
0.0000000001
 40
0.0
 40
0.0
 40
0.0
 40
0.0
 40
0.4999752036
 40
0.7499878042
 40
1.0
 40
1.0
 40
1.0
 40
1.0
 10
65.2691044274
 20
57.573109674
 30
0.0
 10
65.1342455553
 20
58.6389710456
 30
0.0
 10
64.9705133524
 20
60.2433966267
 30
0.0
 10
64.8562781809
 20
62.3895071664
 30
0.0
 10
64.8368233771
 20
63.4640803482
 30
0.0
 10
64.836823375
 20
64.0013127238
 30
0.0
  0
SPLINE
  5
2A1
100
AcDbEntity
  8
0
100
AcDbSpline
 62
7
  6
BYLAYER
 70
0
 71
3
 72
10
 73
6
 74
0
 42
0.0000001
 43
0.0000001
 44
0.0000000001
 40
0.0
 40
0.0
 40
0.0
 40
0.0
 40
0.2479365753
 40
0.4968402055
 40
1.0
 40
1.0
 40
1.0
 40
1.0
 10
64.8368236103
 20
53.6090083427
 30
0.0
 10
64.8368235965
 20
53.8861643009
 30
0.0
 10
64.8576013653
 20
54.4417880161
 30
0.0
 10
64.9798236119
 20
55.5536632463
 30
0.0
 10
65.1536362616
 20
56.3786324006
 30
0.0
 10
65.2947133161
 20
56.9231096464
 30
0.0
  0
SPLINE
  5
2A2
100
AcDbEntity
  8
0
100
AcDbSpline
 62
7
  6
BYLAYER
 70
0
 71
3
 72
10
 73
6
 74
0
 42
0.0000001
 43
0.0000001
 44
0.0000000001
 40
0.0
 40
0.0
 40
0.0
 40
0.0
 40
0.5031566732
 40
0.7520613181
 40
1.0
 40
1.0
 40
1.0
 40
1.0
 10
65.2947133221
 20
71.0795161541
 30
0.0
 10
65.1536370644
 20
71.6239903253
 30
0.0
 10
64.9798246143
 20
72.4489575155
 30
0.0
 10
64.8576008815
 20
73.5608332441
 30
0.0
 10
64.8368235441
 20
74.1164607925
 30
0.0
 10
64.8368235541
 20
74.3936192598
 30
0.0
  0
SPLINE
  5
2A3
100
AcDbEntity
  8
0
100
AcDbSpline
 62
7
  6
BYLAYER
 70
0
 71
3
 72
10
 73
6
 74
0
 42
0.0000001
 43
0.0000001
 44
0.0000000001
 40
0.0
 40
0.0
 40
0.0
 40
0.0
 40
0.2500122023
 40
0.5000247981
 40
1.0
 40
1.0
 40
1.0
 40
1.0
 10
64.836823375
 20
64.0013127238
 30
0.0
 10
64.836823375
 20
64.5385451435
 30
0.0
 10
64.8562779996
 20
65.6131183922
 30
0.0
 10
64.9705132901
 20
67.7592290501
 30
0.0
 10
65.1342455484
 20
69.3636546988
 30
0.0
 10
65.2691044274
 20
70.4295161266
 30
0.0
  0
SPLINE
  5
2A4
100
AcDbEntity
  8
0
100
AcDbSpline
 62
7
  6
BYLAYER
 70
0
 71
3
 72
10
 73
6
 74
0
 42
0.0000001
 43
0.0000001
 44
0.0000000001
 40
0.0
 40
0.0
 40
0.0
 40
0.0
 40
0.503156673
 40
0.7520613186
 40
1.0
 40
1.0
 40
1.0
 40
1.0
 10
67.3789334289
 20
77.7077193605
 30
0.0
 10
67.5200096385
 20
77.163245378
 30
0.0
 10
67.6938220307
 20
76.3382784754
 30
0.0
 10
67.8160458063
 20
75.2264031413
 30
0.0
 10
67.8368231605
 20
74.6707757839
 30
0.0
 10
67.8368231417
 20
74.393617413
 30
0.0
  0
SPLINE
  5
2A5
100
AcDbEntity
  8
0
100
AcDbSpline
 62
7
  6
BYLAYER
 70
0
 71
3
 72
10
 73
6
 74
0
 42
0.0000001
 43
0.0000001
 44
0.0000000001
 40
0.0
 40
0.0
 40
0.0
 40
0.0
 40
0.4999752023
 40
0.7499878011
 40
1.0
 40
1.0
 40
1.0
 40
1.0
 10
67.4045423245
 20
70.4295161305
 30
0.0
 10
67.5394012042
 20
69.3636546988
 30
0.0
 10
67.7031335206
 20
67.759229039
 30
0.0
 10
67.8173685893
 20
65.6131183658
 30
0.0
 10
67.8368233771
 20
64.5385451186
 30
0.0
 10
67.8368233771
 20
64.0013127046
 30
0.0
  0
SPLINE
  5
2A6
100
AcDbEntity
  8
0
100
AcDbSpline
 62
7
  6
BYLAYER
 70
0
 71
3
 72
10
 73
6
 74
0
 42
0.0000001
 43
0.0000001
 44
0.0000000001
 40
0.0
 40
0.0
 40
0.0
 40
0.0
 40
0.2479365752
 40
0.4968402054
 40
1.0
 40
1.0
 40
1.0
 40
1.0
 10
67.8368231417
 20
74.393617413
 30
0.0
 10
67.8368231544
 20
74.1164614565
 30
0.0
 10
67.8160453836
 20
73.5608377448
 30
0.0
 10
67.6938231346
 20
72.4489625218
 30
0.0
 10
67.520010483
 20
71.6239933733
 30
0.0
 10
67.3789334287
 20
71.0795161309
 30
0.0
  0
SPLINE
  5
2A7
100
AcDbEntity
  8
0
100
AcDbSpline
 62
7
  6
BYLAYER
 70
0
 71
3
 72
10
 73
6
 74
0
 42
0.0000001
 43
0.0000001
 44
0.0000000001
 40
0.0
 40
0.0
 40
0.0
 40
0.0
 40
0.503156673
 40
0.7520613186
 40
1.0
 40
1.0
 40
1.0
 40
1.0
 10
67.3789334289
 20
56.9231096696
 30
0.0
 10
67.5200096385
 20
56.3786356871
 30
0.0
 10
67.6938220307
 20
55.5536687845
 30
0.0
 10
67.8160458063
 20
54.4417934503
 30
0.0
 10
67.8368231605
 20
53.886166093
 30
0.0
 10
67.8368231417
 20
53.609007722
 30
0.0
  0
SPLINE
  5
2A8
100
AcDbEntity
  8
0
100
AcDbSpline
 62
7
  6
BYLAYER
 70
0
 71
3
 72
10
 73
6
 74
0
 42
0.0000001
 43
0.0000001
 44
0.0000000001
 40
0.0
 40
0.0
 40
0.0
 40
0.0
 40
0.2500121865
 40
0.5000247979
 40
1.0
 40
1.0
 40
1.0
 40
1.0
 10
67.8368233771
 20
64.0013127046
 30
0.0
 10
67.8368233747
 20
63.464080355
 30
0.0
 10
67.8173677959
 20
62.389507191
 30
0.0
 10
67.7031324558
 20
60.2433967095
 30
0.0
 10
67.5394011946
 20
58.6389710267
 30
0.0
 10
67.4045423245
 20
57.5731096701
 30
0.0
  0
SPLINE
  5
2A9
100
AcDbEntity
  8
0
100
AcDbSpline
 62
7
  6
BYLAYER
 70
0
 71
3
 72
10
 73
6
 74
0
 42
0.0000001
 43
0.0000001
 44
0.0000000001
 40
0.0
 40
0.0
 40
0.0
 40
0.0
 40
0.2479365753
 40
0.4968402055
 40
1.0
 40
1.0
 40
1.0
 40
1.0
 10
74.8368231417
 20
53.6090077221
 30
0.0
 10
74.8368231544
 20
53.3318517676
 30
0.0
 10
74.8160453842
 20
52.7762280598
 30
0.0
 10
74.6938231349
 20
51.6643528451
 30
0.0
 10
74.5200104947
 20
50.8393837
 30
0.0
 10
74.3789334357
 20
50.2949064631
 30
0.0
  0
SPLINE
  5
2AA
100
AcDbEntity
  8
0
100
AcDbSpline
 62
7
  6
BYLAYER
 70
0
 71
3
 72
10
 73
6
 74
0
 42
0.0000001
 43
0.0000001
 44
0.0000000001
 40
0.0
 40
0.0
 40
0.0
 40
0.0
 40
0.2479365753
 40
0.4968402054
 40
1.0
 40
1.0
 40
1.0
 40
1.0
 10
71.8368236103
 20
74.3936180336
 30
0.0
 10
71.8368235965
 20
74.6707739938
 30
0.0
 10
71.8576013653
 20
75.226397713
 30
0.0
 10
71.9798236151
 20
76.3382729507
 30
0.0
 10
72.1536362605
 20
77.1632421125
 30
0.0
 10
72.2947133231
 20
77.7077193605
 30
0.0
  0
SPLINE
  5
2AB
100
AcDbEntity
  8
0
100
AcDbSpline
 62
7
  6
BYLAYER
 70
0
 71
3
 72
10
 73
6
 74
0
 42
0.0000001
 43
0.0000001
 44
0.0000000001
 40
0.0
 40
0.0
 40
0.0
 40
0.0
 40
0.2500122004
 40
0.5000247986
 40
1.0
 40
1.0
 40
1.0
 40
1.0
 10
71.8368233748
 20
64.0013127046
 30
0.0
 10
71.8368233749
 20
64.5385451219
 30
0.0
 10
71.8562781234
 20
65.6131183721
 30
0.0
 10
71.9705132395
 20
67.7592290441
 30
0.0
 10
72.1342455615
 20
69.3636546989
 30
0.0
 10
72.2691044276
 20
70.4295161305
 30
0.0
  0
SPLINE
  5
2AC
100
AcDbEntity
  8
0
100
AcDbSpline
 62
7
  6
BYLAYER
 70
0
 71
3
 72
10
 73
6
 74
0
 42
0.0000001
 43
0.0000001
 44
0.0000000001
 40
0.0
 40
0.0
 40
0.0
 40
0.0
 40
0.503156673
 40
0.7520613186
 40
1.0
 40
1.0
 40
1.0
 40
1.0
 10
72.2947133232
 20
71.0795161309
 30
0.0
 10
72.1536371172
 20
71.6239901066
 30
0.0
 10
71.9798247246
 20
72.4489569975
 30
0.0
 10
71.8576009486
 20
73.5608323166
 30
0.0
 10
71.8368235926
 20
74.1164596664
 30
0.0
 10
71.8368236103
 20
74.3936180336
 30
0.0
  0
SPLINE
  5
2AD
100
AcDbEntity
  8
0
100
AcDbSpline
 62
7
  6
BYLAYER
 70
0
 71
3
 72
10
 73
6
 74
0
 42
0.0000001
 43
0.0000001
 44
0.0000000001
 40
0.0
 40
0.0
 40
0.0
 40
0.0
 40
0.2479365753
 40
0.4968402054
 40
1.0
 40
1.0
 40
1.0
 40
1.0
 10
71.8368236103
 20
53.6090083427
 30
0.0
 10
71.8368235965
 20
53.8861643029
 30
0.0
 10
71.8576013653
 20
54.4417880222
 30
0.0
 10
71.9798236151
 20
55.5536632599
 30
0.0
 10
72.1536362605
 20
56.3786324216
 30
0.0
 10
72.2947133231
 20
56.9231096696
 30
0.0
  0
SPLINE
  5
2AE
100
AcDbEntity
  8
0
100
AcDbSpline
 62
7
  6
BYLAYER
 70
0
 71
3
 72
10
 73
6
 74
0
 42
0.0000001
 43
0.0000001
 44
0.0000000001
 40
0.0
 40
0.0
 40
0.0
 40
0.0
 40
0.4999752031
 40
0.749987815
 40
1.0
 40
1.0
 40
1.0
 40
1.0
 10
72.2691044276
 20
57.5731096701
 30
0.0
 10
72.1342455538
 20
58.638971028
 30
0.0
 10
71.9705142861
 20
60.2433967143
 30
0.0
 10
71.8562789957
 20
62.3895071973
 30
0.0
 10
71.8368233772
 20
63.4640803583
 30
0.0
 10
71.8368233748
 20
64.0013127046
 30
0.0
  0
SPLINE
  5
2AF
100
AcDbEntity
  8
0
100
AcDbSpline
 62
7
  6
BYLAYER
 70
0
 71
3
 72
10
 73
6
 74
0
 42
0.0000001
 43
0.0000001
 44
0.0000000001
 40
0.0
 40
0.0
 40
0.0
 40
0.0
 40
0.503156673
 40
0.7520613186
 40
1.0
 40
1.0
 40
1.0
 40
1.0
 10
72.2947133232
 20
50.29490644
 30
0.0
 10
72.1536371172
 20
50.8393804157
 30
0.0
 10
71.9798247246
 20
51.6643473066
 30
0.0
 10
71.8576009486
 20
52.7762226257
 30
0.0
 10
71.8368235926
 20
53.3318499755
 30
0.0
 10
71.8368236103
 20
53.6090083427
 30
0.0
  0
SPLINE
  5
2B0
100
AcDbEntity
  8
0
100
AcDbSpline
 62
7
  6
BYLAYER
 70
0
 71
3
 72
10
 73
6
 74
0
 42
0.0000001
 43
0.0000001
 44
0.0000000001
 40
0.0
 40
0.0
 40
0.0
 40
0.0
 40
0.2500121972
 40
0.5000247973
 40
1.0
 40
1.0
 40
1.0
 40
1.0
 10
74.8368233786
 20
64.001312812
 30
0.0
 10
74.8368233764
 20
63.4640804259
 30
0.0
 10
74.8173686109
 20
62.3895072266
 30
0.0
 10
74.7031333961
 20
60.2433966584
 30
0.0
 10
74.5394011849
 20
58.6389710602
 30
0.0
 10
74.4045423246
 20
57.573109674
 30
0.0
  0
SPLINE
  5
2B1
100
AcDbEntity
  8
0
100
AcDbSpline
 62
7
  6
BYLAYER
 70
0
 71
3
 72
10
 73
6
 74
0
 42
0.0000001
 43
0.0000001
 44
0.0000000001
 40
0.0
 40
0.0
 40
0.0
 40
0.0
 40
0.5031566729
 40
0.7520613185
 40
1.0
 40
1.0
 40
1.0
 40
1.0
 10
74.378933436
 20
56.9231096471
 30
0.0
 10
74.5200096422
 20
56.3786356678
 30
0.0
 10
74.6938220327
 20
55.5536687711
 30
0.0
 10
74.8160458065
 20
54.4417934447
 30
0.0
 10
74.8368231605
 20
53.8861660912
 30
0.0
 10
74.8368231417
 20
53.6090077221
 30
0.0
  0
SPLINE
  5
2B2
100
AcDbEntity
  8
0
100
AcDbSpline
 62
7
  6
BYLAYER
 70
0
 71
3
 72
10
 73
6
 74
0
 42
0.0000001
 43
0.0000001
 44
0.0000000001
 40
0.0
 40
0.0
 40
0.0
 40
0.0
 40
0.2479365743
 40
0.4968402058
 40
1.0
 40
1.0
 40
1.0
 40
1.0
 10
74.8368231417
 20
74.3936130241
 30
0.0
 10
74.8368230457
 20
74.1164574328
 30
0.0
 10
74.8160451124
 20
73.5608344596
 30
0.0
 10
74.6938227732
 20
72.4489607279
 30
0.0
 10
74.5200103045
 20
71.6239926792
 30
0.0
 10
74.3789334301
 20
71.0795161541
 30
0.0
  0
SPLINE
  5
2B3
100
AcDbEntity
  8
0
100
AcDbSpline
 62
7
  6
BYLAYER
 70
0
 71
3
 72
10
 73
6
 74
0
 42
0.0000001
 43
0.0000001
 44
0.0000000001
 40
0.0
 40
0.0
 40
0.0
 40
0.0
 40
0.4999752028
 40
0.7499877992
 40
1.0
 40
1.0
 40
1.0
 40
1.0
 10
74.4045423246
 20
70.4295161266
 30
0.0
 10
74.5394012053
 20
69.3636547121
 30
0.0
 10
74.7031334695
 20
67.759229082
 30
0.0
 10
74.8173687091
 20
65.6131184521
 30
0.0
 10
74.8368233785
 20
64.5385452211
 30
0.0
 10
74.8368233786
 20
64.001312812
 30
0.0
  0
SPLINE
  5
2B4
100
AcDbEntity
  8
0
100
AcDbSpline
 62
7
  6
BYLAYER
 70
0
 71
3
 72
10
 73
6
 74
0
 42
0.0000001
 43
0.0000001
 44
0.0000000001
 40
0.0
 40
0.0
 40
0.0
 40
0.0
 40
0.5031566738
 40
0.7520613178
 40
1.0
 40
1.0
 40
1.0
 40
1.0
 10
74.3789334301
 20
77.7077193372
 30
0.0
 10
74.5200098208
 20
77.1632446452
 30
0.0
 10
74.6938223979
 20
76.3382766546
 30
0.0
 10
74.8160460774
 20
75.2263998439
 30
0.0
 10
74.8368232691
 20
74.6707717562
 30
0.0
 10
74.8368231417
 20
74.3936130241
 30
0.0
  0
ELLIPSE
  5
2B5
100
AcDbEntity
  8
0
100
AcDbEllipse
 62
7
  6
BYLAYER
 10
64.9331586005
 20
60.9242004072
 30
0.0
 11
11.5600239517
 21
11.5528949874
 31
0.0
 40
0.0631661312
 41
-1.3625760954
 42
-1.3174730036
  0
ELLIPSE
  5
2B6
100
AcDbEntity
  8
0
100
AcDbEllipse
 62
7
  6
BYLAYER
 10
64.9331586005
 20
61.0034029375
 30
0.0
 11
11.4912004934
 21
11.4626280056
 31
0.0
 40
0.1269935126
 41
-1.425539161
 42
-1.3804360692
  0
ELLIPSE
  5
2B7
100
AcDbEntity
  8
0
100
AcDbEllipse
 62
7
  6
BYLAYER
 10
64.9331586005
 20
61.1339005385
 30
0.0
 11
11.377213794
 21
11.3126576757
 31
0.0
 40
0.1921623568
 41
-1.4883289622
 42
-1.4432258704
  0
ELLIPSE
  5
2B8
100
AcDbEntity
  8
0
100
AcDbEllipse
 62
7
  6
BYLAYER
 10
64.9331586005
 20
61.3134603599
 30
0.0
 11
11.2192358625
 21
11.103573653
 31
0.0
 40
0.2593921815
 41
-1.5508240306
 42
-1.5057209388
  0
ELLIPSE
  5
2B9
100
AcDbEntity
  8
0
100
AcDbEllipse
 62
7
  6
BYLAYER
 10
64.9331586005
 20
61.5390100835
 30
0.0
 11
11.0191384116
 21
10.8359096051
 31
0.0
 40
0.3294650235
 41
-1.6128476156
 42
-1.5677445238
  0
ELLIPSE
  5
2BA
100
AcDbEntity
  8
0
100
AcDbEllipse
 62
7
  6
BYLAYER
 10
64.9331586005
 20
61.806690491
 30
0.0
 11
10.7798633581
 21
10.5096998268
 31
0.0
 40
0.4032531911
 41
-1.674117191
 42
-1.6290140991
  0
ELLIPSE
  5
2BB
100
AcDbEntity
  8
0
100
AcDbEllipse
 62
7
  6
BYLAYER
 10
64.9331586005
 20
62.1119214964
 30
0.0
 11
10.5062434209
 21
10.1235279518
 31
0.0
 40
0.4817532195
 41
-1.7341357163
 42
-1.6890326245
  0
ELLIPSE
  5
2BC
100
AcDbEntity
  8
0
100
AcDbEllipse
 62
7
  6
BYLAYER
 10
64.9331586005
 20
62.4494805126
 30
0.0
 11
10.207034137
 21
9.672197328
 31
0.0
 40
0.5661264515
 41
-1.7919226086
 42
-1.7468195168
  0
ELLIPSE
  5
2BD
100
AcDbEntity
  8
0
100
AcDbEllipse
 62
7
  6
BYLAYER
 10
64.9331586005
 20
62.8135918111
 30
0.0
 11
9.9008743148
 21
9.1398053983
 31
0.0
 40
0.657738698
 41
-1.8452140898
 42
-1.800110998
  0
ELLIPSE
  5
2BE
100
AcDbEntity
  8
0
100
AcDbEllipse
 62
7
  6
BYLAYER
 10
64.9331586005
 20
63.1980253468
 30
0.0
 11
9.6390686169
 21
8.472058128
 31
0.0
 40
0.7581403628
 41
-1.8873170525
 42
-1.8422139607
  0
ELLIPSE
  5
2BF
100
AcDbEntity
  8
0
100
AcDbEllipse
 62
7
  6
BYLAYER
 10
64.9331586005
 20
63.5962033552
 30
0.0
 11
9.6458827394
 21
7.3844602403
 31
0.0
 40
0.8684143762
 41
-1.8862553139
 42
-1.8411522221
  0
ELLIPSE
  5
2C0
100
AcDbEntity
  8
0
100
AcDbEllipse
 62
7
  6
BYLAYER
 10
64.9331586005
 20
64.0013129003
 30
0.0
 11
11.5830346317
 21
-0.0
 31
0.0
 40
0.963433044
 41
-1.2995325731
 42
-1.2544294813
  0
ELLIPSE
  5
2C1
100
AcDbEntity
  8
0
100
AcDbEllipse
 62
7
  6
BYLAYER
 10
64.9331586005
 20
64.4064224454
 30
0.0
 11
9.6458827394
 21
-7.3844602403
 31
0.0
 40
0.8684143762
 41
1.8411522221
 42
1.8862553139
  0
ELLIPSE
  5
2C2
100
AcDbEntity
  8
0
100
AcDbEllipse
 62
7
  6
BYLAYER
 10
64.9331586005
 20
64.8046004538
 30
0.0
 11
9.6390686169
 21
-8.472058128
 31
0.0
 40
0.7581403628
 41
1.8422139607
 42
1.8873170525
  0
ELLIPSE
  5
2C3
100
AcDbEntity
  8
0
100
AcDbEllipse
 62
7
  6
BYLAYER
 10
64.9331586005
 20
65.1890339895
 30
0.0
 11
9.9008743148
 21
-9.1398053983
 31
0.0
 40
0.657738698
 41
1.800110998
 42
1.8452140898
  0
ELLIPSE
  5
2C4
100
AcDbEntity
  8
0
100
AcDbEllipse
 62
7
  6
BYLAYER
 10
72.3446744748
 20
62.8863589924
 30
0.0
 11
10.195190748
 21
-8.0474192635
 31
0.0
 40
0.7470541823
 41
-1.3732190303
 42
-1.3655537154
  0
ELLIPSE
  5
2C5
100
AcDbEntity
  8
0
100
AcDbEllipse
 62
7
  6
BYLAYER
 10
64.9331586005
 20
65.553145288
 30
0.0
 11
10.207034137
 21
-9.672197328
 31
0.0
 40
0.5661264515
 41
1.7468195168
 42
1.7919226086
  0
ELLIPSE
  5
2C6
100
AcDbEntity
  8
0
100
AcDbEllipse
 62
7
  6
BYLAYER
 10
72.3446744748
 20
62.3527696557
 30
0.0
 11
10.3341729894
 21
-8.919591999
 31
0.0
 40
0.6468548444
 41
-1.4042437337
 42
-1.3891458436
  0
ELLIPSE
  5
2C7
100
AcDbEntity
  8
0
100
AcDbEllipse
 62
7
  6
BYLAYER
 10
64.9331586005
 20
65.8907043042
 30
0.0
 11
10.5062434209
 21
-10.1235279518
 31
0.0
 40
0.4817532195
 41
1.6890326245
 42
1.7341357163
  0
ELLIPSE
  5
2C8
100
AcDbEntity
  8
0
100
AcDbEllipse
 62
7
  6
BYLAYER
 10
72.3446744748
 20
61.8473873509
 30
0.0
 11
10.5743403885
 21
-9.5757833526
 31
0.0
 40
0.5552272381
 41
-1.4530005094
 42
-1.4324654912
  0
ELLIPSE
  5
2C9
100
AcDbEntity
  8
0
100
AcDbEllipse
 62
7
  6
BYLAYER
 10
64.9331586005
 20
66.1959353095
 30
0.0
 11
10.7798633581
 21
-10.5096998268
 31
0.0
 40
0.4032531911
 41
1.6290140991
 42
1.674117191
  0
ELLIPSE
  5
2CA
100
AcDbEntity
  8
0
100
AcDbEllipse
 62
7
  6
BYLAYER
 10
72.3446744748
 20
61.3788593094
 30
0.0
 11
10.8336078883
 21
-10.1170563979
 31
0.0
 40
0.4711119558
 41
-1.5086873307
 42
-1.4838808103
  0
ELLIPSE
  5
2CB
100
AcDbEntity
  8
0
100
AcDbEllipse
 62
7
  6
BYLAYER
 10
64.9331586005
 20
66.463615717
 30
0.0
 11
11.0191384116
 21
-10.8359096051
 31
0.0
 40
0.3294650235
 41
1.5677445238
 42
1.6128476156
  0
ELLIPSE
  5
2CC
100
AcDbEntity
  8
0
100
AcDbEllipse
 62
7
  6
BYLAYER
 10
72.3446744748
 20
60.9552021759
 30
0.0
 11
11.0811640271
 21
-10.57430594
 31
0.0
 40
0.3932536107
 41
-1.5677038125
 42
-1.5393435277
  0
ELLIPSE
  5
2CD
100
AcDbEntity
  8
0
100
AcDbEllipse
 62
7
  6
BYLAYER
 10
64.9331586005
 20
66.6891654407
 30
0.0
 11
11.2192358625
 21
-11.103573653
 31
0.0
 40
0.2593921815
 41
1.5057209388
 42
1.5508240306
  0
ELLIPSE
  5
2CE
100
AcDbEntity
  8
0
100
AcDbEllipse
 62
7
  6
BYLAYER
 10
72.3446744748
 20
60.5836648415
 30
0.0
 11
11.3026503924
 21
-10.9583479679
 31
0.0
 40
0.32049021
 41
-1.6285433928
 42
-1.5970782097
  0
ELLIPSE
  5
2CF
100
AcDbEntity
  8
0
100
AcDbEllipse
 62
7
  6
BYLAYER
 10
64.9331586005
 20
66.8687252621
 30
0.0
 11
11.377213794
 21
-11.3126576757
 31
0.0
 40
0.1921623568
 41
1.4432258704
 42
1.4883289622
  0
ELLIPSE
  5
2D0
100
AcDbEntity
  8
0
100
AcDbEllipse
 62
7
  6
BYLAYER
 10
72.3446744748
 20
60.270604413
 30
0.0
 11
11.4903624333
 21
-11.272755276
 31
0.0
 40
0.2517837063
 41
-1.690470979
 42
-1.6561797436
  0
ELLIPSE
  5
2D1
100
AcDbEntity
  8
0
100
AcDbEllipse
 62
7
  6
BYLAYER
 10
64.9331586005
 20
66.999222863
 30
0.0
 11
11.4912004934
 21
-11.4626280056
 31
0.0
 40
0.1269935126
 41
1.3804360692
 42
1.425539161
  0
ELLIPSE
  5
2D2
100
AcDbEntity
  8
0
100
AcDbEllipse
 62
7
  6
BYLAYER
 10
72.3446744748
 20
60.021377441
 30
0.0
 11
11.6397811956
 21
-11.5182116851
 31
0.0
 40
0.1862029912
 41
-1.7527475842
 42
-1.7161329273
  0
ELLIPSE
  5
2D3
100
AcDbEntity
  8
0
100
AcDbEllipse
 62
7
  6
BYLAYER
 10
64.9331586005
 20
67.0784253933
 30
0.0
 11
11.5600239517
 21
-11.5528949874
 31
0.0
 40
0.0631661312
 41
1.3174730036
 42
1.3625760954
  0
ELLIPSE
  5
2D4
100
AcDbEntity
  8
0
100
AcDbEllipse
 62
7
  6
BYLAYER
 10
72.3446744748
 20
59.8402482681
 30
0.0
 11
11.7481381864
 21
-11.6942962282
 31
0.0
 40
0.1228992729
 41
-1.8159350307
 42
-1.776616227
  0
ELLIPSE
  5
2D5
100
AcDbEntity
  8
0
100
AcDbEllipse
 62
7
  6
BYLAYER
 10
72.3446744748
 20
59.7303160648
 30
0.0
 11
11.8137551981
 21
-11.8003161272
 31
0.0
 40
0.0610824685
 41
-1.8795295147
 42
-1.8374099321
  0
ELLIPSE
  5
2D6
100
AcDbEntity
  8
0
100
AcDbEllipse
 62
7
  6
BYLAYER
 10
64.9331586005
 20
64.0013129003
 30
0.0
 11
11.5830346317
 21
-0.0
 31
0.0
 40
0.963433044
 41
7.5376147884
 42
7.5827178802
  0
ELLIPSE
  5
2D7
100
AcDbEntity
  8
0
100
AcDbEllipse
 62
7
  6
BYLAYER
 10
72.3446744748
 20
65.1162668081
 30
0.0
 11
10.195190748
 21
8.0474192635
 31
0.0
 40
0.7470541823
 41
7.6487390226
 42
7.6564043114
  0
ELLIPSE
  5
2D8
100
AcDbEntity
  8
0
100
AcDbEllipse
 62
7
  6
BYLAYER
 10
72.3446744748
 20
65.6498561449
 30
0.0
 11
10.3341729894
 21
8.919591999
 31
0.0
 40
0.6468548444
 41
1.3891458436
 42
1.4042437082
  0
ELLIPSE
  5
2D9
100
AcDbEntity
  8
0
100
AcDbEllipse
 62
7
  6
BYLAYER
 10
72.3446744748
 20
66.1552384497
 30
0.0
 11
10.5743403885
 21
9.5757833526
 31
0.0
 40
0.5552272381
 41
1.4324654912
 42
1.4530004825
  0
ELLIPSE
  5
2DA
100
AcDbEntity
  8
0
100
AcDbEllipse
 62
7
  6
BYLAYER
 10
72.3446744748
 20
66.6237664912
 30
0.0
 11
10.8336078883
 21
10.1170563979
 31
0.0
 40
0.4711119558
 41
1.4838808103
 42
1.5086873121
  0
ELLIPSE
  5
2DB
100
AcDbEntity
  8
0
100
AcDbEllipse
 62
7
  6
BYLAYER
 10
72.3446744748
 20
67.0474236246
 30
0.0
 11
11.0811640271
 21
10.57430594
 31
0.0
 40
0.3932536107
 41
1.5393435277
 42
1.5677038072
  0
ELLIPSE
  5
2DC
100
AcDbEntity
  8
0
100
AcDbEllipse
 62
7
  6
BYLAYER
 10
72.3446744748
 20
67.418960959
 30
0.0
 11
11.3026503924
 21
10.9583479679
 31
0.0
 40
0.32049021
 41
1.5970782097
 42
1.6285433002
  0
ELLIPSE
  5
2DD
100
AcDbEntity
  8
0
100
AcDbEllipse
 62
7
  6
BYLAYER
 10
72.3446744748
 20
67.7320213876
 30
0.0
 11
11.4903624333
 21
11.272755276
 31
0.0
 40
0.2517837063
 41
1.6561797436
 42
1.6904708988
  0
ELLIPSE
  5
2DE
100
AcDbEntity
  8
0
100
AcDbEllipse
 62
7
  6
BYLAYER
 10
72.3446744748
 20
67.9812483596
 30
0.0
 11
11.6397811956
 21
11.5182116851
 31
0.0
 40
0.1862029912
 41
1.7161329273
 42
1.7527475133
  0
ELLIPSE
  5
2DF
100
AcDbEntity
  8
0
100
AcDbEllipse
 62
7
  6
BYLAYER
 10
72.3446744748
 20
68.1623775325
 30
0.0
 11
11.7481381864
 21
11.6942962282
 31
0.0
 40
0.1228992729
 41
1.776616227
 42
1.8159349799
  0
ELLIPSE
  5
2E0
100
AcDbEntity
  8
0
100
AcDbEllipse
 62
7
  6
BYLAYER
 10
72.3446744748
 20
68.2723097358
 30
0.0
 11
11.8137551981
 21
11.8003161272
 31
0.0
 40
0.0610824685
 41
1.8374099321
 42
1.8795294873
  0
ELLIPSE
  5
2E1
100
AcDbEntity
  8
0
100
AcDbEllipse
 62
7
  6
BYLAYER
 10
64.9331586005
 20
64.4064224454
 30
0.0
 11
9.6458827394
 21
-7.3844602403
 31
0.0
 40
0.8684143762
 41
-0.7128098322
 42
-0.6677067404
  0
ELLIPSE
  5
2E2
100
AcDbEntity
  8
0
100
AcDbEllipse
 62
7
  6
BYLAYER
 10
64.9331586005
 20
63.5962033552
 30
0.0
 11
9.6458827394
 21
7.3844602403
 31
0.0
 40
0.8684143762
 41
0.6677067404
 42
0.7128098322
  0
ELLIPSE
  5
2E3
100
AcDbEntity
  8
0
100
AcDbEllipse
 62
7
  6
BYLAYER
 10
64.9331586005
 20
63.1980253468
 30
0.0
 11
9.6390686169
 21
8.472058128
 31
0.0
 40
0.7581403628
 41
0.6666450018
 42
0.7117480936
  0
ELLIPSE
  5
2E4
100
AcDbEntity
  8
0
100
AcDbEllipse
 62
7
  6
BYLAYER
 10
64.9331586005
 20
62.8135918111
 30
0.0
 11
9.9008743148
 21
9.1398053983
 31
0.0
 40
0.657738698
 41
0.7087479645
 42
0.7538510564
  0
ELLIPSE
  5
2E5
100
AcDbEntity
  8
0
100
AcDbEllipse
 62
7
  6
BYLAYER
 10
64.9331586005
 20
62.4494805126
 30
0.0
 11
10.207034137
 21
9.672197328
 31
0.0
 40
0.5661264515
 41
0.7620394457
 42
0.8071425375
  0
ELLIPSE
  5
2E6
100
AcDbEntity
  8
0
100
AcDbEllipse
 62
7
  6
BYLAYER
 10
64.9331586005
 20
62.1119214964
 30
0.0
 11
10.5062434209
 21
10.1235279518
 31
0.0
 40
0.4817532195
 41
0.819826338
 42
0.8649294298
  0
ELLIPSE
  5
2E7
100
AcDbEntity
  8
0
100
AcDbEllipse
 62
7
  6
BYLAYER
 10
64.9331586005
 20
61.806690491
 30
0.0
 11
10.7798633581
 21
10.5096998268
 31
0.0
 40
0.4032531911
 41
0.8798448634
 42
0.9249479552
  0
ELLIPSE
  5
2E8
100
AcDbEntity
  8
0
100
AcDbEllipse
 62
7
  6
BYLAYER
 10
64.9331586005
 20
61.5390100835
 30
0.0
 11
11.0191384116
 21
10.8359096051
 31
0.0
 40
0.3294650235
 41
0.9411144387
 42
0.9862175305
  0
ELLIPSE
  5
2E9
100
AcDbEntity
  8
0
100
AcDbEllipse
 62
7
  6
BYLAYER
 10
64.9331586005
 20
61.3134603599
 30
0.0
 11
11.2192358625
 21
11.103573653
 31
0.0
 40
0.2593921815
 41
1.0031380237
 42
1.0482411156
  0
ELLIPSE
  5
2EA
100
AcDbEntity
  8
0
100
AcDbEllipse
 62
7
  6
BYLAYER
 10
64.9331586005
 20
61.1339005385
 30
0.0
 11
11.377213794
 21
11.3126576757
 31
0.0
 40
0.1921623568
 41
1.0656330921
 42
1.1107361839
  0
ELLIPSE
  5
2EB
100
AcDbEntity
  8
0
100
AcDbEllipse
 62
7
  6
BYLAYER
 10
64.9331586005
 20
61.0034029375
 30
0.0
 11
11.4912004934
 21
11.4626280056
 31
0.0
 40
0.1269935126
 41
1.1284228933
 42
1.1735259851
  0
ELLIPSE
  5
2EC
100
AcDbEntity
  8
0
100
AcDbEllipse
 62
7
  6
BYLAYER
 10
64.9331586005
 20
60.9242004072
 30
0.0
 11
11.5600239517
 21
11.5528949874
 31
0.0
 40
0.0631661312
 41
1.1913859589
 42
1.2364890507
  0
ELLIPSE
  5
2ED
100
AcDbEntity
  8
0
100
AcDbEllipse
 62
7
  6
BYLAYER
 10
64.9331586005
 20
66.463615717
 30
0.0
 11
11.0191384116
 21
-10.8359096051
 31
0.0
 40
0.3294650235
 41
-0.9862175305
 42
-0.9411144387
  0
ELLIPSE
  5
2EE
100
AcDbEntity
  8
0
100
AcDbEllipse
 62
7
  6
BYLAYER
 10
64.9331586005
 20
64.8046004538
 30
0.0
 11
9.6390686169
 21
-8.472058128
 31
0.0
 40
0.7581403628
 41
-0.7117480936
 42
-0.6666450018
  0
ELLIPSE
  5
2EF
100
AcDbEntity
  8
0
100
AcDbEllipse
 62
7
  6
BYLAYER
 10
64.9331586005
 20
66.6891654407
 30
0.0
 11
11.2192358625
 21
-11.103573653
 31
0.0
 40
0.2593921815
 41
-1.0482411156
 42
-1.0031380237
  0
ELLIPSE
  5
2F0
100
AcDbEntity
  8
0
100
AcDbEllipse
 62
7
  6
BYLAYER
 10
64.9331586005
 20
65.1890339895
 30
0.0
 11
9.9008743148
 21
-9.1398053983
 31
0.0
 40
0.657738698
 41
-0.7538510564
 42
-0.7087479645
  0
ELLIPSE
  5
2F1
100
AcDbEntity
  8
0
100
AcDbEllipse
 62
7
  6
BYLAYER
 10
64.9331586005
 20
66.8687252621
 30
0.0
 11
11.377213794
 21
-11.3126576757
 31
0.0
 40
0.1921623568
 41
-1.1107361839
 42
-1.0656330921
  0
ELLIPSE
  5
2F2
100
AcDbEntity
  8
0
100
AcDbEllipse
 62
7
  6
BYLAYER
 10
64.9331586005
 20
65.553145288
 30
0.0
 11
10.207034137
 21
-9.672197328
 31
0.0
 40
0.5661264515
 41
-0.8071425375
 42
-0.7620394457
  0
ELLIPSE
  5
2F3
100
AcDbEntity
  8
0
100
AcDbEllipse
 62
7
  6
BYLAYER
 10
64.9331586005
 20
66.999222863
 30
0.0
 11
11.4912004934
 21
-11.4626280056
 31
0.0
 40
0.1269935126
 41
-1.1735259851
 42
-1.1284228933
  0
ELLIPSE
  5
2F4
100
AcDbEntity
  8
0
100
AcDbEllipse
 62
7
  6
BYLAYER
 10
64.9331586005
 20
67.0784253933
 30
0.0
 11
11.5600239517
 21
-11.5528949874
 31
0.0
 40
0.0631661312
 41
-1.2364890507
 42
-1.1913859589
  0
ELLIPSE
  5
2F5
100
AcDbEntity
  8
0
100
AcDbEllipse
 62
7
  6
BYLAYER
 10
64.9331586005
 20
65.8907043042
 30
0.0
 11
10.5062434209
 21
-10.1235279518
 31
0.0
 40
0.4817532195
 41
-0.8649294298
 42
-0.819826338
  0
ELLIPSE
  5
2F6
100
AcDbEntity
  8
0
100
AcDbEllipse
 62
7
  6
BYLAYER
 10
64.9331586005
 20
66.1959353095
 30
0.0
 11
10.7798633581
 21
-10.5096998268
 31
0.0
 40
0.4032531911
 41
-0.9249479552
 42
-0.8798448634
  0
ELLIPSE
  5
2F7
100
AcDbEntity
  8
0
100
AcDbEllipse
 62
7
  6
BYLAYER
 10
67.3289722771
 20
68.2723097358
 30
0.0
 11
11.8137551981
 21
-11.8003161272
 31
0.0
 40
0.0610824685
 41
1.2620631389
 42
1.3041827215
  0
ELLIPSE
  5
2F8
100
AcDbEntity
  8
0
100
AcDbEllipse
 62
7
  6
BYLAYER
 10
67.3289722771
 20
68.1623775325
 30
0.0
 11
11.7481381864
 21
-11.6942962282
 31
0.0
 40
0.1228992729
 41
1.3256576229
 42
1.3649764266
  0
ELLIPSE
  5
2F9
100
AcDbEntity
  8
0
100
AcDbEllipse
 62
7
  6
BYLAYER
 10
67.3289722771
 20
67.9812483596
 30
0.0
 11
11.6397811956
 21
-11.5182116851
 31
0.0
 40
0.1862029912
 41
1.3888450694
 42
1.4254597263
  0
ELLIPSE
  5
2FA
100
AcDbEntity
  8
0
100
AcDbEllipse
 62
7
  6
BYLAYER
 10
67.3289722771
 20
67.7320213876
 30
0.0
 11
11.4903624333
 21
-11.272755276
 31
0.0
 40
0.2517837063
 41
1.4511216746
 42
1.48541291
  0
ELLIPSE
  5
2FB
100
AcDbEntity
  8
0
100
AcDbEllipse
 62
7
  6
BYLAYER
 10
67.3289722771
 20
67.418960959
 30
0.0
 11
11.3026503924
 21
-10.9583479679
 31
0.0
 40
0.32049021
 41
1.5130492608
 42
1.5445144439
  0
ELLIPSE
  5
2FC
100
AcDbEntity
  8
0
100
AcDbEllipse
 62
7
  6
BYLAYER
 10
67.3289722771
 20
67.0474236246
 30
0.0
 11
11.0811640271
 21
-10.57430594
 31
0.0
 40
0.3932536107
 41
1.5738888411
 42
1.6022491259
  0
ELLIPSE
  5
2FD
100
AcDbEntity
  8
0
100
AcDbEllipse
 62
7
  6
BYLAYER
 10
67.3289722771
 20
66.6237664912
 30
0.0
 11
10.8336078883
 21
-10.1170563979
 31
0.0
 40
0.4711119558
 41
1.6329053229
 42
1.6577118433
  0
ELLIPSE
  5
2FE
100
AcDbEntity
  8
0
100
AcDbEllipse
 62
7
  6
BYLAYER
 10
67.3289722771
 20
66.1552384497
 30
0.0
 11
10.5743403885
 21
-9.5757833526
 31
0.0
 40
0.5552272381
 41
1.6885921442
 42
1.7091271624
  0
ELLIPSE
  5
2FF
100
AcDbEntity
  8
0
100
AcDbEllipse
 62
7
  6
BYLAYER
 10
67.3289722771
 20
65.6498561449
 30
0.0
 11
10.3341729894
 21
-8.919591999
 31
0.0
 40
0.6468548444
 41
1.7373489199
 42
1.75244681
  0
ELLIPSE
  5
300
100
AcDbEntity
  8
0
100
AcDbEllipse
 62
7
  6
BYLAYER
 10
67.3289722771
 20
65.1162668081
 30
0.0
 11
10.195190748
 21
-8.0474192635
 31
0.0
 40
0.7470541823
 41
1.7683736233
 42
1.7760389382
  0
ELLIPSE
  5
301
100
AcDbEntity
  8
0
100
AcDbEllipse
 62
7
  6
BYLAYER
 10
74.7404881514
 20
64.0013129003
 30
0.0
 11
11.5830346317
 21
-0.0
 31
0.0
 40
0.963433044
 41
1.8420600805
 42
1.8871631723
  0
ELLIPSE
  5
302
100
AcDbEntity
  8
0
100
AcDbEllipse
 62
7
  6
BYLAYER
 10
74.7404881514
 20
64.4064224454
 30
0.0
 11
9.6458827394
 21
7.3844602403
 31
0.0
 40
0.8684143762
 41
1.2553373397
 42
1.3004404315
  0
ELLIPSE
  5
303
100
AcDbEntity
  8
0
100
AcDbEllipse
 62
7
  6
BYLAYER
 10
74.7404881514
 20
64.8046004538
 30
0.0
 11
9.6390686169
 21
8.472058128
 31
0.0
 40
0.7581403628
 41
1.2542756011
 42
1.2993786929
  0
ELLIPSE
  5
304
100
AcDbEntity
  8
0
100
AcDbEllipse
 62
7
  6
BYLAYER
 10
74.7404881514
 20
65.1890339895
 30
0.0
 11
9.9008743148
 21
9.1398053983
 31
0.0
 40
0.657738698
 41
1.2963785638
 42
1.3414816556
  0
ELLIPSE
  5
305
100
AcDbEntity
  8
0
100
AcDbEllipse
 62
7
  6
BYLAYER
 10
74.7404881514
 20
65.553145288
 30
0.0
 11
10.207034137
 21
9.672197328
 31
0.0
 40
0.5661264515
 41
1.349670045
 42
1.3947731368
  0
ELLIPSE
  5
306
100
AcDbEntity
  8
0
100
AcDbEllipse
 62
7
  6
BYLAYER
 10
74.7404881514
 20
65.8907043042
 30
0.0
 11
10.5062434209
 21
10.1235279518
 31
0.0
 40
0.4817532195
 41
1.4074569373
 42
1.4525600291
  0
ELLIPSE
  5
307
100
AcDbEntity
  8
0
100
AcDbEllipse
 62
7
  6
BYLAYER
 10
74.7404881514
 20
66.1959353095
 30
0.0
 11
10.7798633581
 21
10.5096998268
 31
0.0
 40
0.4032531911
 41
1.4674754626
 42
1.5125785545
  0
ELLIPSE
  5
308
100
AcDbEntity
  8
0
100
AcDbEllipse
 62
7
  6
BYLAYER
 10
74.7404881514
 20
66.463615717
 30
0.0
 11
11.0191384116
 21
10.8359096051
 31
0.0
 40
0.3294650235
 41
1.5287450379
 42
1.5738481298
  0
ELLIPSE
  5
309
100
AcDbEntity
  8
0
100
AcDbEllipse
 62
7
  6
BYLAYER
 10
74.7404881514
 20
66.6891654407
 30
0.0
 11
11.2192358625
 21
11.103573653
 31
0.0
 40
0.2593921815
 41
1.590768623
 42
1.6358717148
  0
ELLIPSE
  5
30A
100
AcDbEntity
  8
0
100
AcDbEllipse
 62
7
  6
BYLAYER
 10
74.7404881514
 20
66.8687252621
 30
0.0
 11
11.377213794
 21
11.3126576757
 31
0.0
 40
0.1921623568
 41
1.6532636914
 42
1.6983667832
  0
ELLIPSE
  5
30B
100
AcDbEntity
  8
0
100
AcDbEllipse
 62
7
  6
BYLAYER
 10
74.7404881514
 20
66.999222863
 30
0.0
 11
11.4912004934
 21
11.4626280056
 31
0.0
 40
0.1269935126
 41
1.7160534926
 42
1.7611565844
  0
ELLIPSE
  5
30C
100
AcDbEntity
  8
0
100
AcDbEllipse
 62
7
  6
BYLAYER
 10
74.7404881514
 20
67.0784253933
 30
0.0
 11
11.5600239517
 21
11.5528949874
 31
0.0
 40
0.0631661312
 41
1.7790165582
 42
1.82411965
  0
ELLIPSE
  5
30D
100
AcDbEntity
  8
0
100
AcDbEllipse
 62
7
  6
BYLAYER
 10
74.7404881514
 20
60.9242004072
 30
0.0
 11
11.5600239517
 21
-11.5528949874
 31
0.0
 40
0.0631661312
 41
-1.82411965
 42
-1.7790165582
  0
ELLIPSE
  5
30E
100
AcDbEntity
  8
0
100
AcDbEllipse
 62
7
  6
BYLAYER
 10
74.7404881514
 20
61.0034029375
 30
0.0
 11
11.4912004934
 21
-11.4626280056
 31
0.0
 40
0.1269935126
 41
-1.7611565844
 42
-1.7160534926
  0
ELLIPSE
  5
30F
100
AcDbEntity
  8
0
100
AcDbEllipse
 62
7
  6
BYLAYER
 10
74.7404881514
 20
61.1339005385
 30
0.0
 11
11.377213794
 21
-11.3126576757
 31
0.0
 40
0.1921623568
 41
-1.6983667832
 42
-1.6532636914
  0
ELLIPSE
  5
310
100
AcDbEntity
  8
0
100
AcDbEllipse
 62
7
  6
BYLAYER
 10
74.7404881514
 20
61.3134603599
 30
0.0
 11
11.2192358625
 21
-11.103573653
 31
0.0
 40
0.2593921815
 41
-1.6358717148
 42
-1.590768623
  0
ELLIPSE
  5
311
100
AcDbEntity
  8
0
100
AcDbEllipse
 62
7
  6
BYLAYER
 10
74.7404881514
 20
61.5390100835
 30
0.0
 11
11.0191384116
 21
-10.8359096051
 31
0.0
 40
0.3294650235
 41
-1.5738481298
 42
-1.5287450379
  0
ELLIPSE
  5
312
100
AcDbEntity
  8
0
100
AcDbEllipse
 62
7
  6
BYLAYER
 10
74.7404881514
 20
61.806690491
 30
0.0
 11
10.7798633581
 21
-10.5096998268
 31
0.0
 40
0.4032531911
 41
-1.5125785545
 42
-1.4674754626
  0
ELLIPSE
  5
313
100
AcDbEntity
  8
0
100
AcDbEllipse
 62
7
  6
BYLAYER
 10
74.7404881514
 20
62.1119214964
 30
0.0
 11
10.5062434209
 21
-10.1235279518
 31
0.0
 40
0.4817532195
 41
-1.4525600291
 42
-1.4074569373
  0
ELLIPSE
  5
314
100
AcDbEntity
  8
0
100
AcDbEllipse
 62
7
  6
BYLAYER
 10
74.7404881514
 20
62.4494805126
 30
0.0
 11
10.207034137
 21
-9.672197328
 31
0.0
 40
0.5661264515
 41
-1.3947731368
 42
-1.349670045
  0
ELLIPSE
  5
315
100
AcDbEntity
  8
0
100
AcDbEllipse
 62
7
  6
BYLAYER
 10
74.7404881514
 20
62.8135918111
 30
0.0
 11
9.9008743148
 21
-9.1398053983
 31
0.0
 40
0.657738698
 41
-1.3414816556
 42
-1.2963785638
  0
ELLIPSE
  5
316
100
AcDbEntity
  8
0
100
AcDbEllipse
 62
7
  6
BYLAYER
 10
67.3289722771
 20
62.8863589924
 30
0.0
 11
10.195190748
 21
8.0474192635
 31
0.0
 40
0.7470541823
 41
4.507146369
 42
4.5148116578
  0
ELLIPSE
  5
317
100
AcDbEntity
  8
0
100
AcDbEllipse
 62
7
  6
BYLAYER
 10
74.7404881514
 20
63.1980253468
 30
0.0
 11
9.6390686169
 21
-8.472058128
 31
0.0
 40
0.7581403628
 41
-1.2993786929
 42
-1.2542756011
  0
ELLIPSE
  5
318
100
AcDbEntity
  8
0
100
AcDbEllipse
 62
7
  6
BYLAYER
 10
67.3289722771
 20
59.7303160648
 30
0.0
 11
11.8137551981
 21
11.8003161272
 31
0.0
 40
0.0610824685
 41
-1.3041827215
 42
-1.2620631663
  0
ELLIPSE
  5
319
100
AcDbEntity
  8
0
100
AcDbEllipse
 62
7
  6
BYLAYER
 10
67.3289722771
 20
59.8402482681
 30
0.0
 11
11.7481381864
 21
11.6942962282
 31
0.0
 40
0.1228992729
 41
-1.3649764266
 42
-1.3256576737
  0
ELLIPSE
  5
31A
100
AcDbEntity
  8
0
100
AcDbEllipse
 62
7
  6
BYLAYER
 10
67.3289722771
 20
60.021377441
 30
0.0
 11
11.6397811956
 21
11.5182116851
 31
0.0
 40
0.1862029912
 41
-1.4254597263
 42
-1.3888451403
  0
ELLIPSE
  5
31B
100
AcDbEntity
  8
0
100
AcDbEllipse
 62
7
  6
BYLAYER
 10
67.3289722771
 20
60.270604413
 30
0.0
 11
11.4903624333
 21
11.272755276
 31
0.0
 40
0.2517837063
 41
-1.48541291
 42
-1.4511217548
  0
ELLIPSE
  5
31C
100
AcDbEntity
  8
0
100
AcDbEllipse
 62
7
  6
BYLAYER
 10
67.3289722771
 20
60.5836648415
 30
0.0
 11
11.3026503924
 21
10.9583479679
 31
0.0
 40
0.32049021
 41
-1.5445144439
 42
-1.5130493534
  0
ELLIPSE
  5
31D
100
AcDbEntity
  8
0
100
AcDbEllipse
 62
7
  6
BYLAYER
 10
67.3289722771
 20
60.9552021759
 30
0.0
 11
11.0811640271
 21
10.57430594
 31
0.0
 40
0.3932536107
 41
-1.6022491259
 42
-1.5738888464
  0
ELLIPSE
  5
31E
100
AcDbEntity
  8
0
100
AcDbEllipse
 62
7
  6
BYLAYER
 10
67.3289722771
 20
61.3788593094
 30
0.0
 11
10.8336078883
 21
10.1170563979
 31
0.0
 40
0.4711119558
 41
-1.6577118433
 42
-1.6329053414
  0
ELLIPSE
  5
31F
100
AcDbEntity
  8
0
100
AcDbEllipse
 62
7
  6
BYLAYER
 10
67.3289722771
 20
61.8473873509
 30
0.0
 11
10.5743403885
 21
9.5757833526
 31
0.0
 40
0.5552272381
 41
-1.7091271624
 42
-1.6885921711
  0
ELLIPSE
  5
320
100
AcDbEntity
  8
0
100
AcDbEllipse
 62
7
  6
BYLAYER
 10
67.3289722771
 20
62.3527696557
 30
0.0
 11
10.3341729894
 21
8.919591999
 31
0.0
 40
0.6468548444
 41
-1.75244681
 42
-1.7373489454
  0
ELLIPSE
  5
321
100
AcDbEntity
  8
0
100
AcDbEllipse
 62
7
  6
BYLAYER
 10
74.7404881514
 20
63.5962033552
 30
0.0
 11
9.6458827394
 21
-7.3844602403
 31
0.0
 40
0.8684143762
 41
-1.3004404315
 42
-1.2553373397
  0
ELLIPSE
  5
322
100
AcDbEntity
  8
0
100
AcDbEllipse
 62
7
  6
BYLAYER
 10
74.7404881514
 20
64.0013129003
 30
0.0
 11
11.5830346317
 21
-0.0
 31
0.0
 40
0.963433044
 41
4.3960221348
 42
4.4411252267
  0
ELLIPSE
  5
323
100
AcDbEntity
  8
0
100
AcDbEllipse
 62
7
  6
BYLAYER
 10
74.7404881514
 20
63.1980253468
 30
0.0
 11
9.6390686169
 21
-8.472058128
 31
0.0
 40
0.7581403628
 41
2.42984456
 42
2.4749476518
  0
ELLIPSE
  5
324
100
AcDbEntity
  8
0
100
AcDbEllipse
 62
7
  6
BYLAYER
 10
74.7404881514
 20
61.3134603599
 30
0.0
 11
11.2192358625
 21
-11.103573653
 31
0.0
 40
0.2593921815
 41
2.093351538
 42
2.1384546298
  0
ELLIPSE
  5
325
100
AcDbEntity
  8
0
100
AcDbEllipse
 62
7
  6
BYLAYER
 10
74.7404881514
 20
63.5962033552
 30
0.0
 11
9.6458827394
 21
-7.3844602403
 31
0.0
 40
0.8684143762
 41
2.4287828214
 42
2.4738859132
  0
ELLIPSE
  5
326
100
AcDbEntity
  8
0
100
AcDbEllipse
 62
7
  6
BYLAYER
 10
74.7404881514
 20
64.4064224454
 30
0.0
 11
9.6458827394
 21
7.3844602403
 31
0.0
 40
0.8684143762
 41
-2.4738859132
 42
-2.4287828214
  0
ELLIPSE
  5
327
100
AcDbEntity
  8
0
100
AcDbEllipse
 62
7
  6
BYLAYER
 10
74.7404881514
 20
64.8046004538
 30
0.0
 11
9.6390686169
 21
8.472058128
 31
0.0
 40
0.7581403628
 41
-2.4749476518
 42
-2.42984456
  0
ELLIPSE
  5
328
100
AcDbEntity
  8
0
100
AcDbEllipse
 62
7
  6
BYLAYER
 10
74.7404881514
 20
65.1890339895
 30
0.0
 11
9.9008743148
 21
9.1398053983
 31
0.0
 40
0.657738698
 41
-2.432844689
 42
-2.3877415972
  0
ELLIPSE
  5
329
100
AcDbEntity
  8
0
100
AcDbEllipse
 62
7
  6
BYLAYER
 10
74.7404881514
 20
65.553145288
 30
0.0
 11
10.207034137
 21
9.672197328
 31
0.0
 40
0.5661264515
 41
-2.3795532079
 42
-2.3344501161
  0
ELLIPSE
  5
32A
100
AcDbEntity
  8
0
100
AcDbEllipse
 62
7
  6
BYLAYER
 10
74.7404881514
 20
65.8907043042
 30
0.0
 11
10.5062434209
 21
10.1235279518
 31
0.0
 40
0.4817532195
 41
-2.3217663156
 42
-2.2766632237
  0
ELLIPSE
  5
32B
100
AcDbEntity
  8
0
100
AcDbEllipse
 62
7
  6
BYLAYER
 10
74.7404881514
 20
66.1959353095
 30
0.0
 11
10.7798633581
 21
10.5096998268
 31
0.0
 40
0.4032531911
 41
-2.2617477902
 42
-2.2166446984
  0
ELLIPSE
  5
32C
100
AcDbEntity
  8
0
100
AcDbEllipse
 62
7
  6
BYLAYER
 10
74.7404881514
 20
66.463615717
 30
0.0
 11
11.0191384116
 21
10.8359096051
 31
0.0
 40
0.3294650235
 41
-2.2004782149
 42
-2.1553751231
  0
ELLIPSE
  5
32D
100
AcDbEntity
  8
0
100
AcDbEllipse
 62
7
  6
BYLAYER
 10
74.7404881514
 20
66.6891654407
 30
0.0
 11
11.2192358625
 21
11.103573653
 31
0.0
 40
0.2593921815
 41
-2.1384546298
 42
-2.093351538
  0
ELLIPSE
  5
32E
100
AcDbEntity
  8
0
100
AcDbEllipse
 62
7
  6
BYLAYER
 10
74.7404881514
 20
66.8687252621
 30
0.0
 11
11.377213794
 21
11.3126576757
 31
0.0
 40
0.1921623568
 41
-2.0759595615
 42
-2.0308564696
  0
ELLIPSE
  5
32F
100
AcDbEntity
  8
0
100
AcDbEllipse
 62
7
  6
BYLAYER
 10
74.7404881514
 20
66.999222863
 30
0.0
 11
11.4912004934
 21
11.4626280056
 31
0.0
 40
0.1269935126
 41
-2.0131697603
 42
-1.9680666685
  0
ELLIPSE
  5
330
100
AcDbEntity
  8
0
100
AcDbEllipse
 62
7
  6
BYLAYER
 10
74.7404881514
 20
67.0784253933
 30
0.0
 11
11.5600239517
 21
11.5528949874
 31
0.0
 40
0.0631661312
 41
-1.9502066947
 42
-1.9051036029
  0
ELLIPSE
  5
331
100
AcDbEntity
  8
0
100
AcDbEllipse
 62
7
  6
BYLAYER
 10
74.7404881514
 20
61.5390100835
 30
0.0
 11
11.0191384116
 21
-10.8359096051
 31
0.0
 40
0.3294650235
 41
2.1553751231
 42
2.2004782149
  0
ELLIPSE
  5
332
100
AcDbEntity
  8
0
100
AcDbEllipse
 62
7
  6
BYLAYER
 10
74.7404881514
 20
60.9242004072
 30
0.0
 11
11.5600239517
 21
-11.5528949874
 31
0.0
 40
0.0631661312
 41
1.9051036029
 42
1.9502066947
  0
ELLIPSE
  5
333
100
AcDbEntity
  8
0
100
AcDbEllipse
 62
7
  6
BYLAYER
 10
74.7404881514
 20
61.806690491
 30
0.0
 11
10.7798633581
 21
-10.5096998268
 31
0.0
 40
0.4032531911
 41
2.2166446984
 42
2.2617477902
  0
ELLIPSE
  5
334
100
AcDbEntity
  8
0
100
AcDbEllipse
 62
7
  6
BYLAYER
 10
74.7404881514
 20
62.1119214964
 30
0.0
 11
10.5062434209
 21
-10.1235279518
 31
0.0
 40
0.4817532195
 41
2.2766632237
 42
2.3217663156
  0
ELLIPSE
  5
335
100
AcDbEntity
  8
0
100
AcDbEllipse
 62
7
  6
BYLAYER
 10
74.7404881514
 20
61.0034029375
 30
0.0
 11
11.4912004934
 21
-11.4626280056
 31
0.0
 40
0.1269935126
 41
1.9680666685
 42
2.0131697603
  0
ELLIPSE
  5
336
100
AcDbEntity
  8
0
100
AcDbEllipse
 62
7
  6
BYLAYER
 10
74.7404881514
 20
62.4494805126
 30
0.0
 11
10.207034137
 21
-9.672197328
 31
0.0
 40
0.5661264515
 41
2.3344501161
 42
2.3795532079
  0
ELLIPSE
  5
337
100
AcDbEntity
  8
0
100
AcDbEllipse
 62
7
  6
BYLAYER
 10
74.7404881514
 20
61.1339005385
 30
0.0
 11
11.377213794
 21
-11.3126576757
 31
0.0
 40
0.1921623568
 41
2.0308564696
 42
2.0759595615
  0
ELLIPSE
  5
338
100
AcDbEntity
  8
0
100
AcDbEllipse
 62
7
  6
BYLAYER
 10
74.7404881514
 20
62.8135918111
 30
0.0
 11
9.9008743148
 21
-9.1398053983
 31
0.0
 40
0.657738698
 41
2.3877415972
 42
2.432844689
  0
ENDSEC
  0
SECTION
  2
OBJECTS
  0
DICTIONARY
  5
C
100
AcDbDictionary
280
0
281
1
  3
ACAD_GROUP
350
D
  3
ACAD_MLINESTYLE
350
17
  3
ACAD_LAYOUT
350
1A
  3
ACAD_PLOTSETTINGS
350
19
  3
ACAD_PLOTSTYLENAME
350
E
  0
DICTIONARY
  5
D
102
{ACAD_REACTORS
330
C
102
}
100
AcDbDictionary
280
0
281
1
  0
ACDBDICTIONARYWDFLT
  5
E
102
{ACAD_REACTORS
330
C
102
}
100
AcDbDictionary
281
1
  3
Normal
350
F
100
AcDbDictionaryWithDefault
340
F
  0
DICTIONARY
  5
17
102
{ACAD_REACTORS
330
C
102
}
100
AcDbDictionary
280
0
281
1
  3
Standard
350
18
  0
DICTIONARY
  5
19
102
{ACAD_REACTORS
330
C
102
}
100
AcDbDictionary
281
1
  0
DICTIONARY
  5
1A
102
{ACAD_REACTORS
330
C
102
}
100
AcDbDictionary
281
1
  3
Model
350
339
  3
Layout1
350
33A
  0
ACDBPLACEHOLDER
  5
F
102
{ACAD_REACTORS
330
E
102
}
  0
MLINESTYLE
  5
18
102
{ACAD_REACTORS
330
17
102
}
100
AcDbMlineStyle
  2
STANDARD
 70
0
  3

 62
256
 51
90.0
 52
90.0
 71
2
 49
0.5
 62
256
  6
BYLAYER
 49
-0.5
 62
256
  6
BYLAYER
  0
LAYOUT
  5
339
102
{ACAD_REACTORS
330
1A
102
}
100
AcDbPlotSettings
  1

  2
none_device
  4

  6

 40
0.0
 41
0.0
 42
0.0
 43
0.0
 44
210.0
 45
297.0
 46
0.0
 47
0.0
 48
0.0
 49
0.0
140
0.0
141
0.0
142
1.0
143
1.0
 70
1024
 72
1
 73
0
 74
0
  7

 75
0
147
1.0
148
0.0
149
0.0
100
AcDbLayout
  1
Model
 70
0
 71
0
 10
0.0
 20
0.0
 11
210.0
 21
297.0
 12
0.0
 22
0.0
 32
0.0
 14
0.0
 24
0.0
 34
0.0
 15
0.0
 25
0.0
 35
0.0
146
0.0
 13
0.0
 23
0.0
 33
0.0
 16
1.0
 26
0.0
 36
0.0
 17
0.0
 27
1.0
 37
0.0
 76
0
330
210
345
0
346
0
  0
LAYOUT
  5
33A
102
{ACAD_REACTORS
330
1A
102
}
100
AcDbPlotSettings
  1

  2
none_device
  4

  6

 40
0.0
 41
0.0
 42
0.0
 43
0.0
 44
210.0
 45
297.0
 46
0.0
 47
0.0
 48
0.0
 49
0.0
140
0.0
141
0.0
142
1.0
143
1.0
 70
0
 72
1
 73
0
 74
0
  7

 75
0
147
1.0
148
0.0
149
0.0
100
AcDbLayout
  1
Layout1
 70
0
 71
1
 10
0.0
 20
0.0
 11
210.0
 21
297.0
 12
0.0
 22
0.0
 32
0.0
 14
0.0
 24
0.0
 34
0.0
 15
0.0
 25
0.0
 35
0.0
146
0.0
 13
0.0
 23
0.0
 33
0.0
 16
1.0
 26
0.0
 36
0.0
 17
0.0
 27
1.0
 37
0.0
 76
0
330
211
345
0
346
0
  0
ENDSEC
  0
EOF
