999
DXF file: C:\Users\sesa63760\Dev\_Creo\CAD\MCADID0003499_3D-CAD\drw0001_5.dxf
999
Pro/ENGINEER 2019471 by Parametric Technology Corporation
  0
SECTION
  2
HEADER
  9
$ACADVER
  1
AC1024
  9
$DWGCODEPAGE
  3
ANSI_1252
  9
$EXTMAX
 10
97.4071660482
 20
137.7615634111
 30
0.0
  9
$EXTMIN
 10
0.0
 20
0.0
 30
0.0
  9
$LIMMIN
 10
0.0
 20
0.0
  9
$LIMMAX
 10
97.4071660482
 20
137.7615634111
  9
$VIEWCTR
 10
48.7035830241
 20
68.8807817055
  9
$VIEWSIZE
 40
137.7615634111
  9
$CLAYER
  8
0
  9
$LTSCALE
 40
8.9800130224
  9
$CELTYPE
  6
BYLAYER
  9
$DIMSCALE
 40
1.0
  9
$DIMASZ
 40
1.1596091196
  9
$DIMEXO
 40
1.0
  9
$DIMDLI
 40
6.2043726336
  9
$DIMEXE
 40
1.0
  9
$DIMCEN
 40
1.4694566764
  9
$DIMLFAC
 40
1.0
  9
$DIMBLK
  1
_FILLED
  9
$DIMALT
 70
0
  9
$DIMALTF
 40
0.0393700787
  9
$DIMTXT
 40
1.6234527675
  9
$DIMTOL
 70
1
  9
$DIMLIM
 70
0
  9
$DIMTFAC
 40
1.0
  9
$DIMTP
 40
0.01
  9
$DIMTM
 40
0.01
  9
$DIMGAP
 40
0.625
  9
$DIMDSEP
 70
46
  9
$AUNITS
 70
0
  9
$PDMODE
 70
3
  9
$PDSIZE
 40
0.3125
  9
$HANDSEED
  5
2A3
  9
$TILEMODE
 70
1
  9
$MEASUREMENT
 70
1
  9
$INSUNITS
 70
4
  0
ENDSEC
  0
SECTION
  2
CLASSES
  0
CLASS
  1
ACDBDICTIONARYWDFLT
  2
AcDbDictionaryWithDefault
  3
AutoCAD 2000
 90
0
 91
1
280
0
281
0
  0
CLASS
  1
ACDBPLACEHOLDER
  2
AcDbPlaceHolder
  3
AutoCAD 2000
 90
0
 91
1
280
0
281
0
  0
CLASS
  1
LAYOUT
  2
AcDbLayout
  3
AutoCAD 2000
 90
0
 91
0
280
0
281
0
  0
ENDSEC
  0
SECTION
  2
TABLES
  0
TABLE
  2
VPORT
  5
8
100
AcDbSymbolTable
 70
2
  0
VPORT
  5
1F4
100
AcDbSymbolTableRecord
100
AcDbViewportTableRecord
  2
*ACTIVE
 70
0
 10
0.0
 20
0.0
 11
1.0
 21
1.0
 12
48.7035830241
 22
68.8807817055
 13
0.0
 23
0.0
 14
1.0
 24
1.0
 15
0.0
 25
0.0
 16
0.0
 26
0.0
 36
1.0
 17
0.0
 27
0.0
 37
0.0
 40
137.7615634111
 41
0.7070707071
 42
50.0
 43
0.0
 44
0.0
 50
0.0
 51
0.0
 71
0
 72
100
 73
1
 74
1
 75
0
 76
0
 77
0
 78
0
  0
ENDTAB
  0
TABLE
  2
LTYPE
  5
5
100
AcDbSymbolTable
 70
6
  0
LTYPE
  5
14
100
AcDbSymbolTableRecord
100
AcDbLinetypeTableRecord
  2
BYBLOCK
 70
0
  3

 72
65
 73
0
 40
0.0
  0
LTYPE
  5
15
100
AcDbSymbolTableRecord
100
AcDbLinetypeTableRecord
  2
BYLAYER
 70
0
  3

 72
65
 73
0
 40
0.0
  0
LTYPE
  5
16
100
AcDbSymbolTableRecord
100
AcDbLinetypeTableRecord
  2
CONTINUOUS
 70
64
  3
Solid line
 72
65
 73
0
 40
0.0
  0
LTYPE
  5
1F5
100
AcDbSymbolTableRecord
100
AcDbLinetypeTableRecord
  2
CENTER
 70
64
  3
____ _ ____ _ ____ _ ____ _ ____ _ ____ _ ____
 72
65
 73
4
 40
0.6
 49
0.375
 74
0
 49
-0.075
 74
0
 49
0.075
 74
0
 49
-0.075
 74
0
  0
LTYPE
  5
1F6
100
AcDbSymbolTableRecord
100
AcDbLinetypeTableRecord
  2
HIDDEN
 70
64
  3
- - - - - - - - - - - - - - - - - - - -
 72
65
 73
2
 40
0.2
 49
0.1
 74
0
 49
-0.1
 74
0
  0
LTYPE
  5
1F7
100
AcDbSymbolTableRecord
100
AcDbLinetypeTableRecord
  2
PHANTOM
 70
64
  3
_____ _ _ _____ _ _ _____ _ _ _____
 72
65
 73
6
 40
0.8
 49
0.45
 74
0
 49
-0.05
 74
0
 49
0.1
 74
0
 49
-0.05
 74
0
 49
0.1
 74
0
 49
-0.05
 74
0
  0
LTYPE
  5
1F8
100
AcDbSymbolTableRecord
100
AcDbLinetypeTableRecord
  2
DOT
 70
64
  3
. . . . . . . . . . . . . . . . . . . .
 72
65
 73
2
 40
0.2
 49
0.1
 74
0
 49
-0.1
 74
0
  0
LTYPE
  5
1F9
100
AcDbSymbolTableRecord
100
AcDbLinetypeTableRecord
  2
DASHED
 70
64
  3
- - - - - - - - - - - - - - - - - - - -
 72
65
 73
2
 40
0.2
 49
0.1
 74
0
 49
-0.1
 74
0
  0
ENDTAB
  0
TABLE
  2
LAYER
  5
2
100
AcDbSymbolTable
 70
36
  0
LAYER
  5
10
100
AcDbSymbolTableRecord
100
AcDbLayerTableRecord
  2
0
 70
0
 62
7
  6
CONTINUOUS
370
-3
390
F
  0
LAYER
  5
1FA
100
AcDbSymbolTableRecord
100
AcDbLayerTableRecord
  2
DEFAULT_1
 70
0
 62
7
  6
CENTER
370
-3
390
F
  0
LAYER
  5
1FB
100
AcDbSymbolTableRecord
100
AcDbLayerTableRecord
  2
DEFAULT_2
 70
0
 62
7
  6
HIDDEN
370
-3
390
F
  0
LAYER
  5
1FC
100
AcDbSymbolTableRecord
100
AcDbLayerTableRecord
  2
DEFAULT_3
 70
0
 62
7
  6
PHANTOM
370
-3
390
F
  0
LAYER
  5
1FD
100
AcDbSymbolTableRecord
100
AcDbLayerTableRecord
  2
00_COMPONENTS
 70
0
 62
7
  6
CONTINUOUS
370
-3
390
F
  0
LAYER
  5
1FE
100
AcDbSymbolTableRecord
100
AcDbLayerTableRecord
  2
01_1_DEFAULT_DATUMS
 70
0
 62
7
  6
CONTINUOUS
370
-3
390
F
  0
LAYER
  5
1FF
100
AcDbSymbolTableRecord
100
AcDbLayerTableRecord
  2
01_PLANES
 70
0
 62
7
  6
CONTINUOUS
370
-3
390
F
  0
LAYER
  5
200
100
AcDbSymbolTableRecord
100
AcDbLayerTableRecord
  2
02_COORD_SYS
 70
0
 62
7
  6
CONTINUOUS
370
-3
390
F
  0
LAYER
  5
201
100
AcDbSymbolTableRecord
100
AcDbLayerTableRecord
  2
03_AXES
 70
0
 62
7
  6
CONTINUOUS
370
-3
390
F
  0
LAYER
  5
202
100
AcDbSymbolTableRecord
100
AcDbLayerTableRecord
  2
04_POINTS
 70
0
 62
7
  6
CONTINUOUS
370
-3
390
F
  0
LAYER
  5
203
100
AcDbSymbolTableRecord
100
AcDbLayerTableRecord
  2
05_CURVES
 70
0
 62
7
  6
CONTINUOUS
370
-3
390
F
  0
LAYER
  5
204
100
AcDbSymbolTableRecord
100
AcDbLayerTableRecord
  2
06_SURFS
 70
0
 62
7
  6
CONTINUOUS
370
-3
390
F
  0
LAYER
  5
205
100
AcDbSymbolTableRecord
100
AcDbLayerTableRecord
  2
07_COSMETICS
 70
0
 62
7
  6
CONTINUOUS
370
-3
390
F
  0
LAYER
  5
206
100
AcDbSymbolTableRecord
100
AcDbLayerTableRecord
  2
10_NOTES
 70
0
 62
7
  6
CONTINUOUS
370
-3
390
F
  0
LAYER
  5
207
100
AcDbSymbolTableRecord
100
AcDbLayerTableRecord
  2
11_NOTES_PUB
 70
0
 62
7
  6
CONTINUOUS
370
-3
390
F
  0
LAYER
  5
208
100
AcDbSymbolTableRecord
100
AcDbLayerTableRecord
  2
13_REF_GTOL
 70
0
 62
7
  6
CONTINUOUS
370
-3
390
F
  0
LAYER
  5
209
100
AcDbSymbolTableRecord
100
AcDbLayerTableRecord
  2
16_MISC
 70
0
 62
7
  6
CONTINUOUS
370
-3
390
F
  0
LAYER
  5
20A
100
AcDbSymbolTableRecord
100
AcDbLayerTableRecord
  2
17_NO_PRINT
 70
0
 62
7
  6
CONTINUOUS
370
-3
390
F
  0
LAYER
  5
20B
100
AcDbSymbolTableRecord
100
AcDbLayerTableRecord
  2
18_DATUM_CAMS_JOINTS
 70
0
 62
7
  6
CONTINUOUS
370
-3
390
F
  0
LAYER
  5
20C
100
AcDbSymbolTableRecord
100
AcDbLayerTableRecord
  2
19_DATUM_FUNCTIONAL
 70
0
 62
7
  6
CONTINUOUS
370
-3
390
F
  0
LAYER
  5
20D
100
AcDbSymbolTableRecord
100
AcDbLayerTableRecord
  2
20_DATUM_KINEMATIC_SCHEME
 70
0
 62
7
  6
CONTINUOUS
370
-3
390
F
  0
ENDTAB
  0
TABLE
  2
STYLE
  5
3
100
AcDbSymbolTable
 70
1
  0
STYLE
  5
11
100
AcDbSymbolTableRecord
100
AcDbTextStyleTableRecord
  2
STANDARD
 70
0
 40
0.0
 41
1.0
 50
0.0
 71
0
 42
0.2
  3
ARIAL.TTF
  4

  0
STYLE
  5
20E
100
AcDbSymbolTableRecord
100
AcDbTextStyleTableRecord
  2
TEXTSTYLE_1
 70
0
 40
0.0
 41
0.8
 50
0.0
 71
0
 42
0.2
  3
gdt
  4

  0
ENDTAB
  0
TABLE
  2
VIEW
  5
6
100
AcDbSymbolTable
 70
0
  0
ENDTAB
  0
TABLE
  2
UCS
  5
7
100
AcDbSymbolTable
 70
0
  0
ENDTAB
  0
TABLE
  2
APPID
  5
9
100
AcDbSymbolTable
 70
1
  0
APPID
  5
20F
100
AcDbSymbolTableRecord
100
AcDbRegAppTableRecord
  2
ACAD
 70
0
  0
ENDTAB
  0
TABLE
  2
BLOCK_RECORD
  5
1
100
AcDbSymbolTable
 70
0
  0
BLOCK_RECORD
  5
210
100
AcDbSymbolTableRecord
100
AcDbBlockTableRecord
  2
*Model_Space
  0
BLOCK_RECORD
  5
211
100
AcDbSymbolTableRecord
100
AcDbBlockTableRecord
  2
*Paper_Space
  0
BLOCK_RECORD
  5
212
100
AcDbSymbolTableRecord
100
AcDbBlockTableRecord
  2
_FILLED
  0
ENDTAB
  0
TABLE
  2
DIMSTYLE
  5
A
100
AcDbSymbolTable
 70
1
100
AcDbDimStyleTable
 71
0
  0
DIMSTYLE
105
213
100
AcDbSymbolTableRecord
100
AcDbDimStyleTableRecord
  2
STANDARD
 70
0
  3

  4

 40
1.0
 41
1.1596091196
 42
1.0
 43
0.38
 44
1.0
 45
0.0
 46
0.0
 47
0.01
 48
0.01
140
1.6234527675
141
0.09
142
0.0
143
25.4
144
1.0
145
0.0
146
1.0
147
0.625
 71
1
 72
0
 73
0
 74
0
 75
0
 76
0
 77
1
 78
8
 79
2
170
0
171
1
172
0
173
0
174
0
175
0
176
0
177
0
178
0
270
2
179
2
271
2
272
2
273
2
274
2
275
0
280
0
281
0
282
0
283
1
284
8
285
0
286
0
287
3
288
0
340
11
278
46
341
212
342
212
343
212
344
212
  0
ENDTAB
  0
ENDSEC
  0
SECTION
  2
BLOCKS
  0
BLOCK
  5
20
100
AcDbEntity
  8
0
100
AcDbBlockBegin
  2
*Model_Space
 70
0
 10
0.0
 20
0.0
 30
0.0
  3
*Model_Space
  1

  0
ENDBLK
  5
21
100
AcDbEntity
  8
0
100
AcDbBlockEnd
  0
BLOCK
  5
1C
100
AcDbEntity
  8
0
100
AcDbBlockBegin
  2
*Paper_Space
 70
0
 10
0.0
 20
0.0
 30
0.0
  3
*Paper_Space
  1

  0
ENDBLK
  5
1D
100
AcDbEntity
  8
0
100
AcDbBlockEnd
  0
BLOCK
  5
214
100
AcDbEntity
  8
0
100
AcDbBlockBegin
  2
_FILLED
 70
64
 10
0.0
 20
0.0
  3
_FILLED
  1

  0
SOLID
  5
215
100
AcDbEntity
  8
0
  6
BYBLOCK
 62
0
100
AcDbTrace
 10
0.0
 20
0.0
 11
-1.0
 21
0.25
 12
-1.0
 22
-0.25
 13
-1.0
 23
-0.25
  0
ENDBLK
  5
216
100
AcDbEntity
  8
0
  6
BYBLOCK
 62
0
100
AcDbBlockEnd
  0
ENDSEC
  0
SECTION
  2
ENTITIES
  0
LINE
  5
217
100
AcDbEntity
  8
0
100
AcDbLine
 62
7
  6
BYLAYER
 10
32.0525334614
 20
11.2131505102
 11
61.5525334614
 21
11.2131505102
  0
LINE
  5
218
100
AcDbEntity
  8
0
100
AcDbLine
 62
7
  6
BYLAYER
 10
61.5525334614
 20
15.2131505102
 11
32.0525334614
 21
15.2131505102
  0
LINE
  5
219
100
AcDbEntity
  8
0
100
AcDbLine
 62
7
  6
BYLAYER
 10
61.5525334614
 20
18.6631505102
 11
68.0525334614
 21
18.6631505102
  0
LINE
  5
21A
100
AcDbEntity
  8
0
100
AcDbLine
 62
7
  6
BYLAYER
 10
61.5525334614
 20
21.893751264
 11
68.0525334614
 21
21.893751264
  0
LINE
  5
21B
100
AcDbEntity
  8
0
100
AcDbLine
 62
7
  6
BYLAYER
 10
46.1775337272
 20
126.6356497304
 11
46.427534275
 21
126.8856502362
  0
LINE
  5
21C
100
AcDbEntity
  8
0
100
AcDbLine
 62
7
  6
BYLAYER
 10
46.0775336434
 20
123.6631500802
 11
46.1775334614
 21
123.7631498794
  0
LINE
  5
21D
100
AcDbEntity
  8
0
100
AcDbLine
 62
7
  6
BYLAYER
 10
45.9525329638
 20
122.2131505988
 11
46.0775334614
 21
122.3381511371
  0
LINE
  5
21E
100
AcDbEntity
  8
0
100
AcDbLine
 62
7
  6
BYLAYER
 10
68.0525334614
 20
25.3982971569
 11
61.5525334614
 21
25.3982971569
  0
LINE
  5
21F
100
AcDbEntity
  8
0
100
AcDbLine
 62
7
  6
BYLAYER
 10
50.0275334614
 20
117.063151141
 11
50.1275332795
 21
117.1631509402
  0
LINE
  5
220
100
AcDbEntity
  8
0
100
AcDbLine
 62
7
  6
BYLAYER
 10
49.7775326478
 20
113.9406507842
 11
50.0275331957
 21
114.19065129
  0
LINE
  5
221
100
AcDbEntity
  8
0
100
AcDbLine
 62
7
  6
BYLAYER
 10
36.1025334614
 20
98.7131505102
 11
37.8946389049
 21
105.4013790779
  0
LINE
  5
222
100
AcDbEntity
  8
0
100
AcDbLine
 62
7
  6
BYLAYER
 10
32.0525334614
 20
11.2131505102
 11
32.0525334614
 21
83.7131505102
  0
LINE
  5
223
100
AcDbEntity
  8
0
100
AcDbLine
 62
7
  6
BYLAYER
 10
35.2535517313
 20
93.939297233
 11
35.1025334614
 21
92.2131505102
  0
LINE
  5
224
100
AcDbEntity
  8
0
100
AcDbLine
 62
7
  6
BYLAYER
 10
34.7159913835
 20
83.7131505102
 11
34.6025334616
 21
90.2131505034
  0
LINE
  5
225
100
AcDbEntity
  8
0
100
AcDbLine
 62
7
  6
BYLAYER
 10
35.3024297896
 20
90.2131505035
 11
35.3809775818
 21
85.7131505035
  0
LINE
  5
226
100
AcDbEntity
  8
0
100
AcDbLine
 62
7
  6
BYLAYER
 10
35.7766515553
 20
83.7131505102
 11
35.7417414254
 21
85.7131505102
  0
LINE
  5
227
100
AcDbEntity
  8
0
100
AcDbLine
 62
7
  6
BYLAYER
 10
34.6525334614
 20
90.2131505102
 11
34.6525334614
 21
93.2131505102
  0
LINE
  5
228
100
AcDbEntity
  8
0
100
AcDbLine
 62
7
  6
BYLAYER
 10
35.3525334614
 20
90.2131505102
 11
35.3525334614
 21
92.2131505102
  0
LINE
  5
229
100
AcDbEntity
  8
0
100
AcDbLine
 62
7
  6
BYLAYER
 10
36.1025334614
 20
94.2131505102
 11
36.1025334614
 21
98.7131505102
  0
LINE
  5
22A
100
AcDbEntity
  8
0
100
AcDbLine
 62
7
  6
BYLAYER
 10
37.710228616
 20
94.2131505102
 11
37.710228616
 21
98.71314514
  0
LINE
  5
22B
100
AcDbEntity
  8
0
100
AcDbLine
 62
7
  6
BYLAYER
 10
38.1025334614
 20
99.9749413956
 11
38.1025334614
 21
94.2131505102
  0
LINE
  5
22C
100
AcDbEntity
  8
0
100
AcDbLine
 62
7
  6
BYLAYER
 10
43.3240379143
 20
123.0416460573
 11
43.3238096707
 21
123.0399555617
  0
LINE
  5
22D
100
AcDbEntity
  8
0
100
AcDbLine
 62
7
  6
BYLAYER
 10
43.3238096707
 20
123.0399555617
 11
43.3219862734
 21
123.0264453593
  0
LINE
  5
22E
100
AcDbEntity
  8
0
100
AcDbLine
 62
7
  6
BYLAYER
 10
40.1025334614
 20
106.5131505102
 11
40.1025334614
 21
117.8131505102
  0
LINE
  5
22F
100
AcDbEntity
  8
0
100
AcDbLine
 62
7
  6
BYLAYER
 10
42.1025334614
 20
92.4131505102
 11
42.1025334614
 21
99.9749480636
  0
LINE
  5
230
100
AcDbEntity
  8
0
100
AcDbLine
 62
7
  6
BYLAYER
 10
40.9515151916
 20
93.939297233
 11
41.1025334614
 21
92.2131505102
  0
LINE
  5
231
100
AcDbEntity
  8
0
100
AcDbLine
 62
7
  6
BYLAYER
 10
43.7525334614
 20
119.5258744491
 11
43.7525334614
 21
121.300576486
  0
LINE
  5
232
100
AcDbEntity
  8
0
100
AcDbLine
 62
7
  6
BYLAYER
 10
45.9525334614
 20
108.0131505102
 11
45.9525334614
 21
125.0147066163
  0
LINE
  5
233
100
AcDbEntity
  8
0
100
AcDbLine
 62
7
  6
BYLAYER
 10
46.0775334614
 20
117.1631509402
 11
46.0775334614
 21
123.6631500802
  0
LINE
  5
234
100
AcDbEntity
  8
0
100
AcDbLine
 62
7
  6
BYLAYER
 10
46.1775334614
 20
114.19065129
 11
46.1775334614
 21
126.6356497304
  0
LINE
  5
235
100
AcDbEntity
  8
0
100
AcDbLine
 62
7
  6
BYLAYER
 10
46.427534275
 20
113.9406505102
 11
46.427534275
 21
126.8856505102
  0
LINE
  5
236
100
AcDbEntity
  8
0
100
AcDbLine
 62
7
  6
BYLAYER
 10
49.7775326478
 20
126.8856505102
 11
49.7775326478
 21
113.9406505102
  0
LINE
  5
237
100
AcDbEntity
  8
0
100
AcDbLine
 62
7
  6
BYLAYER
 10
50.0275334614
 20
126.6356497304
 11
50.0275334614
 21
114.19065129
  0
LINE
  5
238
100
AcDbEntity
  8
0
100
AcDbLine
 62
7
  6
BYLAYER
 10
50.1275334614
 20
123.6631500802
 11
50.1275334614
 21
117.1631509402
  0
LINE
  5
239
100
AcDbEntity
  8
0
100
AcDbLine
 62
7
  6
BYLAYER
 10
50.2525334614
 20
108.0131505102
 11
50.2525334614
 21
125.0147066163
  0
LINE
  5
23A
100
AcDbEntity
  8
0
100
AcDbLine
 62
7
  6
BYLAYER
 10
61.5525334614
 20
67.315585293
 11
68.0525334614
 21
67.315585293
  0
LINE
  5
23B
100
AcDbEntity
  8
0
100
AcDbLine
 62
7
  6
BYLAYER
 10
54.1025334614
 20
92.4131505102
 11
54.1025334614
 21
99.9749413916
  0
LINE
  5
23C
100
AcDbEntity
  8
0
100
AcDbLine
 62
7
  6
BYLAYER
 10
55.2535517313
 20
93.939297233
 11
55.1025334614
 21
92.2131505102
  0
LINE
  5
23D
100
AcDbEntity
  8
0
100
AcDbLine
 62
7
  6
BYLAYER
 10
61.5525334614
 20
70.988185168
 11
68.0525334614
 21
70.988185168
  0
LINE
  5
23E
100
AcDbEntity
  8
0
100
AcDbLine
 62
7
  6
BYLAYER
 10
56.1025334614
 20
117.8131505102
 11
56.1025334614
 21
106.5131505102
  0
LINE
  5
23F
100
AcDbEntity
  8
0
100
AcDbLine
 62
7
  6
BYLAYER
 10
58.1025334614
 20
94.2131505102
 11
58.1025334614
 21
99.9749480665
  0
LINE
  5
240
100
AcDbEntity
  8
0
100
AcDbLine
 62
7
  6
BYLAYER
 10
58.4948383068
 20
98.7131518297
 11
58.4948383068
 21
94.2131505102
  0
LINE
  5
241
100
AcDbEntity
  8
0
100
AcDbLine
 62
7
  6
BYLAYER
 10
68.0525334614
 20
74.1378859856
 11
61.5525334614
 21
74.1378859856
  0
LINE
  5
242
100
AcDbEntity
  8
0
100
AcDbLine
 62
7
  6
BYLAYER
 10
60.1025334614
 20
98.7131505102
 11
60.1025334614
 21
94.2131505102
  0
LINE
  5
243
100
AcDbEntity
  8
0
100
AcDbLine
 62
7
  6
BYLAYER
 10
60.8525334614
 20
92.2131505102
 11
60.8525334614
 21
90.2131505102
  0
LINE
  5
244
100
AcDbEntity
  8
0
100
AcDbLine
 62
7
  6
BYLAYER
 10
61.5525334614
 20
11.2131505102
 11
61.5525334614
 21
83.7131505102
  0
LINE
  5
245
100
AcDbEntity
  8
0
100
AcDbLine
 62
7
  6
BYLAYER
 10
61.5525334614
 20
90.2131505102
 11
61.5525334614
 21
93.2131505102
  0
LINE
  5
246
100
AcDbEntity
  8
0
100
AcDbLine
 62
7
  6
BYLAYER
 10
60.4284153676
 20
83.7131505102
 11
60.4633254975
 21
85.7131505102
  0
LINE
  5
247
100
AcDbEntity
  8
0
100
AcDbLine
 62
7
  6
BYLAYER
 10
60.8240886117
 20
85.7131505018
 11
60.9026364039
 21
90.2131505018
  0
LINE
  5
248
100
AcDbEntity
  8
0
100
AcDbLine
 62
7
  6
BYLAYER
 10
61.4890755394
 20
83.7131505102
 11
61.6025334613
 21
90.2131505018
  0
LINE
  5
249
100
AcDbEntity
  8
0
100
AcDbLine
 62
7
  6
BYLAYER
 10
32.0525334614
 20
79.7131505102
 11
61.5525334614
 21
79.7131505102
  0
LINE
  5
24A
100
AcDbEntity
  8
0
100
AcDbLine
 62
7
  6
BYLAYER
 10
52.865242216
 20
123.0264458181
 11
52.8593733132
 21
123.069990362
  0
LINE
  5
24B
100
AcDbEntity
  8
0
100
AcDbLine
 62
7
  6
BYLAYER
 10
60.9515151916
 20
93.939297233
 11
61.1025334614
 21
92.2131505102
  0
LINE
  5
24C
100
AcDbEntity
  8
0
100
AcDbLine
 62
7
  6
BYLAYER
 10
61.5525334614
 20
83.7131505102
 11
32.0525334614
 21
83.7131505102
  0
LINE
  5
24D
100
AcDbEntity
  8
0
100
AcDbLine
 62
7
  6
BYLAYER
 10
34.6810812537
 20
85.7131505102
 11
35.7417414254
 21
85.7131505102
  0
LINE
  5
24E
100
AcDbEntity
  8
0
100
AcDbLine
 62
7
  6
BYLAYER
 10
60.4633254975
 20
85.7131505102
 11
61.5239856691
 21
85.7131505102
  0
LINE
  5
24F
100
AcDbEntity
  8
0
100
AcDbLine
 62
7
  6
BYLAYER
 10
68.0525334614
 20
74.1378859856
 11
68.0525334614
 21
18.6631505102
  0
LINE
  5
250
100
AcDbEntity
  8
0
100
AcDbLine
 62
7
  6
BYLAYER
 10
58.3104280179
 20
105.4013790779
 11
60.1025334614
 21
98.7131505102
  0
LINE
  5
251
100
AcDbEntity
  8
0
100
AcDbLine
 62
7
  6
BYLAYER
 10
34.6025334616
 20
90.2131505102
 11
61.6025334613
 21
90.2131505102
  0
LINE
  5
252
100
AcDbEntity
  8
0
100
AcDbLine
 62
7
  6
BYLAYER
 10
34.6525334614
 20
92.2131505102
 11
41.9025334614
 21
92.2131505102
  0
LINE
  5
253
100
AcDbEntity
  8
0
100
AcDbLine
 62
7
  6
BYLAYER
 10
54.3025334614
 20
92.2131505102
 11
61.5525334614
 21
92.2131505102
  0
LINE
  5
254
100
AcDbEntity
  8
0
100
AcDbLine
 62
7
  6
BYLAYER
 10
61.5525334614
 20
92.4131505102
 11
61.0850357287
 21
92.4131505102
  0
LINE
  5
255
100
AcDbEntity
  8
0
100
AcDbLine
 62
7
  6
BYLAYER
 10
55.1200311941
 20
92.4131505102
 11
54.1025334614
 21
92.4131505102
  0
LINE
  5
256
100
AcDbEntity
  8
0
100
AcDbLine
 62
7
  6
BYLAYER
 10
42.1025334614
 20
92.4131505102
 11
41.0850357287
 21
92.4131505102
  0
LINE
  5
257
100
AcDbEntity
  8
0
100
AcDbLine
 62
7
  6
BYLAYER
 10
35.1200311941
 20
92.4131505102
 11
34.6525334614
 21
92.4131505102
  0
LINE
  5
258
100
AcDbEntity
  8
0
100
AcDbLine
 62
7
  6
BYLAYER
 10
42.1025334614
 20
93.2131505102
 11
54.1025334614
 21
93.2131505102
  0
LINE
  5
259
100
AcDbEntity
  8
0
100
AcDbLine
 62
7
  6
BYLAYER
 10
35.7763943544
 20
93.4131505102
 11
36.3791122648
 21
93.4131505102
  0
LINE
  5
25A
100
AcDbEntity
  8
0
100
AcDbLine
 62
7
  6
BYLAYER
 10
55.7763943544
 20
93.4131505102
 11
56.3791122648
 21
93.4131505102
  0
LINE
  5
25B
100
AcDbEntity
  8
0
100
AcDbLine
 62
7
  6
BYLAYER
 10
61.0525334614
 20
93.7131505102
 11
60.9713004661
 21
93.7131505102
  0
LINE
  5
25C
100
AcDbEntity
  8
0
100
AcDbLine
 62
7
  6
BYLAYER
 10
54.1025334614
 20
93.7131505102
 11
42.1025334614
 21
93.7131505102
  0
LINE
  5
25D
100
AcDbEntity
  8
0
100
AcDbLine
 62
7
  6
BYLAYER
 10
35.1525334614
 20
93.7131505102
 11
35.2337664567
 21
93.7131505102
  0
LINE
  5
25E
100
AcDbEntity
  8
0
100
AcDbLine
 62
7
  6
BYLAYER
 10
54.1025334614
 20
93.9131505102
 11
42.1025334614
 21
93.9131505102
  0
LINE
  5
25F
100
AcDbEntity
  8
0
100
AcDbLine
 62
7
  6
BYLAYER
 10
35.2535517313
 20
93.939297233
 11
35.8010643193
 21
93.939297233
  0
LINE
  5
260
100
AcDbEntity
  8
0
100
AcDbLine
 62
7
  6
BYLAYER
 10
36.4232667505
 20
93.939297233
 11
40.9515151916
 21
93.939297233
  0
LINE
  5
261
100
AcDbEntity
  8
0
100
AcDbLine
 62
7
  6
BYLAYER
 10
55.2535517313
 20
93.939297233
 11
55.8010643193
 21
93.939297233
  0
LINE
  5
262
100
AcDbEntity
  8
0
100
AcDbLine
 62
7
  6
BYLAYER
 10
56.4232667505
 20
93.939297233
 11
60.9515151916
 21
93.939297233
  0
LINE
  5
263
100
AcDbEntity
  8
0
100
AcDbLine
 62
7
  6
BYLAYER
 10
35.5524424726
 20
94.2131505102
 11
40.6526244503
 21
94.2131505102
  0
LINE
  5
264
100
AcDbEntity
  8
0
100
AcDbLine
 62
7
  6
BYLAYER
 10
55.5524424726
 20
94.2131505102
 11
60.6526244503
 21
94.2131505102
  0
LINE
  5
265
100
AcDbEntity
  8
0
100
AcDbLine
 62
7
  6
BYLAYER
 10
36.1025334614
 20
98.7131505102
 11
37.710228616
 21
98.7131505102
  0
LINE
  5
266
100
AcDbEntity
  8
0
100
AcDbLine
 62
7
  6
BYLAYER
 10
42.1025334614
 20
98.7131505102
 11
54.1025334614
 21
98.7131505102
  0
LINE
  5
267
100
AcDbEntity
  8
0
100
AcDbLine
 62
7
  6
BYLAYER
 10
58.4948383068
 20
98.7131505102
 11
60.1025334614
 21
98.7131505102
  0
LINE
  5
268
100
AcDbEntity
  8
0
100
AcDbLine
 62
7
  6
BYLAYER
 10
46.427534275
 20
113.9406507842
 11
46.1775337272
 21
114.19065129
  0
LINE
  5
269
100
AcDbEntity
  8
0
100
AcDbLine
 62
7
  6
BYLAYER
 10
46.1775334614
 20
117.063151141
 11
46.0775336434
 21
117.1631509402
  0
LINE
  5
26A
100
AcDbEntity
  8
0
100
AcDbLine
 62
7
  6
BYLAYER
 10
46.0775334614
 20
118.4881498833
 11
45.9525329638
 21
118.6131504216
  0
LINE
  5
26B
100
AcDbEntity
  8
0
100
AcDbLine
 62
7
  6
BYLAYER
 10
37.8946389049
 20
105.4013790779
 11
40.4637657803
 21
105.4013790779
  0
LINE
  5
26C
100
AcDbEntity
  8
0
100
AcDbLine
 62
7
  6
BYLAYER
 10
41.3312455787
 20
105.4013790779
 11
54.8738213442
 21
105.4013790779
  0
LINE
  5
26D
100
AcDbEntity
  8
0
100
AcDbLine
 62
7
  6
BYLAYER
 10
55.7413011425
 20
105.4013790779
 11
58.3104280179
 21
105.4013790779
  0
LINE
  5
26E
100
AcDbEntity
  8
0
100
AcDbLine
 62
7
  6
BYLAYER
 10
56.8615244916
 20
106.5131505102
 11
39.3435424313
 21
106.5131505102
  0
LINE
  5
26F
100
AcDbEntity
  8
0
100
AcDbLine
 62
7
  6
BYLAYER
 10
45.9525334614
 20
108.0131505102
 11
50.2525334614
 21
108.0131505102
  0
LINE
  5
270
100
AcDbEntity
  8
0
100
AcDbLine
 62
7
  6
BYLAYER
 10
50.1275332795
 20
123.6631500802
 11
50.0275334614
 21
123.7631498794
  0
LINE
  5
271
100
AcDbEntity
  8
0
100
AcDbLine
 62
7
  6
BYLAYER
 10
50.0275331957
 20
126.6356497304
 11
49.7775326478
 21
126.8856502362
  0
LINE
  5
272
100
AcDbEntity
  8
0
100
AcDbLine
 62
7
  6
BYLAYER
 10
45.9525334614
 20
113.4131505102
 11
50.2525334614
 21
113.4131505102
  0
LINE
  5
273
100
AcDbEntity
  8
0
100
AcDbLine
 62
7
  6
BYLAYER
 10
46.427534549
 20
113.9406505102
 11
49.7775323739
 21
113.9406505102
  0
LINE
  5
274
100
AcDbEntity
  8
0
100
AcDbLine
 62
7
  6
BYLAYER
 10
40.1025334614
 20
117.8131505102
 11
45.9525334614
 21
117.8131505102
  0
LINE
  5
275
100
AcDbEntity
  8
0
100
AcDbLine
 62
7
  6
BYLAYER
 10
50.2525334614
 20
117.8131505102
 11
56.1025334614
 21
117.8131505102
  0
LINE
  5
276
100
AcDbEntity
  8
0
100
AcDbLine
 62
7
  6
BYLAYER
 10
40.3026418058
 20
118.0131505102
 11
45.9525338742
 21
118.0131505102
  0
LINE
  5
277
100
AcDbEntity
  8
0
100
AcDbLine
 62
7
  6
BYLAYER
 10
50.2525331024
 20
118.0131505102
 11
55.902425117
 21
118.0131505102
  0
LINE
  5
278
100
AcDbEntity
  8
0
100
AcDbLine
 62
7
  6
BYLAYER
 10
50.2525334614
 20
118.4131505102
 11
50.1275334614
 21
118.4131505102
  0
LINE
  5
279
100
AcDbEntity
  8
0
100
AcDbLine
 62
7
  6
BYLAYER
 10
50.2525334614
 20
122.4131505102
 11
50.1275334614
 21
122.4131505102
  0
LINE
  5
27A
100
AcDbEntity
  8
0
100
AcDbLine
 62
7
  6
BYLAYER
 10
43.3219862542
 20
123.0264454055
 11
45.9525334614
 21
123.0264454055
  0
LINE
  5
27B
100
AcDbEntity
  8
0
100
AcDbLine
 62
7
  6
BYLAYER
 10
50.2525334614
 20
123.0264454055
 11
52.8652420555
 21
123.0264454055
  0
LINE
  5
27C
100
AcDbEntity
  8
0
100
AcDbLine
 62
7
  6
BYLAYER
 10
46.427534549
 20
126.8856505102
 11
49.7775323739
 21
126.8856505102
  0
ARC
  5
27D
100
AcDbEntity
  8
0
100
AcDbCircle
 62
7
  6
BYLAYER
 10
-391.1756200502
 20
-40.4019272338
 40
470.697914104
100
AcDbArc
 50
17.1905602711
 51
17.3514049524
  0
ARC
  5
27E
100
AcDbEntity
  8
0
100
AcDbCircle
 62
7
  6
BYLAYER
 10
487.3768009423
 20
-40.4007236129
 40
470.6938439656
100
AcDbArc
 50
162.6485945948
 51
162.8094406691
  0
ARC
  5
27F
100
AcDbEntity
  8
0
100
AcDbCircle
 62
7
  6
BYLAYER
 10
36.4789024828
 20
120.3090574053
 40
7.3432447903
100
AcDbArc
 50
7.8693310252
 51
10.974838322
  0
ARC
  5
280
100
AcDbEntity
  8
0
100
AcDbCircle
 62
7
  6
BYLAYER
 10
36.5809403462
 20
120.5003294914
 40
7.2398524946
100
AcDbArc
 50
349.014187687
 51
352.1470278864
  0
ARC
  5
281
100
AcDbEntity
  8
0
100
AcDbCircle
 62
7
  6
BYLAYER
 10
48.1025334614
 20
119.4131505102
 40
6.0
100
AcDbArc
 50
110.9978755459
 51
142.7891989169
  0
ARC
  5
282
100
AcDbEntity
  8
0
100
AcDbCircle
 62
7
  6
BYLAYER
 10
48.1025334614
 20
119.4131505102
 40
6.0
100
AcDbArc
 50
37.5514272837
 51
69.0021244541
  0
ARC
  5
283
100
AcDbEntity
  8
0
100
AcDbCircle
 62
7
  6
BYLAYER
 10
39.3435276444
 20
105.0131505102
 40
1.5
100
AcDbArc
 50
90.0
 51
165.0
  0
ARC
  5
284
100
AcDbEntity
  8
0
100
AcDbCircle
 62
7
  6
BYLAYER
 10
56.8615392785
 20
105.0131505102
 40
1.5
100
AcDbArc
 50
15.0
 51
90.0
  0
ARC
  5
285
100
AcDbEntity
  8
0
100
AcDbCircle
 62
7
  6
BYLAYER
 10
61.0525334614
 20
93.2131505102
 40
0.5
100
AcDbArc
 50
0.0
 51
90.0
  0
ARC
  5
286
100
AcDbEntity
  8
0
100
AcDbCircle
 62
7
  6
BYLAYER
 10
35.1525334614
 20
93.2131505102
 40
0.5
100
AcDbArc
 50
90.0
 51
180.0
  0
ARC
  5
287
100
AcDbEntity
  8
0
100
AcDbCircle
 62
7
  6
BYLAYER
 10
40.6526567822
 20
93.9131505102
 40
0.3
100
AcDbArc
 50
5.0
 51
90.0
  0
ARC
  5
288
100
AcDbEntity
  8
0
100
AcDbCircle
 62
7
  6
BYLAYER
 10
35.5524101407
 20
93.9131505102
 40
0.3
100
AcDbArc
 50
90.0
 51
175.0
  0
ARC
  5
289
100
AcDbEntity
  8
0
100
AcDbCircle
 62
7
  6
BYLAYER
 10
60.6526567822
 20
93.9131505102
 40
0.3
100
AcDbArc
 50
5.0
 51
90.0
  0
ARC
  5
28A
100
AcDbEntity
  8
0
100
AcDbCircle
 62
7
  6
BYLAYER
 10
55.5524101407
 20
93.9131505102
 40
0.3
100
AcDbArc
 50
90.0
 51
175.0
  0
ARC
  5
28B
100
AcDbEntity
  8
0
100
AcDbCircle
 62
7
  6
BYLAYER
 10
40.3025334614
 20
117.8131505102
 40
0.2
100
AcDbArc
 50
90.0
 51
180.0
  0
ARC
  5
28C
100
AcDbEntity
  8
0
100
AcDbCircle
 62
7
  6
BYLAYER
 10
55.9025334614
 20
117.8131505102
 40
0.2
100
AcDbArc
 50
0.0
 51
90.0
  0
ARC
  5
28D
100
AcDbEntity
  8
0
100
AcDbCircle
 62
7
  6
BYLAYER
 10
54.3025334614
 20
92.4131505102
 40
0.2
100
AcDbArc
 50
180.0
 51
270.0
  0
ARC
  5
28E
100
AcDbEntity
  8
0
100
AcDbCircle
 62
7
  6
BYLAYER
 10
41.9025334614
 20
92.4131505102
 40
0.2
100
AcDbArc
 50
270.0
 51
360.0
  0
LINE
  5
28F
100
AcDbEntity
  8
0
100
AcDbLine
 62
7
  6
BYLAYER
 10
36.4232667505
 20
93.939297233
 11
36.3791122648
 21
93.4131505102
  0
SPLINE
  5
290
100
AcDbEntity
  8
0
100
AcDbSpline
 62
7
  6
BYLAYER
 70
0
 71
3
 72
13
 73
9
 74
0
 42
0.0000001
 43
0.0000001
 44
0.0000000001
 40
0.0
 40
0.0
 40
0.0
 40
0.0
 40
0.286957937
 40
0.5521347427
 40
0.6737665323
 40
0.7878294463
 40
0.8957946204
 40
1.0
 40
1.0
 40
1.0
 40
1.0
 10
36.4232667505
 20
93.939297233
 30
0.0
 10
36.4263324334
 20
93.9757824472
 30
0.0
 10
36.4413829681
 20
94.0455694274
 30
0.0
 10
36.4830697279
 20
94.1225561035
 30
0.0
 10
36.527602627
 20
94.1688865296
 30
0.0
 10
36.5639347995
 20
94.1940367072
 30
0.0
 10
36.602948908
 20
94.2095895535
 30
0.0
 10
36.6301349849
 20
94.2131505102
 30
0.0
 10
36.6434308478
 20
94.2131505102
 30
0.0
  0
SPLINE
  5
291
100
AcDbEntity
  8
0
100
AcDbSpline
 62
7
  6
BYLAYER
 70
0
 71
3
 72
13
 73
9
 74
0
 42
0.0000001
 43
0.0000001
 44
0.0000000001
 40
0.0
 40
0.0
 40
0.0
 40
0.0
 40
0.2884065275
 40
0.5527199536
 40
0.6736070992
 40
0.7870920439
 40
0.8950076007
 40
1.0
 40
1.0
 40
1.0
 40
1.0
 10
35.8010643193
 20
93.939297233
 30
0.0
 10
35.8027706297
 20
93.9756072229
 30
0.0
 10
35.8150810767
 20
94.0451445009
 30
0.0
 10
35.8540100102
 20
94.1224643221
 30
0.0
 10
35.8969137541
 20
94.1689128477
 30
0.0
 10
35.9323850562
 20
94.1940941036
 30
0.0
 10
35.9708983453
 20
94.2096324451
 30
0.0
 10
35.9978539615
 20
94.2131505102
 30
0.0
 10
36.0110869491
 20
94.2131505102
 30
0.0
  0
LINE
  5
292
100
AcDbEntity
  8
0
100
AcDbLine
 62
7
  6
BYLAYER
 10
35.7763943544
 20
93.4131505102
 11
35.8010643193
 21
93.939297233
  0
LINE
  5
293
100
AcDbEntity
  8
0
100
AcDbLine
 62
7
  6
BYLAYER
 10
56.4232667505
 20
93.939297233
 11
56.3791122648
 21
93.4131505102
  0
SPLINE
  5
294
100
AcDbEntity
  8
0
100
AcDbSpline
 62
7
  6
BYLAYER
 70
0
 71
3
 72
13
 73
9
 74
0
 42
0.0000001
 43
0.0000001
 44
0.0000000001
 40
0.0
 40
0.0
 40
0.0
 40
0.0
 40
0.286957937
 40
0.5521347427
 40
0.6737665323
 40
0.7878294463
 40
0.8957946204
 40
1.0
 40
1.0
 40
1.0
 40
1.0
 10
56.4232667505
 20
93.939297233
 30
0.0
 10
56.4263324334
 20
93.9757824472
 30
0.0
 10
56.4413829681
 20
94.0455694274
 30
0.0
 10
56.4830697279
 20
94.1225561035
 30
0.0
 10
56.527602627
 20
94.1688865296
 30
0.0
 10
56.5639347995
 20
94.1940367072
 30
0.0
 10
56.602948908
 20
94.2095895535
 30
0.0
 10
56.6301349849
 20
94.2131505102
 30
0.0
 10
56.6434308478
 20
94.2131505102
 30
0.0
  0
SPLINE
  5
295
100
AcDbEntity
  8
0
100
AcDbSpline
 62
7
  6
BYLAYER
 70
0
 71
3
 72
13
 73
9
 74
0
 42
0.0000001
 43
0.0000001
 44
0.0000000001
 40
0.0
 40
0.0
 40
0.0
 40
0.0
 40
0.2884065275
 40
0.5527199536
 40
0.6736070992
 40
0.7870920439
 40
0.8950076007
 40
1.0
 40
1.0
 40
1.0
 40
1.0
 10
55.8010643193
 20
93.939297233
 30
0.0
 10
55.8027706297
 20
93.9756072229
 30
0.0
 10
55.8150810767
 20
94.0451445009
 30
0.0
 10
55.8540100102
 20
94.1224643221
 30
0.0
 10
55.8969137541
 20
94.1689128477
 30
0.0
 10
55.9323850562
 20
94.1940941036
 30
0.0
 10
55.9708983453
 20
94.2096324451
 30
0.0
 10
55.9978539615
 20
94.2131505102
 30
0.0
 10
56.0110869491
 20
94.2131505102
 30
0.0
  0
LINE
  5
296
100
AcDbEntity
  8
0
100
AcDbLine
 62
7
  6
BYLAYER
 10
55.7763943544
 20
93.4131505102
 11
55.8010643193
 21
93.939297233
  0
SPLINE
  5
297
100
AcDbEntity
  8
0
100
AcDbSpline
 62
7
  6
BYLAYER
 70
0
 71
3
 72
9
 73
5
 74
0
 42
0.0000001
 43
0.0000001
 44
0.0000000001
 40
0.0
 40
0.0
 40
0.0
 40
0.0
 40
0.1321762669
 40
1.0
 40
1.0
 40
1.0
 40
1.0
 10
43.3219862542
 20
123.0264454055
 30
0.0
 10
43.3420527765
 20
122.9695383308
 30
0.0
 10
43.4905360078
 20
122.5379073733
 30
0.0
 10
43.6124973932
 20
122.095998301
 30
0.0
 10
43.6878458125
 20
121.7070488642
 30
0.0
  0
SPLINE
  5
298
100
AcDbEntity
  8
0
100
AcDbSpline
 62
7
  6
BYLAYER
 70
0
 71
3
 72
9
 73
5
 74
0
 42
0.0000001
 43
0.0000001
 44
0.0000000001
 40
0.0
 40
0.0
 40
0.0
 40
0.0
 40
0.5000083841
 40
1.0
 40
1.0
 40
1.0
 40
1.0
 10
43.7529951431
 20
121.3144528592
 30
0.0
 10
43.7940669966
 20
121.0159828767
 30
0.0
 10
43.8371899626
 20
120.4127859103
 30
0.0
 10
43.7940060171
 20
119.8095922784
 30
0.0
 10
43.7528970906
 20
119.5111375989
 30
0.0
  0
SPLINE
  5
299
100
AcDbEntity
  8
0
100
AcDbSpline
 62
7
  6
BYLAYER
 70
0
 71
3
 72
9
 73
5
 74
0
 42
0.0000001
 43
0.0000001
 44
0.0000000001
 40
0.0
 40
0.0
 40
0.0
 40
0.0
 40
0.2950583171
 40
1.0
 40
1.0
 40
1.0
 40
1.0
 10
43.6881182131
 20
119.1206603605
 30
0.0
 10
43.666546398
 20
119.0091858171
 30
0.0
 10
43.5849908661
 20
118.6330070912
 30
0.0
 10
43.4775370137
 20
118.262830833
 30
0.0
 10
43.3922532587
 20
118.0053140801
 30
0.0
  0
SPLINE
  5
29A
100
AcDbEntity
  8
0
100
AcDbSpline
 62
7
  6
BYLAYER
 70
0
 71
3
 72
14
 73
10
 74
0
 42
0.0000001
 43
0.0000001
 44
0.0000000001
 40
0.0
 40
0.0
 40
0.0
 40
0.0
 40
0.1029558863
 40
0.2331179671
 40
0.3779115774
 40
0.5283086841
 40
0.675915139
 40
0.8120927673
 40
1.0
 40
1.0
 40
1.0
 40
1.0
 10
52.7928561894
 20
118.0121508594
 30
0.0
 10
52.7378431748
 20
118.1789703633
 30
0.0
 10
52.6224031381
 20
118.5597845055
 30
0.0
 10
52.4759662834
 20
119.1884009763
 30
0.0
 10
52.3778256538
 20
119.908843488
 30
0.0
 10
52.3625247031
 20
120.6660130986
 30
0.0
 10
52.4356648685
 20
121.4047958559
 30
0.0
 10
52.5962849378
 20
122.1943847428
 30
0.0
 10
52.758811029
 20
122.7240327687
 30
0.0
 10
52.8652420555
 20
123.0264454055
 30
0.0
  0
SPLINE
  5
29B
100
AcDbEntity
  8
0
100
AcDbSpline
 62
7
  6
BYLAYER
 70
0
 71
3
 72
19
 73
15
 74
0
 42
0.0000001
 43
0.0000001
 44
0.0000000001
 40
0.0
 40
0.0
 40
0.0
 40
0.0
 40
0.0286105673
 40
0.0579856587
 40
0.118185182
 40
0.1795707631
 40
0.241643723
 40
0.3041462537
 40
0.3669329376
 40
0.4930317484
 40
0.6195439618
 40
0.7462742149
 40
0.8731147772
 40
1.0
 40
1.0
 40
1.0
 40
1.0
 10
40.4637657803
 20
105.4013790779
 30
0.0
 10
40.4232647045
 20
105.3615951207
 30
0.0
 10
40.3453626121
 20
105.276670368
 30
0.0
 10
40.199827699
 20
105.0926160607
 30
0.0
 10
40.0334660795
 20
104.8429824429
 30
0.0
 10
39.8516267753
 20
104.5270034909
 30
0.0
 10
39.6822811181
 20
104.1990380847
 30
0.0
 10
39.5227850414
 20
103.8631486189
 30
0.0
 10
39.3204724917
 20
103.4071382285
 30
0.0
 10
39.0842033804
 20
102.8274532732
 30
0.0
 10
38.8196184451
 20
102.1226889331
 30
0.0
 10
38.5693333059
 20
101.4111776353
 30
0.0
 10
38.3305013349
 20
100.694980286
 30
0.0
 10
38.1776287635
 20
100.215263242
 30
0.0
 10
38.1025334614
 20
99.9749427449
 30
0.0
  0
SPLINE
  5
29C
100
AcDbEntity
  8
0
100
AcDbSpline
 62
7
  6
BYLAYER
 70
0
 71
3
 72
14
 73
10
 74
0
 42
0.0000001
 43
0.0000001
 44
0.0000000001
 40
0.0
 40
0.0
 40
0.0
 40
0.0
 40
0.1240160102
 40
0.2403835936
 40
0.3549048778
 40
0.4716572292
 40
0.5932416356
 40
0.7213192387
 40
1.0
 40
1.0
 40
1.0
 40
1.0
 10
54.8738213442
 20
105.4013790779
 30
0.0
 10
54.8979060822
 20
105.4337290529
 30
0.0
 10
54.9525876793
 20
105.4910399091
 30
0.0
 10
55.0520390817
 20
105.5518742935
 30
0.0
 10
55.1606977175
 20
105.5864937266
 30
0.0
 10
55.2756947141
 20
105.5973810349
 30
0.0
 10
55.3950233536
 20
105.5855853273
 30
0.0
 10
55.5606951164
 20
105.5380565699
 30
0.0
 10
55.6766466572
 20
105.4648887803
 30
0.0
 10
55.7413011425
 20
105.4013790779
 30
0.0
  0
SPLINE
  5
29D
100
AcDbEntity
  8
0
100
AcDbSpline
 62
7
  6
BYLAYER
 70
0
 71
3
 72
14
 73
10
 74
0
 42
0.0000001
 43
0.0000001
 44
0.0000000001
 40
0.0
 40
0.0
 40
0.0
 40
0.0
 40
0.2786808997
 40
0.4067586443
 40
0.5283430171
 40
0.6450953933
 40
0.7596165414
 40
0.8759842424
 40
1.0
 40
1.0
 40
1.0
 40
1.0
 10
40.4637657803
 20
105.4013790779
 30
0.0
 10
40.5284202976
 20
105.4648888116
 30
0.0
 10
40.6443719311
 20
105.5380566311
 30
0.0
 10
40.8100437782
 20
105.585585393
 30
0.0
 10
40.9293724697
 20
105.5973810367
 30
0.0
 10
41.0443694097
 20
105.5864936609
 30
0.0
 10
41.1530280406
 20
105.5518742122
 30
0.0
 10
41.2524793321
 20
105.4910398094
 30
0.0
 10
41.3071608898
 20
105.433728987
 30
0.0
 10
41.3312455787
 20
105.4013790779
 30
0.0
  0
SPLINE
  5
29E
100
AcDbEntity
  8
0
100
AcDbSpline
 62
7
  6
BYLAYER
 70
0
 71
3
 72
19
 73
15
 74
0
 42
0.0000001
 43
0.0000001
 44
0.0000000001
 40
0.0
 40
0.0
 40
0.0
 40
0.0
 40
0.0269587697
 40
0.0548379608
 40
0.1126069523
 40
0.1722673283
 40
0.2331930403
 40
0.2950160944
 40
0.3575071977
 40
0.4839272812
 40
0.6117173662
 40
0.740472918
 40
0.869952159
 40
1.0
 40
1.0
 40
1.0
 40
1.0
 10
54.8738213442
 20
105.4013790779
 30
0.0
 10
54.8441260638
 20
105.3614931727
 30
0.0
 10
54.7892782361
 20
105.2761791475
 30
0.0
 10
54.6940395908
 20
105.0913863623
 30
0.0
 10
54.596609293
 20
104.8410102026
 30
0.0
 10
54.5030515793
 20
104.5254240663
 30
0.0
 10
54.4259905034
 20
104.1977585037
 30
0.0
 10
54.3617527849
 20
103.8620989083
 30
0.0
 10
54.2896582952
 20
103.4052031957
 30
0.0
 10
54.2212270996
 20
102.8248449837
 30
0.0
 10
54.1643181224
 20
102.1206444487
 30
0.0
 10
54.127268405
 20
101.409493681
 30
0.0
 10
54.1067227156
 20
100.6935386222
 30
0.0
 10
54.1025334614
 20
100.2148196094
 30
0.0
 10
54.1025334614
 20
99.9749427449
 30
0.0
  0
SPLINE
  5
29F
100
AcDbEntity
  8
0
100
AcDbSpline
 62
7
  6
BYLAYER
 70
0
 71
3
 72
19
 73
15
 74
0
 42
0.0000001
 43
0.0000001
 44
0.0000000001
 40
0.0
 40
0.0
 40
0.0
 40
0.0
 40
0.0286105671
 40
0.0579856581
 40
0.11818519
 40
0.1795707757
 40
0.2416437404
 40
0.3041462713
 40
0.3669329551
 40
0.493031765
 40
0.6195439738
 40
0.746274223
 40
0.873114781
 40
1.0
 40
1.0
 40
1.0
 40
1.0
 10
55.7413011425
 20
105.4013790779
 30
0.0
 10
55.7818022182
 20
105.3615951209
 30
0.0
 10
55.85970431
 20
105.2766703694
 30
0.0
 10
56.0052392318
 20
105.0926160486
 30
0.0
 10
56.1716008574
 20
104.8429824049
 30
0.0
 10
56.3534402052
 20
104.5270034366
 30
0.0
 10
56.5227858578
 20
104.1990380057
 30
0.0
 10
56.6822819367
 20
103.8631485302
 30
0.0
 10
56.8845944842
 20
103.4071381404
 30
0.0
 10
57.120863556
 20
102.827453181
 30
0.0
 10
57.3854485137
 20
102.1226888695
 30
0.0
 10
57.6357336337
 20
101.4111775911
 30
0.0
 10
57.8745655908
 20
100.6949802624
 30
0.0
 10
58.0274381706
 20
100.2152632376
 30
0.0
 10
58.1025334614
 20
99.9749427449
 30
0.0
  0
SPLINE
  5
2A0
100
AcDbEntity
  8
0
100
AcDbSpline
 62
7
  6
BYLAYER
 70
0
 71
3
 72
19
 73
15
 74
0
 42
0.0000001
 43
0.0000001
 44
0.0000000001
 40
0.0
 40
0.0
 40
0.0
 40
0.0
 40
0.0269587695
 40
0.0548379602
 40
0.11260696
 40
0.17226734
 40
0.2331930569
 40
0.2950161114
 40
0.3575072147
 40
0.4839272983
 40
0.6117173782
 40
0.7404729262
 40
0.8699521629
 40
1.0
 40
1.0
 40
1.0
 40
1.0
 10
41.3312455787
 20
105.4013790779
 30
0.0
 10
41.3609408589
 20
105.3614931729
 30
0.0
 10
41.4157886864
 20
105.2761791489
 30
0.0
 10
41.5110273368
 20
105.0913863499
 30
0.0
 10
41.6084576329
 20
104.8410101667
 30
0.0
 10
41.7020153865
 20
104.525424009
 30
0.0
 10
41.7790764498
 20
104.1977584251
 30
0.0
 10
41.8433141677
 20
103.8620988197
 30
0.0
 10
41.9154086552
 20
103.4052031053
 30
0.0
 10
41.9838398096
 20
102.8248448979
 30
0.0
 10
42.0407488179
 20
102.120644382
 30
0.0
 10
42.0777985198
 20
101.4094936371
 30
0.0
 10
42.0983442072
 20
100.6935386003
 30
0.0
 10
42.1025334614
 20
100.2148196023
 30
0.0
 10
42.1025334614
 20
99.9749427449
 30
0.0
  0
ENDSEC
  0
SECTION
  2
OBJECTS
  0
DICTIONARY
  5
C
100
AcDbDictionary
280
0
281
1
  3
ACAD_GROUP
350
D
  3
ACAD_MLINESTYLE
350
17
  3
ACAD_LAYOUT
350
1A
  3
ACAD_PLOTSETTINGS
350
19
  3
ACAD_PLOTSTYLENAME
350
E
  0
DICTIONARY
  5
D
102
{ACAD_REACTORS
330
C
102
}
100
AcDbDictionary
280
0
281
1
  0
ACDBDICTIONARYWDFLT
  5
E
102
{ACAD_REACTORS
330
C
102
}
100
AcDbDictionary
281
1
  3
Normal
350
F
100
AcDbDictionaryWithDefault
340
F
  0
DICTIONARY
  5
17
102
{ACAD_REACTORS
330
C
102
}
100
AcDbDictionary
280
0
281
1
  3
Standard
350
18
  0
DICTIONARY
  5
19
102
{ACAD_REACTORS
330
C
102
}
100
AcDbDictionary
281
1
  0
DICTIONARY
  5
1A
102
{ACAD_REACTORS
330
C
102
}
100
AcDbDictionary
281
1
  3
Model
350
2A1
  3
Layout1
350
2A2
  0
ACDBPLACEHOLDER
  5
F
102
{ACAD_REACTORS
330
E
102
}
  0
MLINESTYLE
  5
18
102
{ACAD_REACTORS
330
17
102
}
100
AcDbMlineStyle
  2
STANDARD
 70
0
  3

 62
256
 51
90.0
 52
90.0
 71
2
 49
0.5
 62
256
  6
BYLAYER
 49
-0.5
 62
256
  6
BYLAYER
  0
LAYOUT
  5
2A1
102
{ACAD_REACTORS
330
1A
102
}
100
AcDbPlotSettings
  1

  2
none_device
  4

  6

 40
0.0
 41
0.0
 42
0.0
 43
0.0
 44
210.0
 45
297.0
 46
0.0
 47
0.0
 48
0.0
 49
0.0
140
0.0
141
0.0
142
1.0
143
1.0
 70
1024
 72
1
 73
0
 74
0
  7

 75
0
147
1.0
148
0.0
149
0.0
100
AcDbLayout
  1
Model
 70
0
 71
0
 10
0.0
 20
0.0
 11
210.0
 21
297.0
 12
0.0
 22
0.0
 32
0.0
 14
0.0
 24
0.0
 34
0.0
 15
0.0
 25
0.0
 35
0.0
146
0.0
 13
0.0
 23
0.0
 33
0.0
 16
1.0
 26
0.0
 36
0.0
 17
0.0
 27
1.0
 37
0.0
 76
0
330
210
345
0
346
0
  0
LAYOUT
  5
2A2
102
{ACAD_REACTORS
330
1A
102
}
100
AcDbPlotSettings
  1

  2
none_device
  4

  6

 40
0.0
 41
0.0
 42
0.0
 43
0.0
 44
210.0
 45
297.0
 46
0.0
 47
0.0
 48
0.0
 49
0.0
140
0.0
141
0.0
142
1.0
143
1.0
 70
0
 72
1
 73
0
 74
0
  7

 75
0
147
1.0
148
0.0
149
0.0
100
AcDbLayout
  1
Layout1
 70
0
 71
1
 10
0.0
 20
0.0
 11
210.0
 21
297.0
 12
0.0
 22
0.0
 32
0.0
 14
0.0
 24
0.0
 34
0.0
 15
0.0
 25
0.0
 35
0.0
146
0.0
 13
0.0
 23
0.0
 33
0.0
 16
1.0
 26
0.0
 36
0.0
 17
0.0
 27
1.0
 37
0.0
 76
0
330
211
345
0
346
0
  0
ENDSEC
  0
EOF
