999
DXF file: C:\Users\sesa63760\Dev\_Creo\CAD\MCADID0004591_3D-CAD\drw0001_1.dxf
999
Pro/ENGINEER 2019471 by Parametric Technology Corporation
  0
SECTION
  2
HEADER
  9
$ACADVER
  1
AC1024
  9
$DWGCODEPAGE
  3
ANSI_1252
  9
$EXTMAX
 10
199.0892826805
 20
281.5691283624
 30
0.0
  9
$EXTMIN
 10
0.0
 20
0.0
 30
0.0
  9
$LIMMIN
 10
0.0
 20
0.0
  9
$LIMMAX
 10
199.0892826805
 20
281.5691283624
  9
$VIEWCTR
 10
99.5446413403
 20
140.7845641812
  9
$VIEWSIZE
 40
281.5691283624
  9
$CLAYER
  8
0
  9
$LTSCALE
 40
18.3541357747
  9
$CELTYPE
  6
BYLAYER
  9
$DIMSCALE
 40
1.0
  9
$DIMASZ
 40
2.3701105081
  9
$DIMEXO
 40
1.0
  9
$DIMDLI
 40
12.6810392625
  9
$DIMEXE
 40
1.0
  9
$DIMCEN
 40
3.0034040359
  9
$DIMLFAC
 40
1.0
  9
$DIMBLK
  1
_FILLED
  9
$DIMALT
 70
0
  9
$DIMALTF
 40
0.0393700787
  9
$DIMTXT
 40
3.3181547113
  9
$DIMTOL
 70
1
  9
$DIMLIM
 70
0
  9
$DIMTFAC
 40
1.0
  9
$DIMTP
 40
0.01
  9
$DIMTM
 40
0.01
  9
$DIMGAP
 40
0.625
  9
$DIMDSEP
 70
46
  9
$AUNITS
 70
0
  9
$PDMODE
 70
3
  9
$PDSIZE
 40
0.3125
  9
$HANDSEED
  5
4D2
  9
$TILEMODE
 70
1
  9
$MEASUREMENT
 70
1
  9
$INSUNITS
 70
4
  0
ENDSEC
  0
SECTION
  2
CLASSES
  0
CLASS
  1
ACDBDICTIONARYWDFLT
  2
AcDbDictionaryWithDefault
  3
AutoCAD 2000
 90
0
 91
1
280
0
281
0
  0
CLASS
  1
ACDBPLACEHOLDER
  2
AcDbPlaceHolder
  3
AutoCAD 2000
 90
0
 91
1
280
0
281
0
  0
CLASS
  1
LAYOUT
  2
AcDbLayout
  3
AutoCAD 2000
 90
0
 91
0
280
0
281
0
  0
ENDSEC
  0
SECTION
  2
TABLES
  0
TABLE
  2
VPORT
  5
8
100
AcDbSymbolTable
 70
2
  0
VPORT
  5
1F4
100
AcDbSymbolTableRecord
100
AcDbViewportTableRecord
  2
*ACTIVE
 70
0
 10
0.0
 20
0.0
 11
1.0
 21
1.0
 12
99.5446413403
 22
140.7845641812
 13
0.0
 23
0.0
 14
1.0
 24
1.0
 15
0.0
 25
0.0
 16
0.0
 26
0.0
 36
1.0
 17
0.0
 27
0.0
 37
0.0
 40
281.5691283624
 41
0.7070707071
 42
50.0
 43
0.0
 44
0.0
 50
0.0
 51
0.0
 71
0
 72
100
 73
1
 74
1
 75
0
 76
0
 77
0
 78
0
  0
ENDTAB
  0
TABLE
  2
LTYPE
  5
5
100
AcDbSymbolTable
 70
6
  0
LTYPE
  5
14
100
AcDbSymbolTableRecord
100
AcDbLinetypeTableRecord
  2
BYBLOCK
 70
0
  3

 72
65
 73
0
 40
0.0
  0
LTYPE
  5
15
100
AcDbSymbolTableRecord
100
AcDbLinetypeTableRecord
  2
BYLAYER
 70
0
  3

 72
65
 73
0
 40
0.0
  0
LTYPE
  5
16
100
AcDbSymbolTableRecord
100
AcDbLinetypeTableRecord
  2
CONTINUOUS
 70
64
  3
Solid line
 72
65
 73
0
 40
0.0
  0
LTYPE
  5
1F5
100
AcDbSymbolTableRecord
100
AcDbLinetypeTableRecord
  2
CENTER
 70
64
  3
____ _ ____ _ ____ _ ____ _ ____ _ ____ _ ____
 72
65
 73
4
 40
0.6
 49
0.375
 74
0
 49
-0.075
 74
0
 49
0.075
 74
0
 49
-0.075
 74
0
  0
LTYPE
  5
1F6
100
AcDbSymbolTableRecord
100
AcDbLinetypeTableRecord
  2
HIDDEN
 70
64
  3
- - - - - - - - - - - - - - - - - - - -
 72
65
 73
2
 40
0.2
 49
0.1
 74
0
 49
-0.1
 74
0
  0
LTYPE
  5
1F7
100
AcDbSymbolTableRecord
100
AcDbLinetypeTableRecord
  2
PHANTOM
 70
64
  3
_____ _ _ _____ _ _ _____ _ _ _____
 72
65
 73
6
 40
0.8
 49
0.45
 74
0
 49
-0.05
 74
0
 49
0.1
 74
0
 49
-0.05
 74
0
 49
0.1
 74
0
 49
-0.05
 74
0
  0
LTYPE
  5
1F8
100
AcDbSymbolTableRecord
100
AcDbLinetypeTableRecord
  2
DOT
 70
64
  3
. . . . . . . . . . . . . . . . . . . .
 72
65
 73
2
 40
0.2
 49
0.1
 74
0
 49
-0.1
 74
0
  0
LTYPE
  5
1F9
100
AcDbSymbolTableRecord
100
AcDbLinetypeTableRecord
  2
DASHED
 70
64
  3
- - - - - - - - - - - - - - - - - - - -
 72
65
 73
2
 40
0.2
 49
0.1
 74
0
 49
-0.1
 74
0
  0
ENDTAB
  0
TABLE
  2
LAYER
  5
2
100
AcDbSymbolTable
 70
36
  0
LAYER
  5
10
100
AcDbSymbolTableRecord
100
AcDbLayerTableRecord
  2
0
 70
0
 62
7
  6
CONTINUOUS
370
-3
390
F
  0
LAYER
  5
1FA
100
AcDbSymbolTableRecord
100
AcDbLayerTableRecord
  2
DEFAULT_1
 70
0
 62
7
  6
CENTER
370
-3
390
F
  0
LAYER
  5
1FB
100
AcDbSymbolTableRecord
100
AcDbLayerTableRecord
  2
DEFAULT_2
 70
0
 62
7
  6
HIDDEN
370
-3
390
F
  0
LAYER
  5
1FC
100
AcDbSymbolTableRecord
100
AcDbLayerTableRecord
  2
DEFAULT_3
 70
0
 62
7
  6
PHANTOM
370
-3
390
F
  0
LAYER
  5
1FD
100
AcDbSymbolTableRecord
100
AcDbLayerTableRecord
  2
00_COMPONENTS
 70
0
 62
7
  6
CONTINUOUS
370
-3
390
F
  0
LAYER
  5
1FE
100
AcDbSymbolTableRecord
100
AcDbLayerTableRecord
  2
01_1_DEFAULT_DATUMS
 70
0
 62
7
  6
CONTINUOUS
370
-3
390
F
  0
LAYER
  5
1FF
100
AcDbSymbolTableRecord
100
AcDbLayerTableRecord
  2
01_PLANES
 70
0
 62
7
  6
CONTINUOUS
370
-3
390
F
  0
LAYER
  5
200
100
AcDbSymbolTableRecord
100
AcDbLayerTableRecord
  2
02_COORD_SYS
 70
0
 62
7
  6
CONTINUOUS
370
-3
390
F
  0
LAYER
  5
201
100
AcDbSymbolTableRecord
100
AcDbLayerTableRecord
  2
03_AXES
 70
0
 62
7
  6
CONTINUOUS
370
-3
390
F
  0
LAYER
  5
202
100
AcDbSymbolTableRecord
100
AcDbLayerTableRecord
  2
04_POINTS
 70
0
 62
7
  6
CONTINUOUS
370
-3
390
F
  0
LAYER
  5
203
100
AcDbSymbolTableRecord
100
AcDbLayerTableRecord
  2
05_CURVES
 70
0
 62
7
  6
CONTINUOUS
370
-3
390
F
  0
LAYER
  5
204
100
AcDbSymbolTableRecord
100
AcDbLayerTableRecord
  2
06_SURFS
 70
0
 62
7
  6
CONTINUOUS
370
-3
390
F
  0
LAYER
  5
205
100
AcDbSymbolTableRecord
100
AcDbLayerTableRecord
  2
07_COSMETICS
 70
0
 62
7
  6
CONTINUOUS
370
-3
390
F
  0
LAYER
  5
206
100
AcDbSymbolTableRecord
100
AcDbLayerTableRecord
  2
10_NOTES
 70
0
 62
7
  6
CONTINUOUS
370
-3
390
F
  0
LAYER
  5
207
100
AcDbSymbolTableRecord
100
AcDbLayerTableRecord
  2
11_NOTES_PUB
 70
0
 62
7
  6
CONTINUOUS
370
-3
390
F
  0
LAYER
  5
208
100
AcDbSymbolTableRecord
100
AcDbLayerTableRecord
  2
13_REF_GTOL
 70
0
 62
7
  6
CONTINUOUS
370
-3
390
F
  0
LAYER
  5
209
100
AcDbSymbolTableRecord
100
AcDbLayerTableRecord
  2
16_MISC
 70
0
 62
7
  6
CONTINUOUS
370
-3
390
F
  0
LAYER
  5
20A
100
AcDbSymbolTableRecord
100
AcDbLayerTableRecord
  2
17_NO_PRINT
 70
0
 62
7
  6
CONTINUOUS
370
-3
390
F
  0
LAYER
  5
20B
100
AcDbSymbolTableRecord
100
AcDbLayerTableRecord
  2
18_DATUM_CAMS_JOINTS
 70
0
 62
7
  6
CONTINUOUS
370
-3
390
F
  0
LAYER
  5
20C
100
AcDbSymbolTableRecord
100
AcDbLayerTableRecord
  2
19_DATUM_FUNCTIONAL
 70
0
 62
7
  6
CONTINUOUS
370
-3
390
F
  0
LAYER
  5
20D
100
AcDbSymbolTableRecord
100
AcDbLayerTableRecord
  2
20_DATUM_KINEMATIC_SCHEME
 70
0
 62
7
  6
CONTINUOUS
370
-3
390
F
  0
ENDTAB
  0
TABLE
  2
STYLE
  5
3
100
AcDbSymbolTable
 70
1
  0
STYLE
  5
11
100
AcDbSymbolTableRecord
100
AcDbTextStyleTableRecord
  2
STANDARD
 70
0
 40
0.0
 41
1.0
 50
0.0
 71
0
 42
0.2
  3
ARIAL.TTF
  4

  0
STYLE
  5
20E
100
AcDbSymbolTableRecord
100
AcDbTextStyleTableRecord
  2
TEXTSTYLE_1
 70
0
 40
0.0
 41
0.8
 50
0.0
 71
0
 42
0.2
  3
gdt
  4

  0
ENDTAB
  0
TABLE
  2
VIEW
  5
6
100
AcDbSymbolTable
 70
0
  0
ENDTAB
  0
TABLE
  2
UCS
  5
7
100
AcDbSymbolTable
 70
0
  0
ENDTAB
  0
TABLE
  2
APPID
  5
9
100
AcDbSymbolTable
 70
1
  0
APPID
  5
20F
100
AcDbSymbolTableRecord
100
AcDbRegAppTableRecord
  2
ACAD
 70
0
  0
ENDTAB
  0
TABLE
  2
BLOCK_RECORD
  5
1
100
AcDbSymbolTable
 70
0
  0
BLOCK_RECORD
  5
210
100
AcDbSymbolTableRecord
100
AcDbBlockTableRecord
  2
*Model_Space
  0
BLOCK_RECORD
  5
211
100
AcDbSymbolTableRecord
100
AcDbBlockTableRecord
  2
*Paper_Space
  0
BLOCK_RECORD
  5
212
100
AcDbSymbolTableRecord
100
AcDbBlockTableRecord
  2
_FILLED
  0
ENDTAB
  0
TABLE
  2
DIMSTYLE
  5
A
100
AcDbSymbolTable
 70
1
100
AcDbDimStyleTable
 71
0
  0
DIMSTYLE
105
213
100
AcDbSymbolTableRecord
100
AcDbDimStyleTableRecord
  2
STANDARD
 70
0
  3

  4

 40
1.0
 41
2.3701105081
 42
1.0
 43
0.38
 44
1.0
 45
0.0
 46
0.0
 47
0.01
 48
0.01
140
3.3181547113
141
0.09
142
0.0
143
25.4
144
1.0
145
0.0
146
1.0
147
0.625
 71
1
 72
0
 73
0
 74
0
 75
0
 76
0
 77
1
 78
8
 79
2
170
0
171
1
172
0
173
0
174
0
175
0
176
0
177
0
178
0
270
2
179
2
271
2
272
2
273
2
274
2
275
0
280
0
281
0
282
0
283
1
284
8
285
0
286
0
287
3
288
0
340
11
278
46
341
212
342
212
343
212
344
212
  0
ENDTAB
  0
ENDSEC
  0
SECTION
  2
BLOCKS
  0
BLOCK
  5
20
100
AcDbEntity
  8
0
100
AcDbBlockBegin
  2
*Model_Space
 70
0
 10
0.0
 20
0.0
 30
0.0
  3
*Model_Space
  1

  0
ENDBLK
  5
21
100
AcDbEntity
  8
0
100
AcDbBlockEnd
  0
BLOCK
  5
1C
100
AcDbEntity
  8
0
100
AcDbBlockBegin
  2
*Paper_Space
 70
0
 10
0.0
 20
0.0
 30
0.0
  3
*Paper_Space
  1

  0
ENDBLK
  5
1D
100
AcDbEntity
  8
0
100
AcDbBlockEnd
  0
BLOCK
  5
214
100
AcDbEntity
  8
0
100
AcDbBlockBegin
  2
_FILLED
 70
64
 10
0.0
 20
0.0
  3
_FILLED
  1

  0
SOLID
  5
215
100
AcDbEntity
  8
0
  6
BYBLOCK
 62
0
100
AcDbTrace
 10
0.0
 20
0.0
 11
-1.0
 21
0.25
 12
-1.0
 22
-0.25
 13
-1.0
 23
-0.25
  0
ENDBLK
  5
216
100
AcDbEntity
  8
0
  6
BYBLOCK
 62
0
100
AcDbBlockEnd
  0
ENDSEC
  0
SECTION
  2
ENTITIES
  0
LINE
  5
217
100
AcDbEntity
  8
0
100
AcDbLine
 62
7
  6
BYLAYER
 10
23.9452166616
 20
183.4968281974
 11
23.9452166616
 21
136.1396880039
  0
LINE
  5
218
100
AcDbEntity
  8
0
100
AcDbLine
 62
7
  6
BYLAYER
 10
25.6795815637
 20
181.0138733601
 11
25.6795815637
 21
179.7885615784
  0
LINE
  5
219
100
AcDbEntity
  8
0
100
AcDbLine
 62
7
  6
BYLAYER
 10
25.6795815637
 20
135.395883315
 11
25.6795815637
 21
134.1705715334
  0
LINE
  5
21A
100
AcDbEntity
  8
0
100
AcDbLine
 62
7
  6
BYLAYER
 10
26.0331334823
 20
134.3746936103
 11
26.0331334823
 21
135.1917646374
  0
LINE
  5
21B
100
AcDbEntity
  8
0
100
AcDbLine
 62
7
  6
BYLAYER
 10
26.0331334823
 20
179.9926836554
 11
26.0331334823
 21
180.8097546825
  0
LINE
  5
21C
100
AcDbEntity
  8
0
100
AcDbLine
 62
7
  6
BYLAYER
 10
26.6563200301
 20
182.6294091976
 11
26.6563200301
 21
180.4499659008
  0
LINE
  5
21D
100
AcDbEntity
  8
0
100
AcDbLine
 62
7
  6
BYLAYER
 10
26.6563200301
 20
179.2246541192
 11
26.6563200301
 21
177.0452108224
  0
LINE
  5
21E
100
AcDbEntity
  8
0
100
AcDbLine
 62
7
  6
BYLAYER
 10
26.6563200301
 20
137.0114191526
 11
26.6563200301
 21
134.8319758558
  0
LINE
  5
21F
100
AcDbEntity
  8
0
100
AcDbLine
 62
7
  6
BYLAYER
 10
26.6563200301
 20
133.6066640742
 11
26.6563200301
 21
131.4272207774
  0
LINE
  5
220
100
AcDbEntity
  8
0
100
AcDbLine
 62
7
  6
BYLAYER
 10
27.0098719487
 20
131.6313428543
 11
27.0098719487
 21
133.8107861511
  0
LINE
  5
221
100
AcDbEntity
  8
0
100
AcDbLine
 62
7
  6
BYLAYER
 10
27.0098719487
 20
135.0360979328
 11
27.0098719487
 21
137.2155412295
  0
LINE
  5
222
100
AcDbEntity
  8
0
100
AcDbLine
 62
7
  6
BYLAYER
 10
27.0098719487
 20
177.2493328994
 11
27.0098719487
 21
179.4287761961
  0
LINE
  5
223
100
AcDbEntity
  8
0
100
AcDbLine
 62
7
  6
BYLAYER
 10
27.0098719487
 20
180.6540879778
 11
27.0098719487
 21
182.8335312746
  0
LINE
  5
224
100
AcDbEntity
  8
0
100
AcDbLine
 62
7
  6
BYLAYER
 10
27.7151537361
 20
130.8169022642
 11
27.7151537361
 21
132.9953599785
  0
LINE
  5
225
100
AcDbEntity
  8
0
100
AcDbLine
 62
7
  6
BYLAYER
 10
27.7151537361
 20
134.2206717602
 11
27.7151537361
 21
136.3991294745
  0
LINE
  5
226
100
AcDbEntity
  8
0
100
AcDbLine
 62
7
  6
BYLAYER
 10
27.7151537361
 20
176.4348923092
 11
27.7151537361
 21
178.6133500236
  0
LINE
  5
227
100
AcDbEntity
  8
0
100
AcDbLine
 62
7
  6
BYLAYER
 10
27.7151537361
 20
179.8386618052
 11
27.7151537361
 21
182.0171195195
  0
LINE
  5
228
100
AcDbEntity
  8
0
100
AcDbLine
 62
7
  6
BYLAYER
 10
28.6879945057
 20
132.4337028047
 11
28.6879945057
 21
133.6590145864
  0
LINE
  5
229
100
AcDbEntity
  8
0
100
AcDbLine
 62
7
  6
BYLAYER
 10
28.6879945057
 20
178.0516928497
 11
28.6879945057
 21
179.2770046314
  0
LINE
  5
22A
100
AcDbEntity
  8
0
100
AcDbLine
 62
7
  6
BYLAYER
 10
53.2649299681
 20
202.1155240604
 11
24.9807764795
 21
185.7857579056
  0
LINE
  5
22B
100
AcDbEntity
  8
0
100
AcDbLine
 62
7
  6
BYLAYER
 10
27.4807652873
 20
185.5381365105
 11
55.7649187759
 21
201.8679026653
  0
LINE
  5
22C
100
AcDbEntity
  8
0
100
AcDbLine
 62
7
  6
BYLAYER
 10
26.494451625
 20
183.1762427722
 11
25.4337958692
 21
182.5638765414
  0
LINE
  5
22D
100
AcDbEntity
  8
0
100
AcDbLine
 62
7
  6
BYLAYER
 10
26.6563200301
 20
182.6294091976
 11
27.0098719487
 21
182.8335312746
  0
LINE
  5
22E
100
AcDbEntity
  8
0
100
AcDbLine
 62
7
  6
BYLAYER
 10
28.0687056547
 20
182.2212415965
 11
27.7151537361
 21
182.0171195195
  0
LINE
  5
22F
100
AcDbEntity
  8
0
100
AcDbLine
 62
7
  6
BYLAYER
 10
26.6563200301
 20
180.4499659008
 11
27.0098719487
 21
180.6540879778
  0
LINE
  5
230
100
AcDbEntity
  8
0
100
AcDbLine
 62
7
  6
BYLAYER
 10
25.6795815637
 20
179.7885615784
 11
26.0331334823
 21
179.9926836554
  0
LINE
  5
231
100
AcDbEntity
  8
0
100
AcDbLine
 62
7
  6
BYLAYER
 10
26.6563200301
 20
179.2246541192
 11
27.0098719487
 21
179.4287761961
  0
LINE
  5
232
100
AcDbEntity
  8
0
100
AcDbLine
 62
7
  6
BYLAYER
 10
27.7151537361
 20
178.6133500236
 11
28.0687056547
 21
178.8174721005
  0
LINE
  5
233
100
AcDbEntity
  8
0
100
AcDbLine
 62
7
  6
BYLAYER
 10
27.0098719487
 20
177.2493328994
 11
26.6563200301
 21
177.0452108224
  0
LINE
  5
234
100
AcDbEntity
  8
0
100
AcDbLine
 62
7
  6
BYLAYER
 10
29.994435956
 20
177.1140558992
 11
28.9337802001
 21
176.5016896684
  0
LINE
  5
235
100
AcDbEntity
  8
0
100
AcDbLine
 62
7
  6
BYLAYER
 10
41.2175617756
 20
185.8402992565
 11
41.2175617756
 21
187.0650528822
  0
LINE
  5
236
100
AcDbEntity
  8
0
100
AcDbLine
 62
7
  6
BYLAYER
 10
44.3775655644
 20
186.5396489331
 11
44.377557987
 21
187.5904114013
  0
LINE
  5
237
100
AcDbEntity
  8
0
100
AcDbLine
 62
7
  6
BYLAYER
 10
51.4364604361
 20
165.1143845937
 11
51.4364604361
 21
131.0386437761
  0
LINE
  5
238
100
AcDbEntity
  8
0
100
AcDbLine
 62
7
  6
BYLAYER
 10
51.4364604361
 20
130.7262123347
 11
51.4364604361
 21
122.617931087
  0
LINE
  5
239
100
AcDbEntity
  8
0
100
AcDbLine
 62
7
  6
BYLAYER
 10
52.9176011197
 20
181.6091686487
 11
52.9175655643
 21
186.5396694608
  0
LINE
  5
23A
100
AcDbEntity
  8
0
100
AcDbLine
 62
7
  6
BYLAYER
 10
52.9175579869
 20
187.1821807203
 11
52.9175224315
 21
192.5209327409
  0
LINE
  5
23B
100
AcDbEntity
  8
0
100
AcDbLine
 62
7
  6
BYLAYER
 10
54.7375224315
 20
192.5209371157
 11
54.7375579869
 21
187.1821850951
  0
LINE
  5
23C
100
AcDbEntity
  8
0
100
AcDbLine
 62
7
  6
BYLAYER
 10
54.7375655643
 20
186.5396738355
 11
54.7376011197
 21
181.6091730235
  0
LINE
  5
23D
100
AcDbEntity
  8
0
100
AcDbLine
 62
7
  6
BYLAYER
 10
52.4971250239
 20
165.7267770876
 11
52.5678354076
 21
165.767601503
  0
LINE
  5
23E
100
AcDbEntity
  8
0
100
AcDbLine
 62
7
  6
BYLAYER
 10
27.4807652873
 20
130.0159721457
 11
107.0098952979
 21
84.1008462646
  0
LINE
  5
23F
100
AcDbEntity
  8
0
100
AcDbLine
 62
7
  6
BYLAYER
 10
25.6795815637
 20
134.1705715334
 11
26.6563200301
 21
133.6066640742
  0
LINE
  5
240
100
AcDbEntity
  8
0
100
AcDbLine
 62
7
  6
BYLAYER
 10
27.7151537361
 20
132.9953599785
 11
28.6879945057
 21
132.4337028047
  0
LINE
  5
241
100
AcDbEntity
  8
0
100
AcDbLine
 62
7
  6
BYLAYER
 10
103.2990160931
 20
89.3579839097
 11
104.2757545595
 21
88.7940764505
  0
LINE
  5
242
100
AcDbEntity
  8
0
100
AcDbLine
 62
7
  6
BYLAYER
 10
105.3345882655
 20
88.1827723548
 11
106.3074290351
 21
87.621115181
  0
LINE
  5
243
100
AcDbEntity
  8
0
100
AcDbLine
 62
7
  6
BYLAYER
 10
104.6293064781
 20
88.9981985274
 11
103.6525680117
 21
89.5621059866
  0
LINE
  5
244
100
AcDbEntity
  8
0
100
AcDbLine
 62
7
  6
BYLAYER
 10
27.0098719487
 20
133.8107861511
 11
26.0331334823
 21
134.3746936103
  0
LINE
  5
245
100
AcDbEntity
  8
0
100
AcDbLine
 62
7
  6
BYLAYER
 10
28.0687056547
 20
133.1994820555
 11
28.6879945057
 21
132.8419435592
  0
LINE
  5
246
100
AcDbEntity
  8
0
100
AcDbLine
 62
7
  6
BYLAYER
 10
105.6881401841
 20
88.3868944318
 11
106.3074290351
 21
88.0293559356
  0
LINE
  5
247
100
AcDbEntity
  8
0
100
AcDbLine
 62
7
  6
BYLAYER
 10
106.3074290351
 20
88.8464269627
 11
105.3345882655
 21
89.4080841365
  0
LINE
  5
248
100
AcDbEntity
  8
0
100
AcDbLine
 62
7
  6
BYLAYER
 10
104.2757545595
 20
90.0193882321
 11
103.2990160931
 21
90.5832956913
  0
LINE
  5
249
100
AcDbEntity
  8
0
100
AcDbLine
 62
7
  6
BYLAYER
 10
28.6879945057
 20
133.6590145864
 11
27.7151537361
 21
134.2206717602
  0
LINE
  5
24A
100
AcDbEntity
  8
0
100
AcDbLine
 62
7
  6
BYLAYER
 10
26.6563200301
 20
134.8319758558
 11
25.6795815637
 21
135.395883315
  0
LINE
  5
24B
100
AcDbEntity
  8
0
100
AcDbLine
 62
7
  6
BYLAYER
 10
52.4971250239
 20
120.7808163296
 11
55.5059868455
 21
119.043688446
  0
LINE
  5
24C
100
AcDbEntity
  8
0
100
AcDbLine
 62
7
  6
BYLAYER
 10
68.7522051852
 20
111.3961537321
 11
94.1872481146
 21
96.71155706
  0
LINE
  5
24D
100
AcDbEntity
  8
0
100
AcDbLine
 62
7
  6
BYLAYER
 10
63.2775579868
 20
187.5904568313
 11
63.2775655642
 21
186.5396943631
  0
LINE
  5
24E
100
AcDbEntity
  8
0
100
AcDbLine
 62
7
  6
BYLAYER
 10
66.4375617756
 20
185.8402992565
 11
66.4375617756
 21
187.0650528822
  0
LINE
  5
24F
100
AcDbEntity
  8
0
100
AcDbLine
 62
7
  6
BYLAYER
 10
26.494451625
 20
137.5582527272
 11
25.4337958692
 21
136.9458864964
  0
LINE
  5
250
100
AcDbEntity
  8
0
100
AcDbLine
 62
7
  6
BYLAYER
 10
26.6563200301
 20
137.0114191526
 11
27.0098719487
 21
137.2155412295
  0
LINE
  5
251
100
AcDbEntity
  8
0
100
AcDbLine
 62
7
  6
BYLAYER
 10
28.0687056547
 20
136.6032515514
 11
27.7151537361
 21
136.3991294745
  0
LINE
  5
252
100
AcDbEntity
  8
0
100
AcDbLine
 62
7
  6
BYLAYER
 10
145.1508652094
 20
98.2679277694
 11
144.9008663286
 21
98.292689909
  0
LINE
  5
253
100
AcDbEntity
  8
0
100
AcDbLine
 62
7
  6
BYLAYER
 10
122.8698672097
 20
88.5612568249
 11
113.698400494
 21
93.8562858125
  0
LINE
  5
254
100
AcDbEntity
  8
0
100
AcDbLine
 62
7
  6
BYLAYER
 10
26.6563200301
 20
134.8319758558
 11
27.0098719487
 21
135.0360979328
  0
LINE
  5
255
100
AcDbEntity
  8
0
100
AcDbLine
 62
7
  6
BYLAYER
 10
25.6795815637
 20
134.1705715334
 11
26.0331334823
 21
134.3746936103
  0
LINE
  5
256
100
AcDbEntity
  8
0
100
AcDbLine
 62
7
  6
BYLAYER
 10
26.6563200301
 20
133.6066640742
 11
27.0098719487
 21
133.8107861511
  0
LINE
  5
257
100
AcDbEntity
  8
0
100
AcDbLine
 62
7
  6
BYLAYER
 10
27.7151537361
 20
132.9953599785
 11
28.0687056547
 21
133.1994820555
  0
LINE
  5
258
100
AcDbEntity
  8
0
100
AcDbLine
 62
7
  6
BYLAYER
 10
27.0098719487
 20
131.6313428543
 11
26.6563200301
 21
131.4272207774
  0
LINE
  5
259
100
AcDbEntity
  8
0
100
AcDbLine
 62
7
  6
BYLAYER
 10
29.994435956
 20
131.4960658542
 11
28.9337802001
 21
130.8836996234
  0
LINE
  5
25A
100
AcDbEntity
  8
0
100
AcDbLine
 62
7
  6
BYLAYER
 10
145.1508652094
 20
104.7999471065
 11
144.9008663286
 21
104.824709246
  0
LINE
  5
25B
100
AcDbEntity
  8
0
100
AcDbLine
 62
7
  6
BYLAYER
 10
65.7922209729
 20
144.3295455824
 11
54.5492699612
 21
137.8384635359
  0
LINE
  5
25C
100
AcDbEntity
  8
0
100
AcDbLine
 62
7
  6
BYLAYER
 10
144.0793136411
 20
88.4189088323
 11
152.5091665433
 21
83.5520410932
  0
LINE
  5
25D
100
AcDbEntity
  8
0
100
AcDbLine
 62
7
  6
BYLAYER
 10
152.5831986319
 20
83.5092996139
 11
153.7118859285
 21
82.8576664413
  0
LINE
  5
25E
100
AcDbEntity
  8
0
100
AcDbLine
 62
7
  6
BYLAYER
 10
154.4074052943
 20
82.4561172325
 11
155.0690954309
 21
82.0740988964
  0
LINE
  5
25F
100
AcDbEntity
  8
0
100
AcDbLine
 62
7
  6
BYLAYER
 10
156.0035559519
 20
81.5346000681
 11
156.1039654122
 21
81.4766299506
  0
LINE
  5
260
100
AcDbEntity
  8
0
100
AcDbLine
 62
7
  6
BYLAYER
 10
149.3899997875
 20
86.3152737111
 11
152.918477316
 21
84.2781523461
  0
LINE
  5
261
100
AcDbEntity
  8
0
100
AcDbLine
 62
7
  6
BYLAYER
 10
152.918477316
 20
91.3351284642
 11
149.3899997875
 21
93.3722498293
  0
LINE
  5
262
100
AcDbEntity
  8
0
100
AcDbLine
 62
7
  6
BYLAYER
 10
154.3326849904
 20
92.1516167719
 11
150.8042074619
 21
94.188738137
  0
LINE
  5
263
100
AcDbEntity
  8
0
100
AcDbLine
 62
7
  6
BYLAYER
 10
95.2479127023
 20
97.3239495539
 11
95.2479127023
 21
139.8204030606
  0
LINE
  5
264
100
AcDbEntity
  8
0
100
AcDbLine
 62
7
  6
BYLAYER
 10
95.318623086
 20
97.3647739693
 11
95.318623086
 21
139.861227476
  0
LINE
  5
265
100
AcDbEntity
  8
0
100
AcDbLine
 62
7
  6
BYLAYER
 10
113.698400494
 20
122.1445252493
 11
122.8698672097
 21
116.8494962617
  0
LINE
  5
266
100
AcDbEntity
  8
0
100
AcDbLine
 62
7
  6
BYLAYER
 10
123.9237847974
 20
118.4262670844
 11
137.9910453516
 21
110.3053770554
  0
LINE
  5
267
100
AcDbEntity
  8
0
100
AcDbLine
 62
7
  6
BYLAYER
 10
156.1039654122
 20
101.8891903789
 11
148.9580470806
 21
106.0147949176
  0
LINE
  5
268
100
AcDbEntity
  8
0
100
AcDbLine
 62
7
  6
BYLAYER
 10
147.9600989714
 20
106.5909474928
 11
144.0793136411
 21
108.8314692605
  0
LINE
  5
269
100
AcDbEntity
  8
0
100
AcDbLine
 62
7
  6
BYLAYER
 10
94.2579584983
 20
141.6983422335
 11
94.1872481146
 21
141.6575178181
  0
LINE
  5
26A
100
AcDbEntity
  8
0
100
AcDbLine
 62
7
  6
BYLAYER
 10
95.2479127023
 20
139.8204030606
 11
95.318623086
 21
139.861227476
  0
LINE
  5
26B
100
AcDbEntity
  8
0
100
AcDbLine
 62
7
  6
BYLAYER
 10
25.6795815637
 20
179.7885615784
 11
26.6563200301
 21
179.2246541192
  0
LINE
  5
26C
100
AcDbEntity
  8
0
100
AcDbLine
 62
7
  6
BYLAYER
 10
27.7151537361
 20
178.6133500236
 11
28.6879945057
 21
178.0516928497
  0
LINE
  5
26D
100
AcDbEntity
  8
0
100
AcDbLine
 62
7
  6
BYLAYER
 10
103.2990160931
 20
134.9759739547
 11
104.2757545595
 21
134.4120664955
  0
LINE
  5
26E
100
AcDbEntity
  8
0
100
AcDbLine
 62
7
  6
BYLAYER
 10
105.3345882655
 20
133.8007623999
 11
106.3074290351
 21
133.2391052261
  0
LINE
  5
26F
100
AcDbEntity
  8
0
100
AcDbLine
 62
7
  6
BYLAYER
 10
104.6293064781
 20
134.6161885724
 11
103.6525680117
 21
135.1800960317
  0
LINE
  5
270
100
AcDbEntity
  8
0
100
AcDbLine
 62
7
  6
BYLAYER
 10
28.0687056547
 20
178.8174721005
 11
28.6879945057
 21
178.4599336043
  0
LINE
  5
271
100
AcDbEntity
  8
0
100
AcDbLine
 62
7
  6
BYLAYER
 10
27.0098719487
 20
179.4287761961
 11
26.0331334823
 21
179.9926836554
  0
LINE
  5
272
100
AcDbEntity
  8
0
100
AcDbLine
 62
7
  6
BYLAYER
 10
105.6881401841
 20
134.0048844768
 11
106.3074290351
 21
133.6473459806
  0
LINE
  5
273
100
AcDbEntity
  8
0
100
AcDbLine
 62
7
  6
BYLAYER
 10
106.3074290351
 20
134.4644170077
 11
105.3345882655
 21
135.0260741815
  0
LINE
  5
274
100
AcDbEntity
  8
0
100
AcDbLine
 62
7
  6
BYLAYER
 10
104.2757545595
 20
135.6373782772
 11
103.2990160931
 21
136.2012857364
  0
LINE
  5
275
100
AcDbEntity
  8
0
100
AcDbLine
 62
7
  6
BYLAYER
 10
28.6879945057
 20
179.2770046314
 11
27.7151537361
 21
179.8386618052
  0
LINE
  5
276
100
AcDbEntity
  8
0
100
AcDbLine
 62
7
  6
BYLAYER
 10
26.6563200301
 20
180.4499659008
 11
25.6795815637
 21
181.0138733601
  0
LINE
  5
277
100
AcDbEntity
  8
0
100
AcDbLine
 62
7
  6
BYLAYER
 10
94.1872481146
 20
141.6575178181
 11
52.4971250239
 21
165.7267770876
  0
LINE
  5
278
100
AcDbEntity
  8
0
100
AcDbLine
 62
7
  6
BYLAYER
 10
94.2579584983
 20
141.6983422335
 11
52.5678354076
 21
165.767601503
  0
LINE
  5
279
100
AcDbEntity
  8
0
100
AcDbLine
 62
7
  6
BYLAYER
 10
103.2990160931
 20
136.2012857364
 11
103.2990160931
 21
134.9759739547
  0
LINE
  5
27A
100
AcDbEntity
  8
0
100
AcDbLine
 62
7
  6
BYLAYER
 10
103.2990160931
 20
90.5832956913
 11
103.2990160931
 21
89.3579839097
  0
LINE
  5
27B
100
AcDbEntity
  8
0
100
AcDbLine
 62
7
  6
BYLAYER
 10
103.6525680117
 20
89.5621059866
 11
103.6525680117
 21
90.3791770137
  0
LINE
  5
27C
100
AcDbEntity
  8
0
100
AcDbLine
 62
7
  6
BYLAYER
 10
103.6525680117
 20
135.1800960317
 11
103.6525680117
 21
135.9971670588
  0
LINE
  5
27D
100
AcDbEntity
  8
0
100
AcDbLine
 62
7
  6
BYLAYER
 10
104.2757545595
 20
137.8168215739
 11
104.2757545595
 21
135.6373782772
  0
LINE
  5
27E
100
AcDbEntity
  8
0
100
AcDbLine
 62
7
  6
BYLAYER
 10
104.2757545595
 20
134.4120664955
 11
104.2757545595
 21
132.2326231987
  0
LINE
  5
27F
100
AcDbEntity
  8
0
100
AcDbLine
 62
7
  6
BYLAYER
 10
104.2757545595
 20
92.1988315289
 11
104.2757545595
 21
90.0193882321
  0
LINE
  5
280
100
AcDbEntity
  8
0
100
AcDbLine
 62
7
  6
BYLAYER
 10
104.2757545595
 20
88.7940764505
 11
104.2757545595
 21
86.6146331537
  0
LINE
  5
281
100
AcDbEntity
  8
0
100
AcDbLine
 62
7
  6
BYLAYER
 10
104.6293064781
 20
86.8187552306
 11
104.6293064781
 21
88.9981985274
  0
LINE
  5
282
100
AcDbEntity
  8
0
100
AcDbLine
 62
7
  6
BYLAYER
 10
104.6293064781
 20
90.2235103091
 11
104.6293064781
 21
92.4029536058
  0
LINE
  5
283
100
AcDbEntity
  8
0
100
AcDbLine
 62
7
  6
BYLAYER
 10
104.6293064781
 20
132.4367452757
 11
104.6293064781
 21
134.6161885724
  0
LINE
  5
284
100
AcDbEntity
  8
0
100
AcDbLine
 62
7
  6
BYLAYER
 10
104.6293064781
 20
135.8415003541
 11
104.6293064781
 21
138.0209436509
  0
LINE
  5
285
100
AcDbEntity
  8
0
100
AcDbLine
 62
7
  6
BYLAYER
 10
105.3345882655
 20
86.0043146405
 11
105.3345882655
 21
88.1827723548
  0
LINE
  5
286
100
AcDbEntity
  8
0
100
AcDbLine
 62
7
  6
BYLAYER
 10
105.3345882655
 20
89.4080841365
 11
105.3345882655
 21
91.5865418508
  0
LINE
  5
287
100
AcDbEntity
  8
0
100
AcDbLine
 62
7
  6
BYLAYER
 10
105.3345882655
 20
131.6223046855
 11
105.3345882655
 21
133.8007623999
  0
LINE
  5
288
100
AcDbEntity
  8
0
100
AcDbLine
 62
7
  6
BYLAYER
 10
105.3345882655
 20
135.0260741815
 11
105.3345882655
 21
137.2045318958
  0
LINE
  5
289
100
AcDbEntity
  8
0
100
AcDbLine
 62
7
  6
BYLAYER
 10
106.3074290351
 20
87.621115181
 11
106.3074290351
 21
88.8464269627
  0
LINE
  5
28A
100
AcDbEntity
  8
0
100
AcDbLine
 62
7
  6
BYLAYER
 10
106.3074290351
 20
133.2391052261
 11
106.3074290351
 21
134.4644170077
  0
LINE
  5
28B
100
AcDbEntity
  8
0
100
AcDbLine
 62
7
  6
BYLAYER
 10
104.1138861544
 20
138.3636551485
 11
103.0532303986
 21
137.7512889177
  0
LINE
  5
28C
100
AcDbEntity
  8
0
100
AcDbLine
 62
7
  6
BYLAYER
 10
126.8088027399
 20
151.0538469378
 11
107.0098952979
 21
139.6230106294
  0
LINE
  5
28D
100
AcDbEntity
  8
0
100
AcDbLine
 62
7
  6
BYLAYER
 10
104.2757545595
 20
137.8168215739
 11
104.6293064781
 21
138.0209436509
  0
LINE
  5
28E
100
AcDbEntity
  8
0
100
AcDbLine
 62
7
  6
BYLAYER
 10
105.6881401841
 20
137.4086539728
 11
105.3345882655
 21
137.2045318958
  0
LINE
  5
28F
100
AcDbEntity
  8
0
100
AcDbLine
 62
7
  6
BYLAYER
 10
104.2757545595
 20
135.6373782772
 11
104.6293064781
 21
135.8415003541
  0
LINE
  5
290
100
AcDbEntity
  8
0
100
AcDbLine
 62
7
  6
BYLAYER
 10
103.2990160931
 20
134.9759739547
 11
103.6525680117
 21
135.1800960317
  0
LINE
  5
291
100
AcDbEntity
  8
0
100
AcDbLine
 62
7
  6
BYLAYER
 10
104.2757545595
 20
134.4120664955
 11
104.6293064781
 21
134.6161885724
  0
LINE
  5
292
100
AcDbEntity
  8
0
100
AcDbLine
 62
7
  6
BYLAYER
 10
107.0098952979
 20
139.6230106294
 11
27.4807652873
 21
185.5381365105
  0
LINE
  5
293
100
AcDbEntity
  8
0
100
AcDbLine
 62
7
  6
BYLAYER
 10
110.1628518683
 20
133.7441529735
 11
110.1628518683
 21
128.2682411075
  0
LINE
  5
294
100
AcDbEntity
  8
0
100
AcDbLine
 62
7
  6
BYLAYER
 10
110.1628518683
 20
91.8149774994
 11
110.1628518683
 21
86.3390656335
  0
LINE
  5
295
100
AcDbEntity
  8
0
100
AcDbLine
 62
7
  6
BYLAYER
 10
105.3345882655
 20
133.8007623999
 11
105.6881401841
 21
134.0048844768
  0
LINE
  5
296
100
AcDbEntity
  8
0
100
AcDbLine
 62
7
  6
BYLAYER
 10
104.6293064781
 20
132.4367452757
 11
104.2757545595
 21
132.2326231987
  0
LINE
  5
297
100
AcDbEntity
  8
0
100
AcDbLine
 62
7
  6
BYLAYER
 10
80.9521531034
 20
118.0716161553
 11
69.7092020917
 21
111.5805341088
  0
LINE
  5
298
100
AcDbEntity
  8
0
100
AcDbLine
 62
7
  6
BYLAYER
 10
107.6138704853
 20
132.3014682755
 11
106.5532147295
 21
131.6891020447
  0
LINE
  5
299
100
AcDbEntity
  8
0
100
AcDbLine
 62
7
  6
BYLAYER
 10
110.1628518683
 20
133.7441529735
 11
129.9617593103
 21
145.1749892819
  0
LINE
  5
29A
100
AcDbEntity
  8
0
100
AcDbLine
 62
7
  6
BYLAYER
 10
170.2460421565
 20
110.0540734563
 11
158.2213903853
 21
116.996352338
  0
LINE
  5
29B
100
AcDbEntity
  8
0
100
AcDbLine
 62
7
  6
BYLAYER
 10
141.8296224447
 20
128.7648063624
 11
133.497307936
 21
133.5753615577
  0
LINE
  5
29C
100
AcDbEntity
  8
0
100
AcDbLine
 62
7
  6
BYLAYER
 10
129.9617593103
 20
139.6990774159
 11
110.1628518683
 21
128.2682411075
  0
LINE
  5
29D
100
AcDbEntity
  8
0
100
AcDbLine
 62
7
  6
BYLAYER
 10
147.6184720725
 20
148.8374286532
 11
139.1332260259
 21
143.9384988067
  0
LINE
  5
29E
100
AcDbEntity
  8
0
100
AcDbLine
 62
7
  6
BYLAYER
 10
135.2441225376
 20
141.2848084538
 11
137.5189202128
 21
142.5981556643
  0
LINE
  5
29F
100
AcDbEntity
  8
0
100
AcDbLine
 62
7
  6
BYLAYER
 10
139.3443586599
 20
140.3860570836
 11
135.2441225376
 21
138.0187987853
  0
LINE
  5
2A0
100
AcDbEntity
  8
0
100
AcDbLine
 62
7
  6
BYLAYER
 10
122.8698672097
 20
88.5612568249
 11
122.8698672097
 21
116.8494962617
  0
LINE
  5
2A1
100
AcDbEntity
  8
0
100
AcDbLine
 62
7
  6
BYLAYER
 10
123.9237847974
 20
118.4269278854
 11
123.9237847974
 21
88.2007771429
  0
LINE
  5
2A2
100
AcDbEntity
  8
0
100
AcDbLine
 62
7
  6
BYLAYER
 10
127.5886901723
 20
89.0656784398
 11
127.5886901723
 21
116.3110034836
  0
LINE
  5
2A3
100
AcDbEntity
  8
0
100
AcDbLine
 62
7
  6
BYLAYER
 10
113.698400494
 20
122.1445252493
 11
133.497307936
 21
133.5753615577
  0
LINE
  5
2A4
100
AcDbEntity
  8
0
100
AcDbLine
 62
7
  6
BYLAYER
 10
142.6687746517
 20
137.8147829484
 11
151.1540206982
 21
142.7137127949
  0
LINE
  5
2A5
100
AcDbEntity
  8
0
100
AcDbLine
 62
7
  6
BYLAYER
 10
139.1332260259
 20
143.9384988067
 11
126.8088027399
 21
151.0538469378
  0
LINE
  5
2A6
100
AcDbEntity
  8
0
100
AcDbLine
 62
7
  6
BYLAYER
 10
147.6257610233
 20
90.8623224527
 11
149.3899997875
 21
86.3152737111
  0
LINE
  5
2A7
100
AcDbEntity
  8
0
100
AcDbLine
 62
7
  6
BYLAYER
 10
128.4503813674
 20
115.8135515994
 11
128.4503813674
 21
85.8732749296
  0
LINE
  5
2A8
100
AcDbEntity
  8
0
100
AcDbLine
 62
7
  6
BYLAYER
 10
129.4184232613
 20
85.7820569463
 11
129.4184232613
 21
115.2546590073
  0
LINE
  5
2A9
100
AcDbEntity
  8
0
100
AcDbLine
 62
7
  6
BYLAYER
 10
129.9617593103
 20
139.6990774159
 11
129.9617593103
 21
145.1749892819
  0
LINE
  5
2AA
100
AcDbEntity
  8
0
100
AcDbLine
 62
7
  6
BYLAYER
 10
133.1558758722
 20
113.0968945394
 11
133.1558758722
 21
83.1566178696
  0
LINE
  5
2AB
100
AcDbEntity
  8
0
100
AcDbLine
 62
7
  6
BYLAYER
 10
134.1239177661
 20
83.0653998862
 11
134.1239177661
 21
112.5380019472
  0
LINE
  5
2AC
100
AcDbEntity
  8
0
100
AcDbLine
 62
7
  6
BYLAYER
 10
150.0890342575
 20
133.5333515314
 11
123.9237847974
 21
118.4269278854
  0
LINE
  5
2AD
100
AcDbEntity
  8
0
100
AcDbLine
 62
7
  6
BYLAYER
 10
122.8698672097
 20
116.8494962617
 11
123.9348536504
 21
117.4643627997
  0
LINE
  5
2AE
100
AcDbEntity
  8
0
100
AcDbLine
 62
7
  6
BYLAYER
 10
55.7649187759
 20
201.8679026653
 11
147.6184720725
 21
148.8374286532
  0
LINE
  5
2AF
100
AcDbEntity
  8
0
100
AcDbLine
 62
7
  6
BYLAYER
 10
154.3256211557
 20
92.1698065561
 11
156.1026545514
 21
87.5938424532
  0
LINE
  5
2B0
100
AcDbEntity
  8
0
100
AcDbLine
 62
7
  6
BYLAYER
 10
154.6827160802
 20
86.7880797226
 11
152.918477316
 21
91.3351284642
  0
LINE
  5
2B1
100
AcDbEntity
  8
0
100
AcDbLine
 62
7
  6
BYLAYER
 10
135.2441225376
 20
141.2848084538
 11
135.2441225376
 21
138.0187987853
  0
LINE
  5
2B2
100
AcDbEntity
  8
0
100
AcDbLine
 62
7
  6
BYLAYER
 10
137.8579843673
 20
110.3821932892
 11
137.8579843673
 21
80.3684675589
  0
LINE
  5
2B3
100
AcDbEntity
  8
0
100
AcDbLine
 62
7
  6
BYLAYER
 10
137.9910453516
 20
79.9149163298
 11
137.9910453516
 21
110.3053770554
  0
LINE
  5
2B4
100
AcDbEntity
  8
0
100
AcDbLine
 62
7
  6
BYLAYER
 10
139.8403357511
 20
135.3652338809
 11
139.8403357511
 21
138.6312435494
  0
LINE
  5
2B5
100
AcDbEntity
  8
0
100
AcDbLine
 62
7
  6
BYLAYER
 10
127.5886901723
 20
116.3110034836
 11
151.1835669056
 21
129.9334306021
  0
LINE
  5
2B6
100
AcDbEntity
  8
0
100
AcDbLine
 62
7
  6
BYLAYER
 10
95.318623086
 20
97.3647739693
 11
95.2479127023
 21
97.3239495539
  0
LINE
  5
2B7
100
AcDbEntity
  8
0
100
AcDbLine
 62
7
  6
BYLAYER
 10
154.3791365651
 20
130.7834360345
 11
128.4503813674
 21
115.8135515995
  0
LINE
  5
2B8
100
AcDbEntity
  8
0
100
AcDbLine
 62
7
  6
BYLAYER
 10
129.4184232613
 20
115.2546590073
 11
154.9421566548
 21
129.9907053904
  0
LINE
  5
2B9
100
AcDbEntity
  8
0
100
AcDbLine
 62
7
  6
BYLAYER
 10
159.08463107
 20
128.0667789744
 11
133.1558758723
 21
113.0968945395
  0
LINE
  5
2BA
100
AcDbEntity
  8
0
100
AcDbLine
 62
7
  6
BYLAYER
 10
54.7376011197
 20
181.6091730235
 11
52.9176011197
 21
181.6091686487
  0
LINE
  5
2BB
100
AcDbEntity
  8
0
100
AcDbLine
 62
7
  6
BYLAYER
 10
142.6687746517
 20
129.2365068678
 11
142.6687746517
 21
137.8147829484
  0
LINE
  5
2BC
100
AcDbEntity
  8
0
100
AcDbLine
 62
7
  6
BYLAYER
 10
144.0793136411
 20
108.8314692605
 11
144.0793136411
 21
104.0853041208
  0
LINE
  5
2BD
100
AcDbEntity
  8
0
100
AcDbLine
 62
7
  6
BYLAYER
 10
144.0793136411
 20
102.631774739
 11
144.0793136411
 21
98.0386998475
  0
LINE
  5
2BE
100
AcDbEntity
  8
0
100
AcDbLine
 62
7
  6
BYLAYER
 10
144.0793136411
 20
97.0845743379
 11
144.0793136411
 21
88.4189088323
  0
LINE
  5
2BF
100
AcDbEntity
  8
0
100
AcDbLine
 62
7
  6
BYLAYER
 10
134.1239177661
 20
112.5380019472
 11
159.6476511597
 21
127.2740483304
  0
LINE
  5
2C0
100
AcDbEntity
  8
0
100
AcDbLine
 62
7
  6
BYLAYER
 10
104.1138861544
 20
92.7456651035
 11
103.0532303986
 21
92.1332988727
  0
LINE
  5
2C1
100
AcDbEntity
  8
0
100
AcDbLine
 62
7
  6
BYLAYER
 10
104.2757545595
 20
92.1988315289
 11
104.6293064781
 21
92.4029536058
  0
LINE
  5
2C2
100
AcDbEntity
  8
0
100
AcDbLine
 62
7
  6
BYLAYER
 10
163.8503503064
 20
125.3888031837
 11
137.8579843673
 21
110.3821932893
  0
LINE
  5
2C3
100
AcDbEntity
  8
0
100
AcDbLine
 62
7
  6
BYLAYER
 10
105.6881401841
 20
91.7906639277
 11
105.3345882655
 21
91.5865418508
  0
LINE
  5
2C4
100
AcDbEntity
  8
0
100
AcDbLine
 62
7
  6
BYLAYER
 10
137.9910453516
 20
110.3053770554
 11
164.3096586748
 21
125.5003448405
  0
LINE
  5
2C5
100
AcDbEntity
  8
0
100
AcDbLine
 62
7
  6
BYLAYER
 10
104.2757545595
 20
90.0193882321
 11
104.6293064781
 21
90.2235103091
  0
LINE
  5
2C6
100
AcDbEntity
  8
0
100
AcDbLine
 62
7
  6
BYLAYER
 10
103.2990160931
 20
89.3579839097
 11
103.6525680117
 21
89.5621059866
  0
LINE
  5
2C7
100
AcDbEntity
  8
0
100
AcDbLine
 62
7
  6
BYLAYER
 10
104.2757545595
 20
88.7940764505
 11
104.6293064781
 21
88.9981985274
  0
LINE
  5
2C8
100
AcDbEntity
  8
0
100
AcDbLine
 62
7
  6
BYLAYER
 10
63.2775655642
 20
186.5396943631
 11
54.7375655643
 21
186.5396738355
  0
LINE
  5
2C9
100
AcDbEntity
  8
0
100
AcDbLine
 62
7
  6
BYLAYER
 10
52.9175655643
 20
186.5396694608
 11
44.3775655644
 21
186.5396489331
  0
LINE
  5
2CA
100
AcDbEntity
  8
0
100
AcDbLine
 62
7
  6
BYLAYER
 10
63.2775579868
 20
187.1822056227
 11
54.7375579869
 21
187.1821850951
  0
LINE
  5
2CB
100
AcDbEntity
  8
0
100
AcDbLine
 62
7
  6
BYLAYER
 10
52.9175579869
 20
187.1821807203
 11
44.377557987
 21
187.1821601927
  0
LINE
  5
2CC
100
AcDbEntity
  8
0
100
AcDbLine
 62
7
  6
BYLAYER
 10
44.377557987
 20
187.5904114013
 11
52.9175579869
 21
187.5904319289
  0
LINE
  5
2CD
100
AcDbEntity
  8
0
100
AcDbLine
 62
7
  6
BYLAYER
 10
54.7375579869
 20
187.5904363036
 11
63.2775579868
 21
187.5904568313
  0
LINE
  5
2CE
100
AcDbEntity
  8
0
100
AcDbLine
 62
7
  6
BYLAYER
 10
150.0890342575
 20
131.7271376021
 11
150.0890342575
 21
133.5333515314
  0
LINE
  5
2CF
100
AcDbEntity
  8
0
100
AcDbLine
 62
7
  6
BYLAYER
 10
151.1540206982
 20
142.7137127949
 11
151.1540206982
 21
129.9562231725
  0
LINE
  5
2D0
100
AcDbEntity
  8
0
100
AcDbLine
 62
7
  6
BYLAYER
 10
149.9944556112
 20
132.4478524061
 11
150.0995806588
 21
133.5394404627
  0
LINE
  5
2D1
100
AcDbEntity
  8
0
100
AcDbLine
 62
7
  6
BYLAYER
 10
110.1628518683
 20
91.8149774994
 11
113.6984310416
 21
93.8562329022
  0
LINE
  5
2D2
100
AcDbEntity
  8
0
100
AcDbLine
 62
7
  6
BYLAYER
 10
105.3345882655
 20
88.1827723548
 11
105.6881401841
 21
88.3868944318
  0
LINE
  5
2D3
100
AcDbEntity
  8
0
100
AcDbLine
 62
7
  6
BYLAYER
 10
104.6293064781
 20
86.8187552306
 11
104.2757545595
 21
86.6146331537
  0
LINE
  5
2D4
100
AcDbEntity
  8
0
100
AcDbLine
 62
7
  6
BYLAYER
 10
158.2213903853
 20
116.996352338
 11
144.0793136411
 21
108.8314692605
  0
LINE
  5
2D5
100
AcDbEntity
  8
0
100
AcDbLine
 62
7
  6
BYLAYER
 10
107.6138704853
 20
86.6834782305
 11
106.5532147295
 21
86.0711119997
  0
LINE
  5
2D6
100
AcDbEntity
  8
0
100
AcDbLine
 62
7
  6
BYLAYER
 10
118.4408081708
 20
91.1183174048
 11
110.1628518683
 21
86.3390656335
  0
LINE
  5
2D7
100
AcDbEntity
  8
0
100
AcDbLine
 62
7
  6
BYLAYER
 10
149.8505931891
 20
107.6824183231
 11
144.9008663286
 21
104.824709246
  0
LINE
  5
2D8
100
AcDbEntity
  8
0
100
AcDbLine
 62
7
  6
BYLAYER
 10
119.9053235638
 20
90.2727981766
 11
109.1272920504
 21
84.0501359253
  0
LINE
  5
2D9
100
AcDbEntity
  8
0
100
AcDbLine
 62
7
  6
BYLAYER
 10
54.7375224315
 20
192.1126859071
 11
52.9175224315
 21
192.1126815324
  0
LINE
  5
2DA
100
AcDbEntity
  8
0
100
AcDbLine
 62
7
  6
BYLAYER
 10
52.9175224315
 20
192.5209327409
 11
54.7375224315
 21
192.5209371157
  0
LINE
  5
2DB
100
AcDbEntity
  8
0
100
AcDbLine
 62
7
  6
BYLAYER
 10
154.9421566548
 20
129.0973600618
 11
154.9421566548
 21
129.9907053904
  0
LINE
  5
2DC
100
AcDbEntity
  8
0
100
AcDbLine
 62
7
  6
BYLAYER
 10
155.0268830033
 20
130.1756210335
 11
155.0268830033
 21
128.4357936371
  0
LINE
  5
2DD
100
AcDbEntity
  8
0
100
AcDbLine
 62
7
  6
BYLAYER
 10
159.6476511597
 20
126.3812107185
 11
159.6476511597
 21
127.2740483304
  0
LINE
  5
2DE
100
AcDbEntity
  8
0
100
AcDbLine
 62
7
  6
BYLAYER
 10
159.7323775082
 20
127.4589639734
 11
159.7323775082
 21
125.7193368237
  0
LINE
  5
2DF
100
AcDbEntity
  8
0
100
AcDbLine
 62
7
  6
BYLAYER
 10
154.9047982959
 20
129.4080204704
 11
154.9047644423
 21
129.3919772332
  0
LINE
  5
2E0
100
AcDbEntity
  8
0
100
AcDbLine
 62
7
  6
BYLAYER
 10
159.6103352586
 20
126.6913405193
 11
159.6103026459
 21
126.6756212272
  0
LINE
  5
2E1
100
AcDbEntity
  8
0
100
AcDbLine
 62
7
  6
BYLAYER
 10
159.6103026459
 20
126.6756212272
 11
159.6476511597
 21
127.2740483304
  0
LINE
  5
2E2
100
AcDbEntity
  8
0
100
AcDbLine
 62
7
  6
BYLAYER
 10
154.9047644423
 20
129.3919772332
 11
154.9421566548
 21
129.9907053904
  0
LINE
  5
2E3
100
AcDbEntity
  8
0
100
AcDbLine
 62
7
  6
BYLAYER
 10
145.4008640902
 20
103.9586825498
 11
145.504420072
 21
104.1875755207
  0
LINE
  5
2E4
100
AcDbEntity
  8
0
100
AcDbLine
 62
7
  6
BYLAYER
 10
145.4008640902
 20
97.4266632128
 11
145.504420072
 21
97.6555561836
  0
LINE
  5
2E5
100
AcDbEntity
  8
0
100
AcDbLine
 62
7
  6
BYLAYER
 10
124.8166381855
 20
88.8382467633
 11
123.9243570613
 21
88.2011075376
  0
LINE
  5
2E6
100
AcDbEntity
  8
0
100
AcDbLine
 62
7
  6
BYLAYER
 10
148.9580470806
 20
106.0147949176
 11
148.9359964841
 21
106.0005809817
  0
LINE
  5
2E7
100
AcDbEntity
  8
0
100
AcDbLine
 62
7
  6
BYLAYER
 10
148.9580470806
 20
106.0147949176
 11
150.3722547551
 21
106.8312832253
  0
LINE
  5
2E8
100
AcDbEntity
  8
0
100
AcDbLine
 62
7
  6
BYLAYER
 10
148.9363832762
 20
105.9999033192
 11
145.4008640902
 21
103.9586825498
  0
LINE
  5
2E9
100
AcDbEntity
  8
0
100
AcDbLine
 62
7
  6
BYLAYER
 10
123.9348536504
 20
89.1761233629
 11
122.8698672097
 21
88.5612568249
  0
LINE
  5
2EA
100
AcDbEntity
  8
0
100
AcDbLine
 62
7
  6
BYLAYER
 10
123.9237847974
 20
88.2007771429
 11
125.5574990143
 21
89.1439968555
  0
LINE
  5
2EB
100
AcDbEntity
  8
0
100
AcDbLine
 62
7
  6
BYLAYER
 10
149.7253540285
 20
101.9847955256
 11
150.4324578657
 21
102.3930396795
  0
LINE
  5
2EC
100
AcDbEntity
  8
0
100
AcDbLine
 62
7
  6
BYLAYER
 10
148.8866164046
 20
101.5005362874
 11
149.5937202418
 21
101.9087804413
  0
LINE
  5
2ED
100
AcDbEntity
  8
0
100
AcDbLine
 62
7
  6
BYLAYER
 10
149.9636921178
 20
102.0781226389
 11
150.670795955
 21
102.4863667927
  0
LINE
  5
2EE
100
AcDbEntity
  8
0
100
AcDbLine
 62
7
  6
BYLAYER
 10
150.9353326925
 20
102.3027613014
 11
151.6424365297
 21
102.7110054553
  0
LINE
  5
2EF
100
AcDbEntity
  8
0
100
AcDbLine
 62
7
  6
BYLAYER
 10
148.0062769469
 20
100.6116218275
 11
148.7133807841
 21
101.0198659814
  0
LINE
  5
2F0
100
AcDbEntity
  8
0
100
AcDbLine
 62
7
  6
BYLAYER
 10
151.204777686
 20
102.3268312129
 11
151.9118815232
 21
102.7350753668
  0
LINE
  5
2F1
100
AcDbEntity
  8
0
100
AcDbLine
 62
7
  6
BYLAYER
 10
148.0207631998
 20
100.0939524553
 11
144.9008663286
 21
98.292689909
  0
LINE
  5
2F2
100
AcDbEntity
  8
0
100
AcDbLine
 62
7
  6
BYLAYER
 10
152.2797984044
 20
102.2850237677
 11
152.9869022416
 21
102.6932679216
  0
LINE
  5
2F3
100
AcDbEntity
  8
0
100
AcDbLine
 62
7
  6
BYLAYER
 10
152.5721633523
 20
102.2391051253
 11
153.2792671895
 21
102.6473492792
  0
LINE
  5
2F4
100
AcDbEntity
  8
0
100
AcDbLine
 62
7
  6
BYLAYER
 10
148.3673027562
 20
99.1393271519
 11
145.4008640902
 21
97.4266632128
  0
LINE
  5
2F5
100
AcDbEntity
  8
0
100
AcDbLine
 62
7
  6
BYLAYER
 10
153.7179002537
 20
101.9321218704
 11
154.425004091
 21
102.3403660243
  0
LINE
  5
2F6
100
AcDbEntity
  8
0
100
AcDbLine
 62
7
  6
BYLAYER
 10
146.9360109977
 20
98.0164843324
 11
147.6431148349
 21
98.4247284863
  0
LINE
  5
2F7
100
AcDbEntity
  8
0
100
AcDbLine
 62
7
  6
BYLAYER
 10
153.417755515
 20
101.0189155495
 11
153.3684897619
 21
100.9936300613
  0
LINE
  5
2F8
100
AcDbEntity
  8
0
100
AcDbLine
 62
7
  6
BYLAYER
 10
154.890665704
 20
100.5661581619
 11
154.6903701309
 21
100.4996014098
  0
LINE
  5
2F9
100
AcDbEntity
  8
0
100
AcDbLine
 62
7
  6
BYLAYER
 10
150.8112574722
 20
94.1987679663
 11
150.0684727706
 21
93.9717963356
  0
LINE
  5
2FA
100
AcDbEntity
  8
0
100
AcDbLine
 62
7
  6
BYLAYER
 10
164.3096586748
 20
125.5003448405
 11
164.3096586748
 21
113.4813685217
  0
LINE
  5
2FB
100
AcDbEntity
  8
0
100
AcDbLine
 62
7
  6
BYLAYER
 10
149.3899997875
 20
93.3722498293
 11
147.6257610233
 21
90.8623224527
  0
LINE
  5
2FC
100
AcDbEntity
  8
0
100
AcDbLine
 62
7
  6
BYLAYER
 10
147.6903839179
 20
96.4580419347
 11
147.5325912712
 21
96.3178380463
  0
LINE
  5
2FD
100
AcDbEntity
  8
0
100
AcDbLine
 62
7
  6
BYLAYER
 10
129.9182914767
 20
86.1138324236
 11
129.4184232613
 21
85.7820569463
  0
LINE
  5
2FE
100
AcDbEntity
  8
0
100
AcDbLine
 62
7
  6
BYLAYER
 10
134.6235470475
 20
83.3969870575
 11
134.1239177661
 21
83.0653998862
  0
LINE
  5
2FF
100
AcDbEntity
  8
0
100
AcDbLine
 62
7
  6
BYLAYER
 10
147.9234670922
 20
97.8498548748
 11
147.8767906937
 21
97.8200555562
  0
LINE
  5
300
100
AcDbEntity
  8
0
100
AcDbLine
 62
7
  6
BYLAYER
 10
154.0243017951
 20
101.817609889
 11
154.7314056324
 21
102.2258540428
  0
LINE
  5
301
100
AcDbEntity
  8
0
100
AcDbLine
 62
7
  6
BYLAYER
 10
153.3684897619
 20
100.9936300613
 11
153.4163880919
 21
101.02128401
  0
LINE
  5
302
100
AcDbEntity
  8
0
100
AcDbLine
 62
7
  6
BYLAYER
 10
170.2460421565
 20
110.0540734563
 11
156.1039654122
 21
101.8891903789
  0
LINE
  5
303
100
AcDbEntity
  8
0
100
AcDbLine
 62
7
  6
BYLAYER
 10
155.2059422436
 20
101.2547783552
 11
155.9130460809
 21
101.6630225091
  0
LINE
  5
304
100
AcDbEntity
  8
0
100
AcDbLine
 62
7
  6
BYLAYER
 10
146.7786039954
 20
96.3891132367
 11
147.4857078326
 21
96.7973573906
  0
LINE
  5
305
100
AcDbEntity
  8
0
100
AcDbLine
 62
7
  6
BYLAYER
 10
155.5170705227
 20
101.0751524232
 11
156.2241743599
 21
101.4833965771
  0
LINE
  5
306
100
AcDbEntity
  8
0
100
AcDbLine
 62
7
  6
BYLAYER
 10
154.6903701309
 20
100.4996014098
 11
155.0094981866
 21
100.6838489788
  0
LINE
  5
307
100
AcDbEntity
  8
0
100
AcDbLine
 62
7
  6
BYLAYER
 10
129.4184232613
 20
85.7820569463
 11
130.3687664419
 21
86.3307345623
  0
LINE
  5
308
100
AcDbEntity
  8
0
100
AcDbLine
 62
7
  6
BYLAYER
 10
130.7217860209
 20
86.4367111451
 11
129.3006387076
 21
85.6162162589
  0
LINE
  5
309
100
AcDbEntity
  8
0
100
AcDbLine
 62
7
  6
BYLAYER
 10
156.6987109712
 20
100.273573962
 11
157.4058148084
 21
100.6818181159
  0
LINE
  5
30A
100
AcDbEntity
  8
0
100
AcDbLine
 62
7
  6
BYLAYER
 10
146.881984139
 20
94.6057220355
 11
147.5890879762
 21
95.0139661894
  0
LINE
  5
30B
100
AcDbEntity
  8
0
100
AcDbLine
 62
7
  6
BYLAYER
 10
156.0326426354
 20
99.7246575496
 11
156.6167598854
 21
100.061895788
  0
LINE
  5
30C
100
AcDbEntity
  8
0
100
AcDbLine
 62
7
  6
BYLAYER
 10
157.0051125126
 20
100.0342919226
 11
157.7122163498
 21
100.4425360764
  0
LINE
  5
30D
100
AcDbEntity
  8
0
100
AcDbLine
 62
7
  6
BYLAYER
 10
157.3545230044
 20
98.6923447578
 11
158.0616268417
 21
99.1005889116
  0
LINE
  5
30E
100
AcDbEntity
  8
0
100
AcDbLine
 62
7
  6
BYLAYER
 10
158.150849414
 20
99.0183220898
 11
158.8579532512
 21
99.4265662436
  0
LINE
  5
30F
100
AcDbEntity
  8
0
100
AcDbLine
 62
7
  6
BYLAYER
 10
147.2430102751
 20
92.720498168
 11
147.8506671443
 21
93.0713269308
  0
LINE
  5
310
100
AcDbEntity
  8
0
100
AcDbLine
 62
7
  6
BYLAYER
 10
152.8615175754
 20
95.5843872839
 11
150.0684574184
 21
93.9718228761
  0
LINE
  5
311
100
AcDbEntity
  8
0
100
AcDbLine
 62
7
  6
BYLAYER
 10
158.443214362
 20
98.7266544065
 11
159.1503181992
 21
99.1348985604
  0
LINE
  5
312
100
AcDbEntity
  8
0
100
AcDbLine
 62
7
  6
BYLAYER
 10
149.3899997875
 20
93.3722498293
 11
150.8042074619
 21
94.188738137
  0
LINE
  5
313
100
AcDbEntity
  8
0
100
AcDbLine
 62
7
  6
BYLAYER
 10
158.615846572
 20
97.4340293362
 11
159.3229504092
 21
97.84227349
  0
LINE
  5
314
100
AcDbEntity
  8
0
100
AcDbLine
 62
7
  6
BYLAYER
 10
134.1239177661
 20
83.0653998862
 11
135.0740045871
 21
83.6139294938
  0
LINE
  5
315
100
AcDbEntity
  8
0
100
AcDbLine
 62
7
  6
BYLAYER
 10
135.4269370506
 20
83.7198557807
 11
134.0061332125
 21
82.8995591989
  0
LINE
  5
316
100
AcDbEntity
  8
0
100
AcDbLine
 62
7
  6
BYLAYER
 10
159.5182350803
 20
97.5271629314
 11
160.2253389175
 21
97.9354070853
  0
LINE
  5
317
100
AcDbEntity
  8
0
100
AcDbLine
 62
7
  6
BYLAYER
 10
162.6553375326
 20
91.6495372405
 11
162.8728652167
 21
91.7162953162
  0
LINE
  5
318
100
AcDbEntity
  8
0
100
AcDbLine
 62
7
  6
BYLAYER
 10
159.5182350803
 20
97.5271629314
 11
159.3505698003
 21
97.3735003838
  0
LINE
  5
319
100
AcDbEntity
  8
0
100
AcDbLine
 62
7
  6
BYLAYER
 10
160.7584271445
 20
95.8467651533
 11
160.6997022153
 21
95.806583084
  0
LINE
  5
31A
100
AcDbEntity
  8
0
100
AcDbLine
 62
7
  6
BYLAYER
 10
159.7876800738
 20
97.1919717794
 11
160.494783911
 21
97.6002159332
  0
LINE
  5
31B
100
AcDbEntity
  8
0
100
AcDbLine
 62
7
  6
BYLAYER
 10
159.7782886596
 20
95.9879445621
 11
160.4853924968
 21
96.396188716
  0
LINE
  5
31C
100
AcDbEntity
  8
0
100
AcDbLine
 62
7
  6
BYLAYER
 10
152.918477316
 20
91.3351284642
 11
154.3326849904
 21
92.1516167719
  0
LINE
  5
31D
100
AcDbEntity
  8
0
100
AcDbLine
 62
7
  6
BYLAYER
 10
160.7593206486
 20
95.8454046035
 11
161.4664244858
 21
96.2536487574
  0
LINE
  5
31E
100
AcDbEntity
  8
0
100
AcDbLine
 62
7
  6
BYLAYER
 10
160.9976587378
 20
95.4768745962
 11
161.704762575
 21
95.88511875
  0
LINE
  5
31F
100
AcDbEntity
  8
0
100
AcDbLine
 62
7
  6
BYLAYER
 10
160.8065290528
 20
94.3980289897
 11
161.51363289
 21
94.8062731436
  0
LINE
  5
320
100
AcDbEntity
  8
0
100
AcDbLine
 62
7
  6
BYLAYER
 10
161.8363963618
 20
94.0241464817
 11
162.543500199
 21
94.4323906356
  0
LINE
  5
321
100
AcDbEntity
  8
0
100
AcDbLine
 62
7
  6
BYLAYER
 10
148.3999329749
 20
85.9244545289
 11
137.9910453516
 21
79.9149163298
  0
LINE
  5
322
100
AcDbEntity
  8
0
100
AcDbLine
 62
7
  6
BYLAYER
 10
162.0363857646
 20
93.6334752169
 11
162.7434896018
 21
94.0417193708
  0
LINE
  5
323
100
AcDbEntity
  8
0
100
AcDbLine
 62
7
  6
BYLAYER
 10
161.6693251875
 20
92.7125913991
 11
162.3764290247
 21
93.120835553
  0
LINE
  5
324
100
AcDbEntity
  8
0
100
AcDbLine
 62
7
  6
BYLAYER
 10
162.7167358194
 20
92.1187265725
 11
163.4238396566
 21
92.5269707264
  0
LINE
  5
325
100
AcDbEntity
  8
0
100
AcDbLine
 62
7
  6
BYLAYER
 10
161.972549196
 20
93.6019971504
 11
162.0363857646
 21
93.6334752169
  0
LINE
  5
326
100
AcDbEntity
  8
0
100
AcDbLine
 62
7
  6
BYLAYER
 10
155.8323470623
 20
81.9423494444
 11
156.0326426354
 21
82.0089061966
  0
LINE
  5
327
100
AcDbEntity
  8
0
100
AcDbLine
 62
7
  6
BYLAYER
 10
154.3376950435
 20
85.0892412216
 11
155.0684333095
 21
85.3115589
  0
LINE
  5
328
100
AcDbEntity
  8
0
100
AcDbLine
 62
7
  6
BYLAYER
 10
156.1027273781
 20
87.608605083
 11
154.3376950435
 21
85.0892412216
  0
LINE
  5
329
100
AcDbEntity
  8
0
100
AcDbLine
 62
7
  6
BYLAYER
 10
152.918477316
 20
84.2781523461
 11
154.6827160802
 21
86.7880797226
  0
LINE
  5
32A
100
AcDbEntity
  8
0
100
AcDbLine
 62
7
  6
BYLAYER
 10
151.204777686
 20
84.981344675
 11
151.372442966
 21
85.1350072226
  0
LINE
  5
32B
100
AcDbEntity
  8
0
100
AcDbLine
 62
7
  6
BYLAYER
 10
162.872299959
 20
91.7177843989
 11
163.5794037962
 21
92.1260285528
  0
LINE
  5
32C
100
AcDbEntity
  8
0
100
AcDbLine
 62
7
  6
BYLAYER
 10
151.204777686
 20
84.981344675
 11
151.4526292396
 21
85.1244409819
  0
LINE
  5
32D
100
AcDbEntity
  8
0
100
AcDbLine
 62
7
  6
BYLAYER
 10
154.6827160802
 20
86.7880797226
 11
156.0969237547
 21
87.6045680303
  0
LINE
  5
32E
100
AcDbEntity
  8
0
100
AcDbLine
 62
7
  6
BYLAYER
 10
162.3404614397
 20
90.9828429586
 11
163.047565277
 21
91.3910871124
  0
LINE
  5
32F
100
AcDbEntity
  8
0
100
AcDbLine
 62
7
  6
BYLAYER
 10
152.918477316
 20
84.2781523461
 11
154.3326849904
 21
85.0946406538
  0
LINE
  5
330
100
AcDbEntity
  8
0
100
AcDbLine
 62
7
  6
BYLAYER
 10
163.3735903526
 20
90.1870400957
 11
164.0806941898
 21
90.5952842496
  0
LINE
  5
331
100
AcDbEntity
  8
0
100
AcDbLine
 62
7
  6
BYLAYER
 10
157.861495191
 20
86.9241203225
 11
155.068435034
 21
85.3115559147
  0
LINE
  5
332
100
AcDbEntity
  8
0
100
AcDbLine
 62
7
  6
BYLAYER
 10
163.4800024912
 20
89.7880094383
 11
164.1871063284
 21
90.1962535922
  0
LINE
  5
333
100
AcDbEntity
  8
0
100
AcDbLine
 62
7
  6
BYLAYER
 10
152.5721633523
 20
83.4901855166
 11
153.1794703214
 21
83.8408122657
  0
LINE
  5
334
100
AcDbEntity
  8
0
100
AcDbLine
 62
7
  6
BYLAYER
 10
162.7995456741
 20
89.2613411992
 11
163.5066495113
 21
89.6695853531
  0
LINE
  5
335
100
AcDbEntity
  8
0
100
AcDbLine
 62
7
  6
BYLAYER
 10
163.7870017687
 20
88.2877803673
 11
164.4941056059
 21
88.6960245212
  0
LINE
  5
336
100
AcDbEntity
  8
0
100
AcDbLine
 62
7
  6
BYLAYER
 10
163.0326288484
 20
87.6003930809
 11
163.6169753427
 21
87.9377636728
  0
LINE
  5
337
100
AcDbEntity
  8
0
100
AcDbLine
 62
7
  6
BYLAYER
 10
163.8410286274
 20
87.9027855708
 11
164.5481324646
 21
88.3110297247
  0
LINE
  5
338
100
AcDbEntity
  8
0
100
AcDbLine
 62
7
  6
BYLAYER
 10
154.0243017951
 20
82.2349336444
 11
154.7314056324
 21
82.6431777982
  0
LINE
  5
339
100
AcDbEntity
  8
0
100
AcDbLine
 62
7
  6
BYLAYER
 10
163.0326288484
 20
86.0504656717
 11
163.3515276374
 21
86.2345808743
  0
LINE
  5
33A
100
AcDbEntity
  8
0
100
AcDbLine
 62
7
  6
BYLAYER
 10
163.944408771
 20
86.4786554332
 11
164.6515126082
 21
86.8868995871
  0
LINE
  5
33B
100
AcDbEntity
  8
0
100
AcDbLine
 62
7
  6
BYLAYER
 10
163.944408771
 20
86.1193943697
 11
164.6515126082
 21
86.5276385235
  0
LINE
  5
33C
100
AcDbEntity
  8
0
100
AcDbLine
 62
7
  6
BYLAYER
 10
155.5170705227
 20
81.2537292512
 11
156.2241743599
 21
81.661973405
  0
LINE
  5
33D
100
AcDbEntity
  8
0
100
AcDbLine
 62
7
  6
BYLAYER
 10
162.7995456741
 20
84.6586527316
 11
162.8474565224
 21
84.6863139076
  0
LINE
  5
33E
100
AcDbEntity
  8
0
100
AcDbLine
 62
7
  6
BYLAYER
 10
163.8410286274
 20
84.814634639
 11
164.5481324646
 21
85.2228787928
  0
LINE
  5
33F
100
AcDbEntity
  8
0
100
AcDbLine
 62
7
  6
BYLAYER
 10
157.3052572513
 20
81.4895920568
 11
157.3545230044
 21
81.5148775451
  0
LINE
  5
340
100
AcDbEntity
  8
0
100
AcDbLine
 62
7
  6
BYLAYER
 10
163.0326288484
 20
86.0504656717
 11
163.1904214951
 21
86.1906695601
  0
LINE
  5
341
100
AcDbEntity
  8
0
100
AcDbLine
 62
7
  6
BYLAYER
 10
162.7995456741
 20
84.6586527316
 11
162.8462220726
 21
84.6884520502
  0
LINE
  5
342
100
AcDbEntity
  8
0
100
AcDbLine
 62
7
  6
BYLAYER
 10
163.7870017687
 20
84.492023274
 11
164.4941056059
 21
84.9002674279
  0
LINE
  5
343
100
AcDbEntity
  8
0
100
AcDbLine
 62
7
  6
BYLAYER
 10
157.0051125126
 20
80.5763857359
 11
157.7122163498
 21
80.9846298898
  0
LINE
  5
344
100
AcDbEntity
  8
0
100
AcDbLine
 62
7
  6
BYLAYER
 10
163.4800024912
 20
83.3462784144
 11
164.1871063284
 21
83.7545225683
  0
LINE
  5
345
100
AcDbEntity
  8
0
100
AcDbLine
 62
7
  6
BYLAYER
 10
163.3735903526
 20
83.0701191311
 11
164.0806941898
 21
83.478363285
  0
LINE
  5
346
100
AcDbEntity
  8
0
100
AcDbLine
 62
7
  6
BYLAYER
 10
158.443214362
 20
80.2234838387
 11
159.1503181992
 21
80.6317279926
  0
LINE
  5
347
100
AcDbEntity
  8
0
100
AcDbLine
 62
7
  6
BYLAYER
 10
162.872299959
 20
82.1182020205
 11
163.5794037962
 21
82.5264461744
  0
LINE
  5
348
100
AcDbEntity
  8
0
100
AcDbLine
 62
7
  6
BYLAYER
 10
162.7167358194
 20
81.8968857789
 11
163.4238396566
 21
82.3051299327
  0
LINE
  5
349
100
AcDbEntity
  8
0
100
AcDbLine
 62
7
  6
BYLAYER
 10
159.7876800738
 20
80.205746305
 11
160.494783911
 21
80.6139904588
  0
LINE
  5
34A
100
AcDbEntity
  8
0
100
AcDbLine
 62
7
  6
BYLAYER
 10
162.0363857646
 20
81.1677199369
 11
162.7434896018
 21
81.5759640907
  0
LINE
  5
34B
100
AcDbEntity
  8
0
100
AcDbLine
 62
7
  6
BYLAYER
 10
161.8363963618
 20
81.007971319
 11
162.543500199
 21
81.4162154729
  0
LINE
  5
34C
100
AcDbEntity
  8
0
100
AcDbLine
 62
7
  6
BYLAYER
 10
160.9976587378
 20
80.5237120808
 11
161.704762575
 21
80.9319562346
  0
LINE
  5
34D
100
AcDbEntity
  8
0
100
AcDbLine
 62
7
  6
BYLAYER
 10
176.496014176
 20
89.0224595404
 11
162.7380069966
 21
81.079317806
  0
ARC
  5
34E
100
AcDbEntity
  8
0
100
AcDbCircle
 62
7
  6
BYLAYER
 10
143.6366271105
 20
84.4849323632
 40
21.6129630039
100
AcDbArc
 50
27.6993691899
 51
32.2979620809
  0
ARC
  5
34F
100
AcDbEntity
  8
0
100
AcDbCircle
 62
7
  6
BYLAYER
 10
143.7194467081
 20
84.53713062
 40
21.5150664935
100
AcDbArc
 50
32.2983087315
 51
33.4928012345
  0
ARC
  5
350
100
AcDbEntity
  8
0
100
AcDbCircle
 62
7
  6
BYLAYER
 10
143.7235730977
 20
84.5307251635
 40
21.5146951638
100
AcDbArc
 50
26.5024582851
 51
27.6990240926
  0
ARC
  5
351
100
AcDbEntity
  8
0
100
AcDbCircle
 62
7
  6
BYLAYER
 10
144.0226318949
 20
84.7398057489
 40
21.1503810472
100
AcDbArc
 50
33.4881563822
 51
37.1241802889
  0
ARC
  5
352
100
AcDbEntity
  8
0
100
AcDbCircle
 62
7
  6
BYLAYER
 10
143.9569955645
 20
84.6686086103
 40
20.9950826043
100
AcDbArc
 50
32.2897139426
 51
33.4948886048
  0
ARC
  5
353
100
AcDbEntity
  8
0
100
AcDbCircle
 62
7
  6
BYLAYER
 10
143.2498917275
 20
84.2603644565
 40
20.9950826041
100
AcDbArc
 50
32.2897139426
 51
33.4948886048
  0
ARC
  5
354
100
AcDbEntity
  8
0
100
AcDbCircle
 62
7
  6
BYLAYER
 10
144.3029559601
 20
84.8080564407
 40
20.8724439339
100
AcDbArc
 50
21.8971549454
 51
26.5308794646
  0
ARC
  5
355
100
AcDbEntity
  8
0
100
AcDbCircle
 62
7
  6
BYLAYER
 10
144.0710546829
 20
84.7295955039
 40
20.8656530383
100
AcDbArc
 50
26.505876311
 51
27.7110485498
  0
ARC
  5
356
100
AcDbEntity
  8
0
100
AcDbCircle
 62
7
  6
BYLAYER
 10
143.3639508457
 20
84.32135135
 40
20.8656530382
100
AcDbArc
 50
26.505876311
 51
27.7110485498
  0
ARC
  5
357
100
AcDbEntity
  8
0
100
AcDbCircle
 62
7
  6
BYLAYER
 10
144.5136213312
 20
85.1033032778
 40
20.5395148729
100
AcDbArc
 50
37.1423311641
 51
38.1167299983
  0
ARC
  5
358
100
AcDbEntity
  8
0
100
AcDbCircle
 62
7
  6
BYLAYER
 10
144.8710665744
 20
85.0395333311
 40
20.2589926093
100
AcDbArc
 50
20.6578718298
 51
21.8889397084
  0
ARC
  5
359
100
AcDbEntity
  8
0
100
AcDbCircle
 62
7
  6
BYLAYER
 10
144.7342736661
 20
85.2767862662
 40
20.2588305014
100
AcDbArc
 50
38.1159169657
 51
39.3379263615
  0
ARC
  5
35A
100
AcDbEntity
  8
0
100
AcDbCircle
 62
7
  6
BYLAYER
 10
145.0636521971
 20
85.1726365478
 40
19.7783453348
100
AcDbArc
 50
20.5785154037
 51
21.8336371596
  0
ARC
  5
35B
100
AcDbEntity
  8
0
100
AcDbCircle
 62
7
  6
BYLAYER
 10
144.3565483597
 20
84.7643923938
 40
19.778345335
100
AcDbArc
 50
20.5785154037
 51
21.8336371596
  0
ARC
  5
35C
100
AcDbEntity
  8
0
100
AcDbCircle
 62
7
  6
BYLAYER
 10
145.0594306655
 20
85.4683270881
 40
19.6324439835
100
AcDbArc
 50
38.1666612271
 51
39.4217905511
  0
ARC
  5
35D
100
AcDbEntity
  8
0
100
AcDbCircle
 62
7
  6
BYLAYER
 10
144.3523268285
 20
85.0600829344
 40
19.6324439832
100
AcDbArc
 50
38.166661227
 51
39.4217905511
  0
ARC
  5
35E
100
AcDbEntity
  8
0
100
AcDbCircle
 62
7
  6
BYLAYER
 10
145.3492675971
 20
85.7860934237
 40
19.4603356143
100
AcDbArc
 50
39.3259480109
 51
43.5801493165
  0
ARC
  5
35F
100
AcDbEntity
  8
0
100
AcDbCircle
 62
7
  6
BYLAYER
 10
145.839323569
 20
85.3908761943
 40
19.2290460876
100
AcDbArc
 50
16.5833699917
 51
20.6961174321
  0
ARC
  5
360
100
AcDbEntity
  8
0
100
AcDbCircle
 62
7
  6
BYLAYER
 10
146.1777917509
 20
86.5537992643
 40
18.330917668
100
AcDbArc
 50
43.6271094493
 51
44.2502779634
  0
ARC
  5
361
100
AcDbEntity
  8
0
100
AcDbCircle
 62
7
  6
BYLAYER
 10
146.452560696
 20
86.8226975648
 40
17.9464654871
100
AcDbArc
 50
44.247470519
 51
45.6293191641
  0
ARC
  5
362
100
AcDbEntity
  8
0
100
AcDbCircle
 62
7
  6
BYLAYER
 10
145.9599269444
 20
86.5061290168
 40
17.4692236429
100
AcDbArc
 50
44.388954864
 51
45.7501142196
  0
ARC
  5
363
100
AcDbEntity
  8
0
100
AcDbCircle
 62
7
  6
BYLAYER
 10
126.6192334776
 20
87.5428593021
 40
1.8052214294
100
AcDbArc
 50
57.5183655007
 51
59.1727113682
  0
ARC
  5
364
100
AcDbEntity
  8
0
100
AcDbCircle
 62
7
  6
BYLAYER
 10
126.6200444554
 20
87.5442020394
 40
1.8036528124
100
AcDbArc
 50
59.1729753855
 51
60.0005405423
  0
ARC
  5
365
100
AcDbEntity
  8
0
100
AcDbCircle
 62
7
  6
BYLAYER
 10
126.8916027294
 20
87.7265073773
 40
1.5097384005
100
AcDbArc
 50
60.001107258
 51
62.5013763799
  0
ARC
  5
366
100
AcDbEntity
  8
0
100
AcDbCircle
 62
7
  6
BYLAYER
 10
145.7985603331
 20
98.7548366774
 40
2.6231724219
100
AcDbArc
 50
30.5360748855
 51
38.5466035505
  0
ARC
  5
367
100
AcDbEntity
  8
0
100
AcDbCircle
 62
7
  6
BYLAYER
 10
145.8314861483
 20
98.7722340641
 40
2.5859744175
100
AcDbArc
 50
27.4914028403
 51
30.574725333
  0
ARC
  5
368
100
AcDbEntity
  8
0
100
AcDbCircle
 62
7
  6
BYLAYER
 10
146.6643590995
 20
85.6412979827
 40
18.3668551604
100
AcDbArc
 50
15.7488789636
 51
16.569232172
  0
ARC
  5
369
100
AcDbEntity
  8
0
100
AcDbCircle
 62
7
  6
BYLAYER
 10
147.0682278193
 20
85.754443907
 40
17.9474372159
100
AcDbArc
 50
14.376152244
 51
15.7511781878
  0
ARC
  5
36A
100
AcDbEntity
  8
0
100
AcDbCircle
 62
7
  6
BYLAYER
 10
147.3379782685
 20
85.9166895673
 40
17.3841244997
100
AcDbArc
 50
14.2513756174
 51
15.6125213354
  0
ARC
  5
36B
100
AcDbEntity
  8
0
100
AcDbCircle
 62
7
  6
BYLAYER
 10
146.6308744313
 20
85.5084454135
 40
17.3841244997
100
AcDbArc
 50
14.2513756174
 51
15.6125213354
  0
ARC
  5
36C
100
AcDbEntity
  8
0
100
AcDbCircle
 62
7
  6
BYLAYER
 10
149.9911103017
 20
86.3524639625
 40
14.9623179045
100
AcDbArc
 50
7.3436472068
 51
8.8603377454
  0
ARC
  5
36D
100
AcDbEntity
  8
0
100
AcDbCircle
 62
7
  6
BYLAYER
 10
149.3467099285
 20
86.0650728332
 40
14.6103609208
100
AcDbArc
 50
7.2202594105
 51
8.7562052806
  0
ARC
  5
36E
100
AcDbEntity
  8
0
100
AcDbCircle
 62
7
  6
BYLAYER
 10
152.2398022636
 20
86.2965384853
 40
11.7060232392
100
AcDbArc
 50
0.5961265304
 51
0.8914174564
  0
ARC
  5
36F
100
AcDbEntity
  8
0
100
AcDbCircle
 62
7
  6
BYLAYER
 10
152.3962177867
 20
86.2980303503
 40
11.5496006612
100
AcDbArc
 50
0.0008963902
 51
0.596799179
  0
ARC
  5
370
100
AcDbEntity
  8
0
100
AcDbCircle
 62
7
  6
BYLAYER
 10
152.6553773066
 20
86.2978037167
 40
11.2904411472
100
AcDbArc
 50
359.0945855941
 51
0.0020670668
  0
ARC
  5
371
100
AcDbEntity
  8
0
100
AcDbCircle
 62
7
  6
BYLAYER
 10
155.9991993645
 20
86.3600599882
 40
8.931944819
100
AcDbArc
 50
349.5716975407
 51
351.7475541611
  0
ARC
  5
372
100
AcDbEntity
  8
0
100
AcDbCircle
 62
7
  6
BYLAYER
 10
155.2317531444
 20
86.0905857574
 40
8.7033217918
100
AcDbArc
 50
349.4082964002
 51
351.5778030513
  0
ARC
  5
373
100
AcDbEntity
  8
0
100
AcDbCircle
 62
7
  6
BYLAYER
 10
155.7295936132
 20
82.4695081882
 40
1.0131832897
100
AcDbArc
 50
167.0669482086
 51
170.1301983478
  0
ARC
  5
374
100
AcDbEntity
  8
0
100
AcDbCircle
 62
7
  6
BYLAYER
 10
151.6279160145
 20
84.6936388844
 40
0.5100169076
100
AcDbArc
 50
115.8721555625
 51
120.0631352797
  0
ARC
  5
375
100
AcDbEntity
  8
0
100
AcDbCircle
 62
7
  6
BYLAYER
 10
146.6670307817
 20
86.9143731707
 40
17.4692236429
100
AcDbArc
 50
44.388954864
 51
45.7501142196
  0
ARC
  5
376
100
AcDbEntity
  8
0
100
AcDbCircle
 62
7
  6
BYLAYER
 10
148.195905346
 20
88.760357516
 40
15.338836442
100
AcDbArc
 50
50.7176987265
 51
51.1504285812
  0
ARC
  5
377
100
AcDbEntity
  8
0
100
AcDbCircle
 62
7
  6
BYLAYER
 10
148.4314444033
 20
89.0545846945
 40
14.9619452354
100
AcDbArc
 50
51.1461188491
 51
52.6512302898
  0
ARC
  5
378
100
AcDbEntity
  8
0
100
AcDbCircle
 62
7
  6
BYLAYER
 10
150.0538137655
 20
86.473316987
 40
14.610360921
100
AcDbArc
 50
7.2202594105
 51
8.7562052806
  0
ARC
  5
379
100
AcDbEntity
  8
0
100
AcDbCircle
 62
7
  6
BYLAYER
 10
148.636225127
 20
89.1365412824
 40
14.4982454229
100
AcDbArc
 50
51.2443665566
 51
52.7803337256
  0
ARC
  5
37A
100
AcDbEntity
  8
0
100
AcDbCircle
 62
7
  6
BYLAYER
 10
147.92912129
 20
88.7282971287
 40
14.4982454226
100
AcDbArc
 50
51.2443665566
 51
52.7803337256
  0
ARC
  5
37B
100
AcDbEntity
  8
0
100
AcDbCircle
 62
7
  6
BYLAYER
 10
152.7818876325
 20
86.5756120744
 40
12.1609752598
100
AcDbArc
 50
0.7444282719
 51
1.5152001807
  0
ARC
  5
37C
100
AcDbEntity
  8
0
100
AcDbCircle
 62
7
  6
BYLAYER
 10
150.0963161911
 20
91.48611039
 40
12.0131562222
100
AcDbArc
 50
58.4748720849
 51
59.9941009527
  0
ARC
  5
37D
100
AcDbEntity
  8
0
100
AcDbCircle
 62
7
  6
BYLAYER
 10
153.0856074026
 20
86.5795795336
 40
11.8572295784
100
AcDbArc
 50
0.0015520815
 51
0.7443263716
  0
ARC
  5
37E
100
AcDbEntity
  8
0
100
AcDbCircle
 62
7
  6
BYLAYER
 10
153.3223528773
 20
86.5797539182
 40
11.6204841002
100
AcDbArc
 50
359.430325349
 51
0.0007238838
  0
ARC
  5
37F
100
AcDbEntity
  8
0
100
AcDbCircle
 62
7
  6
BYLAYER
 10
153.051375475
 20
86.706048791
 40
11.6015468158
100
AcDbArc
 50
0.0020070909
 51
0.8931918484
  0
ARC
  5
380
100
AcDbEntity
  8
0
100
AcDbCircle
 62
7
  6
BYLAYER
 10
150.3045349785
 20
91.5892963949
 40
11.5297662949
100
AcDbArc
 50
59.1012541588
 51
60.8998683675
  0
ARC
  5
381
100
AcDbEntity
  8
0
100
AcDbCircle
 62
7
  6
BYLAYER
 10
149.5974311412
 20
91.1810522409
 40
11.529766295
100
AcDbArc
 50
59.1012541588
 51
60.8998683675
  0
ARC
  5
382
100
AcDbEntity
  8
0
100
AcDbCircle
 62
7
  6
BYLAYER
 10
153.3624811433
 20
86.7060478706
 40
11.2904411477
100
AcDbArc
 50
359.0945855942
 51
0.0020670668
  0
ARC
  5
383
100
AcDbEntity
  8
0
100
AcDbCircle
 62
7
  6
BYLAYER
 10
155.9388569815
 20
86.4988299113
 40
8.7033217919
100
AcDbArc
 50
349.4082964002
 51
351.5778030513
  0
ARC
  5
384
100
AcDbEntity
  8
0
100
AcDbCircle
 62
7
  6
BYLAYER
 10
154.1588034985
 20
87.072526223
 40
1.99490262
100
AcDbArc
 50
274.8685075555
 51
275.4070562947
  0
ARC
  5
385
100
AcDbEntity
  8
0
100
AcDbCircle
 62
7
  6
BYLAYER
 10
158.1302645665
 20
85.815947826
 40
6.7293452228
100
AcDbArc
 50
338.6775546131
 51
340.9645728412
  0
ARC
  5
386
100
AcDbEntity
  8
0
100
AcDbCircle
 62
7
  6
BYLAYER
 10
158.1641045058
 20
85.9167774489
 40
6.3993669316
100
AcDbArc
 50
337.6018883874
 51
340.2518853603
  0
ARC
  5
387
100
AcDbEntity
  8
0
100
AcDbCircle
 62
7
  6
BYLAYER
 10
157.4570006685
 20
85.5085332951
 40
6.3993669316
100
AcDbArc
 50
337.6018883874
 51
340.2518853603
  0
ARC
  5
388
100
AcDbEntity
  8
0
100
AcDbCircle
 62
7
  6
BYLAYER
 10
158.5092902389
 20
85.6671841493
 40
6.3221714568
100
AcDbArc
 50
335.6394985377
 51
338.6844491518
  0
ARC
  5
389
100
AcDbEntity
  8
0
100
AcDbCircle
 62
7
  6
BYLAYER
 10
160.0551382092
 20
85.8414566879
 40
5.5693407373
100
AcDbArc
 50
267.1986273759
 51
271.9477834078
  0
ARC
  5
38A
100
AcDbEntity
  8
0
100
AcDbCircle
 62
7
  6
BYLAYER
 10
159.4244045282
 20
85.1987770339
 40
5.2931494786
100
AcDbArc
 50
326.3570255401
 51
329.4820355133
  0
ARC
  5
38B
100
AcDbEntity
  8
0
100
AcDbCircle
 62
7
  6
BYLAYER
 10
160.0671517044
 20
85.4056564043
 40
5.1333846952
100
AcDbArc
 50
271.9790992393
 51
275.9139939247
  0
ARC
  5
38C
100
AcDbEntity
  8
0
100
AcDbCircle
 62
7
  6
BYLAYER
 10
159.6448599912
 20
85.0521862115
 40
5.0284053186
100
AcDbArc
 50
323.1504658385
 51
326.3559071684
  0
ARC
  5
38D
100
AcDbEntity
  8
0
100
AcDbCircle
 62
7
  6
BYLAYER
 10
159.4742137893
 20
85.2466769779
 40
4.924665699
100
AcDbArc
 50
323.3108922928
 51
326.4820101193
  0
ARC
  5
38E
100
AcDbEntity
  8
0
100
AcDbCircle
 62
7
  6
BYLAYER
 10
158.7671099521
 20
84.8384328241
 40
4.9246656991
100
AcDbArc
 50
323.3108922928
 51
326.4820101193
  0
ARC
  5
38F
100
AcDbEntity
  8
0
100
AcDbCircle
 62
7
  6
BYLAYER
 10
160.0902743578
 20
85.1693554874
 40
4.8959591789
100
AcDbArc
 50
275.929766676
 51
278.083479586
  0
ARC
  5
390
100
AcDbEntity
  8
0
100
AcDbCircle
 62
7
  6
BYLAYER
 10
159.2181798859
 20
85.0607285058
 40
4.888269902
100
AcDbArc
 50
273.5191818354
 51
276.6903479236
  0
ARC
  5
391
100
AcDbEntity
  8
0
100
AcDbCircle
 62
7
  6
BYLAYER
 10
160.1032451403
 20
85.0748153963
 40
4.8005345399
100
AcDbArc
 50
278.0888733761
 51
278.652481823
  0
ARC
  5
392
100
AcDbEntity
  8
0
100
AcDbCircle
 62
7
  6
BYLAYER
 10
160.1215751021
 20
84.9597634188
 40
4.684034463
100
AcDbArc
 50
278.6425393141
 51
281.8038268524
  0
ARC
  5
393
100
AcDbEntity
  8
0
100
AcDbCircle
 62
7
  6
BYLAYER
 10
160.1914675325
 20
84.6627816528
 40
4.3788332478
100
AcDbArc
 50
284.3457699403
 51
291.772656469
  0
ARC
  5
394
100
AcDbEntity
  8
0
100
AcDbCircle
 62
7
  6
BYLAYER
 10
160.152721045
 20
84.6169866475
 40
4.358359842
100
AcDbArc
 50
310.4770960608
 51
313.4052843101
  0
ARC
  5
395
100
AcDbEntity
  8
0
100
AcDbCircle
 62
7
  6
BYLAYER
 10
160.2068328259
 20
84.5536515626
 40
4.2750566876
100
AcDbArc
 50
307.1714991022
 51
310.4764611371
  0
ARC
  5
396
100
AcDbEntity
  8
0
100
AcDbCircle
 62
7
  6
BYLAYER
 10
160.2398936726
 20
84.5323858001
 40
4.2397783592
100
AcDbArc
 50
291.8185425045
 51
293.7089287372
  0
ARC
  5
397
100
AcDbEntity
  8
0
100
AcDbCircle
 62
7
  6
BYLAYER
 10
160.2575635848
 20
84.4863685574
 40
4.1907918711
100
AcDbArc
 50
300.0152708856
 51
307.1746266959
  0
ARC
  5
398
100
AcDbEntity
  8
0
100
AcDbCircle
 62
7
  6
BYLAYER
 10
160.2626770649
 20
84.4813469387
 40
4.1838862094
100
AcDbArc
 50
293.7042968389
 51
299.9890358007
  0
ARC
  5
399
100
AcDbEntity
  8
0
100
AcDbCircle
 62
7
  6
BYLAYER
 10
159.3597002975
 20
84.3555749293
 40
4.1672694517
100
AcDbArc
 50
289.6118187115
 51
293.1534138803
  0
ARC
  5
39A
100
AcDbEntity
  8
0
100
AcDbCircle
 62
7
  6
BYLAYER
 10
159.3527922345
 20
84.3222547494
 40
4.1415895642
100
AcDbArc
 50
306.846562638
 51
310.3881369168
  0
ARC
  5
39B
100
AcDbEntity
  8
0
100
AcDbCircle
 62
7
  6
BYLAYER
 10
164.9593998069
 20
82.9969327161
 40
2.6323772281
100
AcDbArc
 50
206.1908497662
 51
212.6703197202
  0
ARC
  5
39C
100
AcDbEntity
  8
0
100
AcDbCircle
 62
7
  6
BYLAYER
 10
165.6373253729
 20
84.1659176908
 40
2.6301787179
100
AcDbArc
 50
207.5158299964
 51
218.5364836399
  0
ARC
  5
39D
100
AcDbEntity
  8
0
100
AcDbCircle
 62
7
  6
BYLAYER
 10
165.5275354586
 20
84.1077677297
 40
2.5059431151
100
AcDbArc
 50
201.237866315
 51
207.4963960815
  0
ARC
  5
39E
100
AcDbEntity
  8
0
100
AcDbCircle
 62
7
  6
BYLAYER
 10
163.6792718889
 20
81.980948201
 40
2.2326739378
100
AcDbArc
 50
195.5206562938
 51
199.2818880892
  0
ARC
  5
39F
100
AcDbEntity
  8
0
100
AcDbCircle
 62
7
  6
BYLAYER
 10
159.3480207007
 20
81.2083124188
 40
1.6511092423
100
AcDbArc
 50
181.617805893
 51
187.7849350973
  0
ARC
  5
3A0
100
AcDbEntity
  8
0
100
AcDbCircle
 62
7
  6
BYLAYER
 10
157.6005934803
 20
81.6545746575
 40
1.3752809965
100
AcDbArc
 50
175.9052696649
 51
179.7188604071
  0
ARC
  5
3A1
100
AcDbEntity
  8
0
100
AcDbCircle
 62
7
  6
BYLAYER
 10
161.9358058827
 20
91.5778267728
 40
11.6638132921
100
AcDbArc
 50
240.0003753602
 51
240.2898116681
  0
ARC
  5
3A2
100
AcDbEntity
  8
0
100
AcDbCircle
 62
7
  6
BYLAYER
 10
161.125581625
 20
91.3274553653
 40
11.5297662949
100
AcDbArc
 50
239.1012541588
 51
240.8998683675
  0
ARC
  5
3A3
100
AcDbEntity
  8
0
100
AcDbCircle
 62
7
  6
BYLAYER
 10
161.7704705198
 20
91.2849622288
 40
11.3275054562
100
AcDbArc
 50
240.2819889322
 51
242.1620011347
  0
ARC
  5
3A4
100
AcDbEntity
  8
0
100
AcDbCircle
 62
7
  6
BYLAYER
 10
160.9121621505
 20
89.4872292983
 40
9.3344022092
100
AcDbArc
 50
246.7466870914
 51
249.4790442518
  0
ARC
  5
3A5
100
AcDbEntity
  8
0
100
AcDbCircle
 62
7
  6
BYLAYER
 10
160.7415840813
 20
89.0441688623
 40
8.8596615785
100
AcDbArc
 50
249.507751851
 51
249.714602359
  0
ARC
  5
3A6
100
AcDbEntity
  8
0
100
AcDbCircle
 62
7
  6
BYLAYER
 10
160.7150244112
 20
88.9722109975
 40
8.7829585855
100
AcDbArc
 50
249.7143728644
 51
250.0797720758
  0
ARC
  5
3A7
100
AcDbEntity
  8
0
100
AcDbCircle
 62
7
  6
BYLAYER
 10
159.8748323484
 20
88.7221623912
 40
8.6364899852
100
AcDbArc
 50
248.4227069925
 51
250.5922561233
  0
ARC
  5
3A8
100
AcDbEntity
  8
0
100
AcDbCircle
 62
7
  6
BYLAYER
 10
160.635950986
 20
88.7519519747
 40
8.5489369269
100
AcDbArc
 50
250.0750639613
 51
251.5334568008
  0
ARC
  5
3A9
100
AcDbEntity
  8
0
100
AcDbCircle
 62
7
  6
BYLAYER
 10
160.1946338653
 20
87.1183395279
 40
6.8552001863
100
AcDbArc
 50
259.2780673012
 51
259.5406987443
  0
ARC
  5
3AA
100
AcDbEntity
  8
0
100
AcDbCircle
 62
7
  6
BYLAYER
 10
160.1708969492
 20
86.9874402358
 40
6.7221667865
100
AcDbArc
 50
259.5371140974
 51
260.9062210192
  0
ARC
  5
3AB
100
AcDbEntity
  8
0
100
AcDbCircle
 62
7
  6
BYLAYER
 10
159.2944204457
 20
86.59766468
 40
6.4307672643
100
AcDbArc
 50
259.7468552988
 51
262.3969039008
  0
ARC
  5
3AC
100
AcDbEntity
  8
0
100
AcDbCircle
 62
7
  6
BYLAYER
 10
160.1231399031
 20
86.6851364021
 40
6.416114606
100
AcDbArc
 50
260.9006612752
 51
264.0070878426
  0
ARC
  5
3AD
100
AcDbEntity
  8
0
100
AcDbCircle
 62
7
  6
BYLAYER
 10
166.2386261668
 20
87.1970700382
 40
2.6068662218
100
AcDbArc
 50
203.7571390549
 51
207.6110305515
  0
ARC
  5
3AE
100
AcDbEntity
  8
0
100
AcDbCircle
 62
7
  6
BYLAYER
 10
166.1268094378
 20
88.9785929718
 40
2.5766644723
100
AcDbArc
 50
204.5695258619
 51
205.2373115148
  0
ARC
  5
3AF
100
AcDbEntity
  8
0
100
AcDbCircle
 62
7
  6
BYLAYER
 10
166.3706859378
 20
97.4484246719
 40
19.6324439832
100
AcDbArc
 50
218.166661227
 51
219.4217905511
  0
ARC
  5
3B0
100
AcDbEntity
  8
0
100
AcDbCircle
 62
7
  6
BYLAYER
 10
164.7630858214
 20
96.002378589
 40
17.4692236422
100
AcDbArc
 50
224.3889548639
 51
225.7501142197
  0
ARC
  5
3B1
100
AcDbEntity
  8
0
100
AcDbCircle
 62
7
  6
BYLAYER
 10
164.092138335
 20
97.0000621929
 40
17.3841244997
100
AcDbArc
 50
194.2513756174
 51
195.6125213354
  0
ARC
  5
3B2
100
AcDbEntity
  8
0
100
AcDbCircle
 62
7
  6
BYLAYER
 10
161.376302838
 20
96.4434347732
 40
14.610360921
100
AcDbArc
 50
187.2202594105
 51
188.7562052806
  0
ARC
  5
3B3
100
AcDbEntity
  8
0
100
AcDbCircle
 62
7
  6
BYLAYER
 10
162.7964414832
 20
93.7835063145
 40
14.5024124002
100
AcDbArc
 50
231.2442201161
 51
232.7801872847
  0
ARC
  5
3B4
100
AcDbEntity
  8
0
100
AcDbCircle
 62
7
  6
BYLAYER
 10
158.3787411286
 20
96.2107029692
 40
11.6015468158
100
AcDbArc
 50
180.0020070909
 51
180.8931918484
  0
ARC
  5
3B5
100
AcDbEntity
  8
0
100
AcDbCircle
 62
7
  6
BYLAYER
 10
158.0676354602
 20
96.2107038897
 40
11.2904411477
100
AcDbArc
 50
179.0945855942
 51
180.0020670668
  0
ARC
  5
3B6
100
AcDbEntity
  8
0
100
AcDbCircle
 62
7
  6
BYLAYER
 10
155.4912596221
 20
96.4179218489
 40
8.7033217919
100
AcDbArc
 50
169.4082964002
 51
171.5778030513
  0
ARC
  5
3B7
100
AcDbEntity
  8
0
100
AcDbCircle
 62
7
  6
BYLAYER
 10
151.5544110328
 20
94.192296495
 40
8.6389433127
100
AcDbArc
 50
68.4229138488
 51
70.5924629811
  0
ARC
  5
3B8
100
AcDbEntity
  8
0
100
AcDbCircle
 62
7
  6
BYLAYER
 10
150.8473071956
 20
93.7840523411
 40
8.6389433127
100
AcDbArc
 50
68.4229138488
 51
70.5924629811
  0
ARC
  5
3B9
100
AcDbEntity
  8
0
100
AcDbCircle
 62
7
  6
BYLAYER
 10
152.1356961579
 20
96.3190870802
 40
6.4307672643
100
AcDbArc
 50
79.7468552988
 51
82.3969039008
  0
ARC
  5
3BA
100
AcDbEntity
  8
0
100
AcDbCircle
 62
7
  6
BYLAYER
 10
151.4285923206
 20
95.9108429263
 40
6.4307672643
100
AcDbArc
 50
79.7468552988
 51
82.3969039008
  0
ARC
  5
3BB
100
AcDbEntity
  8
0
100
AcDbCircle
 62
7
  6
BYLAYER
 10
151.9559635088
 20
97.6701385902
 40
4.9246810498
100
AcDbArc
 50
143.3119012464
 51
146.4830190601
  0
ARC
  5
3BC
100
AcDbEntity
  8
0
100
AcDbCircle
 62
7
  6
BYLAYER
 10
152.2119367176
 20
97.8560232544
 40
4.888269902
100
AcDbArc
 50
93.5191818355
 51
96.6903479236
  0
ARC
  5
3BD
100
AcDbEntity
  8
0
100
AcDbCircle
 62
7
  6
BYLAYER
 10
151.5048328804
 20
97.4477791006
 40
4.888269902
100
AcDbArc
 50
93.5191818354
 51
96.6903479236
  0
ARC
  5
3BE
100
AcDbEntity
  8
0
100
AcDbCircle
 62
7
  6
BYLAYER
 10
152.070416306
 20
98.561176831
 40
4.1672694517
100
AcDbArc
 50
109.6118187115
 51
113.1534138802
  0
ARC
  5
3BF
100
AcDbEntity
  8
0
100
AcDbCircle
 62
7
  6
BYLAYER
 10
151.3633124688
 20
98.1529326771
 40
4.1672694517
100
AcDbArc
 50
109.6118187115
 51
113.1534138802
  0
ARC
  5
3C0
100
AcDbEntity
  8
0
100
AcDbCircle
 62
7
  6
BYLAYER
 10
151.3702205319
 20
98.186252857
 40
4.1415895641
100
AcDbArc
 50
126.846562638
 51
130.3881369168
  0
ARC
  5
3C1
100
AcDbEntity
  8
0
100
AcDbCircle
 62
7
  6
BYLAYER
 10
153.0592102095
 20
103.7196878468
 40
2.6871034824
100
AcDbArc
 50
207.3132796032
 51
213.6978059276
  0
ARC
  5
3C2
100
AcDbEntity
  8
0
100
AcDbCircle
 62
7
  6
BYLAYER
 10
154.3297903928
 20
103.687383113
 40
2.5986868501
100
AcDbArc
 50
201.497294503
 51
212.8021166851
  0
ARC
  5
3C3
100
AcDbEntity
  8
0
100
AcDbCircle
 62
7
  6
BYLAYER
 10
154.3202737628
 20
103.6779977437
 40
2.5856047009
100
AcDbArc
 50
212.7415478573
 51
214.5185365731
  0
ARC
  5
3C4
100
AcDbEntity
  8
0
100
AcDbCircle
 62
7
  6
BYLAYER
 10
157.2661643189
 20
102.6882664774
 40
2.582029866
100
AcDbArc
 50
214.9166046366
 51
216.2277110428
  0
ARC
  5
3C5
100
AcDbEntity
  8
0
100
AcDbCircle
 62
7
  6
BYLAYER
 10
158.7703962794
 20
101.7128857353
 40
2.5729634092
100
AcDbArc
 50
214.7865316291
 51
215.4534830653
  0
ARC
  5
3C6
100
AcDbEntity
  8
0
100
AcDbCircle
 62
7
  6
BYLAYER
 10
152.9224611267
 20
103.6271043561
 40
2.521965395
100
AcDbArc
 50
213.6715187083
 51
218.3678437688
  0
ARC
  5
3C7
100
AcDbEntity
  8
0
100
AcDbCircle
 62
7
  6
BYLAYER
 10
154.2652448714
 20
103.6390975107
 40
2.518220481
100
AcDbArc
 50
214.4987830208
 51
219.3278446912
  0
ARC
  5
3C8
100
AcDbEntity
  8
0
100
AcDbCircle
 62
7
  6
BYLAYER
 10
152.7873432586
 20
103.5217175481
 40
2.3506132281
100
AcDbArc
 50
218.3980939878
 51
221.4533424134
  0
ARC
  5
3C9
100
AcDbEntity
  8
0
100
AcDbCircle
 62
7
  6
BYLAYER
 10
146.8343396939
 20
99.0081285462
 40
1.5485661774
100
AcDbArc
 50
1.2260734616
 51
4.6803597553
  0
ARC
  5
3CA
100
AcDbEntity
  8
0
100
AcDbCircle
 62
7
  6
BYLAYER
 10
148.1432470473
 20
97.9493939148
 40
1.3264787868
100
AcDbArc
 50
240.2838972474
 51
244.2442302843
  0
ARC
  5
3CB
100
AcDbEntity
  8
0
100
AcDbCircle
 62
7
  6
BYLAYER
 10
147.9512407477
 20
96.0039218945
 40
1.0528463801
100
AcDbArc
 50
249.8699402624
 51
252.7951018934
  0
ARC
  5
3CC
100
AcDbEntity
  8
0
100
AcDbCircle
 62
7
  6
BYLAYER
 10
158.3712228368
 20
99.9950259641
 40
0.9465026788
100
AcDbArc
 50
250.9074707832
 51
257.2533580892
  0
SPLINE
  5
3CD
100
AcDbEntity
  8
0
100
AcDbSpline
 62
7
  6
BYLAYER
 70
0
 71
3
 72
10
 73
6
 74
0
 42
0.0000001
 43
0.0000001
 44
0.0000000001
 40
0.0
 40
0.0
 40
0.0
 40
0.0
 40
0.2342310068
 40
0.4799573205
 40
1.0
 40
1.0
 40
1.0
 40
1.0
 10
23.0966473675
 20
165.5254855707
 30
0.0
 10
23.0966473675
 20
165.9071376581
 30
0.0
 10
23.1342110669
 20
166.6895653428
 30
0.0
 10
23.3493779859
 20
168.3059497991
 30
0.0
 10
23.6591066988
 20
169.520697796
 30
0.0
 10
23.9213890466
 20
170.3264322699
 30
0.0
  0
SPLINE
  5
3CE
100
AcDbEntity
  8
0
100
AcDbSpline
 62
7
  6
BYLAYER
 70
0
 71
3
 72
10
 73
6
 74
0
 42
0.0000001
 43
0.0000001
 44
0.0000000001
 40
0.0
 40
0.0
 40
0.0
 40
0.0
 40
0.4688277647
 40
0.7265752183
 40
1.0
 40
1.0
 40
1.0
 40
1.0
 10
23.9220101527
 20
161.6756724048
 30
0.0
 10
23.6351025832
 20
162.2254546316
 30
0.0
 10
23.3263767629
 20
163.1516343268
 30
0.0
 10
23.1287407904
 20
164.4602562239
 30
0.0
 10
23.0966473675
 20
165.1638127327
 30
0.0
 10
23.0966473675
 20
165.5254855707
 30
0.0
  0
SPLINE
  5
3CF
100
AcDbEntity
  8
0
100
AcDbSpline
 62
7
  6
BYLAYER
 70
0
 71
3
 72
9
 73
5
 74
0
 42
0.0000001
 43
0.0000001
 44
0.0000000001
 40
0.0
 40
0.0
 40
0.0
 40
0.0
 40
0.2458346575
 40
1.0
 40
1.0
 40
1.0
 40
1.0
 10
150.0684568425
 20
93.9718239254
 30
0.0
 10
150.0144872659
 20
93.9406690034
 30
0.0
 10
149.8021010867
 20
93.8016638326
 30
0.0
 10
149.6228010466
 20
93.6142348597
 30
0.0
 10
149.5120382767
 20
93.458418619
 30
0.0
  0
SPLINE
  5
3D0
100
AcDbEntity
  8
0
100
AcDbSpline
 62
7
  6
BYLAYER
 70
0
 71
3
 72
9
 73
5
 74
0
 42
0.0000001
 43
0.0000001
 44
0.0000000001
 40
0.0
 40
0.0
 40
0.0
 40
0.0
 40
0.5471729047
 40
1.0
 40
1.0
 40
1.0
 40
1.0
 10
150.4541469325
 20
107.0452845978
 30
0.0
 10
150.4541469325
 20
107.0024527596
 30
0.0
 10
150.4443927182
 20
106.9230537143
 30
0.0
 10
150.3998127136
 20
106.8535771727
 30
0.0
 10
150.3722547551
 20
106.8312832253
 30
0.0
  0
SPLINE
  5
3D1
100
AcDbEntity
  8
0
100
AcDbSpline
 62
7
  6
BYLAYER
 70
0
 71
3
 72
11
 73
7
 74
0
 42
0.0000001
 43
0.0000001
 44
0.0000000001
 40
0.0
 40
0.0
 40
0.0
 40
0.0
 40
0.2898002887
 40
0.5490497786
 40
0.7822282096
 40
1.0
 40
1.0
 40
1.0
 40
1.0
 10
179.0849137209
 20
94.7447838107
 30
0.0
 10
179.0849137209
 20
94.1112096902
 30
0.0
 10
178.9892292668
 20
92.9067062518
 30
0.0
 10
178.5008896263
 20
91.2519265768
 30
0.0
 10
177.6800329302
 20
89.9089828645
 30
0.0
 10
176.9083207679
 20
89.2605280827
 30
0.0
 10
176.496003506
 20
89.0224780215
 30
0.0
  0
SPLINE
  5
3D2
100
AcDbEntity
  8
0
100
AcDbSpline
 62
7
  6
BYLAYER
 70
0
 71
3
 72
15
 73
11
 74
0
 42
0.0000001
 43
0.0000001
 44
0.0000000001
 40
0.0
 40
0.0
 40
0.0
 40
0.0
 40
0.1141546703
 40
0.2373261017
 40
0.3669753162
 40
0.4999989361
 40
0.6330227034
 40
0.7626723508
 40
0.8858444607
 40
1.0
 40
1.0
 40
1.0
 40
1.0
 10
170.2460421565
 20
110.0540734563
 30
0.0
 10
170.8511336675
 20
109.7047316127
 30
0.0
 10
172.0462980412
 20
108.8669427585
 30
0.0
 10
173.6907801194
 20
107.3284172732
 30
0.0
 10
175.2062592036
 20
105.5097632352
 30
0.0
 10
176.5356539803
 20
103.4792041871
 30
0.0
 10
177.6294837187
 20
101.3126378208
 30
0.0
 10
178.4467590105
 20
99.0908645086
 30
0.0
 10
178.9569367457
 20
96.8974300217
 30
0.0
 10
179.0849137209
 20
95.4434846719
 30
0.0
 10
179.0849137209
 20
94.7447838107
 30
0.0
  0
SPLINE
  5
3D3
100
AcDbEntity
  8
0
100
AcDbSpline
 62
7
  6
BYLAYER
 70
0
 71
3
 72
9
 73
5
 74
0
 42
0.0000001
 43
0.0000001
 44
0.0000000001
 40
0.0
 40
0.0
 40
0.0
 40
0.0
 40
0.2391720442
 40
1.0
 40
1.0
 40
1.0
 40
1.0
 10
164.3096586748
 20
125.5003448405
 30
0.0
 10
164.2719674231
 20
125.5061092501
 30
0.0
 10
164.1111915426
 20
125.5106055314
 30
0.0
 10
163.9553910349
 20
125.4494550021
 30
0.0
 10
163.8503495278
 20
125.3888054287
 30
0.0
  0
SPLINE
  5
3D4
100
AcDbEntity
  8
0
100
AcDbSpline
 62
7
  6
BYLAYER
 70
0
 71
3
 72
9
 73
5
 74
0
 42
0.0000001
 43
0.0000001
 44
0.0000000001
 40
0.0
 40
0.0
 40
0.0
 40
0.0
 40
0.2391720487
 40
1.0
 40
1.0
 40
1.0
 40
1.0
 10
137.9910453516
 20
79.9149163298
 30
0.0
 10
137.9672066188
 20
79.9446758562
 30
0.0
 10
137.8829212904
 20
80.0816653062
 30
0.0
 10
137.857978401
 20
80.2471713887
 30
0.0
 10
137.8579820341
 20
80.3684671108
 30
0.0
  0
SPLINE
  5
3D5
100
AcDbEntity
  8
0
100
AcDbSpline
 62
7
  6
BYLAYER
 70
0
 71
3
 72
11
 73
7
 74
0
 42
0.0000001
 43
0.0000001
 44
0.0000000001
 40
0.0
 40
0.0
 40
0.0
 40
0.0
 40
0.2348692005
 40
0.4785393984
 40
0.734024482
 40
1.0
 40
1.0
 40
1.0
 40
1.0
 10
136.9996793819
 20
83.6323646658
 30
0.0
 10
136.8306433969
 20
83.7299554294
 30
0.0
 10
136.4451911389
 20
83.8636771986
 30
0.0
 10
135.826675404
 20
83.8612852245
 30
0.0
 10
135.2071398068
 20
83.6972448282
 30
0.0
 10
134.8149632887
 20
83.5075068727
 30
0.0
 10
134.6235431197
 20
83.3969856934
 30
0.0
  0
SPLINE
  5
3D6
100
AcDbEntity
  8
0
100
AcDbSpline
 62
7
  6
BYLAYER
 70
0
 71
3
 72
9
 73
5
 74
0
 42
0.0000001
 43
0.0000001
 44
0.0000000001
 40
0.0
 40
0.0
 40
0.0
 40
0.0
 40
0.4668188765
 40
1.0
 40
1.0
 40
1.0
 40
1.0
 10
152.8199885043
 20
83.7935020965
 30
0.0
 10
152.8956813014
 20
83.8372914443
 30
0.0
 10
153.0856243007
 20
83.8858494033
 30
0.0
 10
153.2740644425
 20
83.8487119932
 30
0.0
 10
153.3684897619
 20
83.8161628486
 30
0.0
  0
SPLINE
  5
3D7
100
AcDbEntity
  8
0
100
AcDbSpline
 62
7
  6
BYLAYER
 70
0
 71
3
 72
9
 73
5
 74
0
 42
0.0000001
 43
0.0000001
 44
0.0000000001
 40
0.0
 40
0.0
 40
0.0
 40
0.0
 40
0.4819813972
 40
1.0
 40
1.0
 40
1.0
 40
1.0
 10
154.3219255701
 20
82.7182392141
 30
0.0
 10
154.3747032311
 20
82.7486944739
 30
0.0
 10
154.496853551
 20
82.7915061994
 30
0.0
 10
154.6253857118
 20
82.7919753899
 30
0.0
 10
154.6903701309
 20
82.7838500568
 30
0.0
  0
SPLINE
  5
3D8
100
AcDbEntity
  8
0
100
AcDbSpline
 62
7
  6
BYLAYER
 70
0
 71
3
 72
11
 73
7
 74
0
 42
0.0000001
 43
0.0000001
 44
0.0000000001
 40
0.0
 40
0.0
 40
0.0
 40
0.0
 40
0.2348692122
 40
0.4785394134
 40
0.734024501
 40
1.0
 40
1.0
 40
1.0
 40
1.0
 10
132.2939411836
 20
86.3491622173
 30
0.0
 10
132.1249395232
 20
86.446733164
 30
0.0
 10
131.7395655405
 20
86.5804277768
 30
0.0
 10
131.1211754159
 20
86.5780362684
 30
0.0
 10
130.5017656662
 20
86.41402919
 30
0.0
 10
130.1096688043
 20
86.2243297946
 30
0.0
 10
129.918287535
 20
86.1138310596
 30
0.0
  0
SPLINE
  5
3D9
100
AcDbEntity
  8
0
100
AcDbSpline
 62
7
  6
BYLAYER
 70
0
 71
3
 72
11
 73
7
 74
0
 42
0.0000001
 43
0.0000001
 44
0.0000000001
 40
0.0
 40
0.0
 40
0.0
 40
0.0
 40
0.2088479324
 40
0.438513757
 40
0.7016938889
 40
1.0
 40
1.0
 40
1.0
 40
1.0
 10
162.845972457
 20
84.6888849
 30
0.0
 10
162.907213903
 20
84.7241199266
 30
0.0
 10
163.0531025187
 20
84.7704880696
 30
0.0
 10
163.2941261351
 20
84.7532940397
 30
0.0
 10
163.546951773
 20
84.6573077576
 30
0.0
 10
163.7069585954
 20
84.552576962
 30
0.0
 10
163.7867875211
 20
84.4908367069
 30
0.0
  0
SPLINE
  5
3DA
100
AcDbEntity
  8
0
100
AcDbSpline
 62
7
  6
BYLAYER
 70
0
 71
3
 72
11
 73
7
 74
0
 42
0.0000001
 43
0.0000001
 44
0.0000000001
 40
0.0
 40
0.0
 40
0.0
 40
0.0
 40
0.2182570365
 40
0.4515083096
 40
0.710988151
 40
1.0
 40
1.0
 40
1.0
 40
1.0
 10
163.1903772697
 20
86.1907461097
 30
0.0
 10
163.2401663642
 20
86.2195497763
 30
0.0
 10
163.3543843936
 20
86.2613510832
 30
0.0
 10
163.5442509468
 20
86.2667922886
 30
0.0
 10
163.7464573135
 20
86.2187707272
 30
0.0
 10
163.8782367415
 20
86.1571137934
 30
0.0
 10
163.944408771
 20
86.1193943697
 30
0.0
  0
SPLINE
  5
3DB
100
AcDbEntity
  8
0
100
AcDbSpline
 62
7
  6
BYLAYER
 70
0
 71
3
 72
9
 73
5
 74
0
 42
0.0000001
 43
0.0000001
 44
0.0000000001
 40
0.0
 40
0.0
 40
0.0
 40
0.0
 40
0.4646425812
 40
1.0
 40
1.0
 40
1.0
 40
1.0
 10
163.2736405441
 20
87.8867522383
 30
0.0
 10
163.3516414737
 20
87.9319621056
 30
0.0
 10
163.5494470139
 20
87.981109805
 30
0.0
 10
163.7436725349
 20
87.9370800612
 30
0.0
 10
163.8412153959
 20
87.9013618873
 30
0.0
  0
SPLINE
  5
3DC
100
AcDbEntity
  8
0
100
AcDbSpline
 62
7
  6
BYLAYER
 70
0
 71
3
 72
9
 73
5
 74
0
 42
0.0000001
 43
0.0000001
 44
0.0000000001
 40
0.0
 40
0.0
 40
0.0
 40
0.0
 40
0.4804923896
 40
1.0
 40
1.0
 40
1.0
 40
1.0
 10
163.0935269446
 20
89.7248699397
 30
0.0
 10
163.1486344513
 20
89.7566761538
 30
0.0
 10
163.2772137442
 20
89.8005212991
 30
0.0
 10
163.4119571515
 20
89.79813148
 30
0.0
 10
163.4800024912
 20
89.7880094383
 30
0.0
  0
SPLINE
  5
3DD
100
AcDbEntity
  8
0
100
AcDbSpline
 62
7
  6
BYLAYER
 70
0
 71
3
 72
8
 73
4
 74
0
 42
0.0000001
 43
0.0000001
 44
0.0000000001
 40
0.0
 40
0.0
 40
0.0
 40
0.0
 40
1.0
 40
1.0
 40
1.0
 40
1.0
 10
163.5325301314
 20
89.7725083496
 30
0.0
 10
163.5219476641
 20
89.7387526058
 30
0.0
 10
163.5133872426
 20
89.7043134661
 30
0.0
 10
163.5066495113
 20
89.6695853531
 30
0.0
  0
SPLINE
  5
3DE
100
AcDbEntity
  8
0
100
AcDbSpline
 62
7
  6
BYLAYER
 70
0
 71
3
 72
9
 73
5
 74
0
 42
0.0000001
 43
0.0000001
 44
0.0000000001
 40
0.0
 40
0.0
 40
0.0
 40
0.0
 40
0.2364279895
 40
1.0
 40
1.0
 40
1.0
 40
1.0
 10
163.2275441028
 20
91.9458795641
 30
0.0
 10
163.2121824309
 20
91.9281191241
 30
0.0
 10
163.1519278532
 20
91.8489075788
 30
0.0
 10
163.1114233634
 20
91.755797552
 30
0.0
 10
163.090072529
 20
91.6830264786
 30
0.0
  0
SPLINE
  5
3DF
100
AcDbEntity
  8
0
100
AcDbSpline
 62
7
  6
BYLAYER
 70
0
 71
3
 72
9
 73
5
 74
0
 42
0.0000001
 43
0.0000001
 44
0.0000000001
 40
0.0
 40
0.0
 40
0.0
 40
0.0
 40
0.2373549013
 40
1.0
 40
1.0
 40
1.0
 40
1.0
 10
163.090072529
 20
91.6830264786
 30
0.0
 10
163.0834902584
 20
91.6605918097
 30
0.0
 10
163.0594078462
 20
91.5650096907
 30
0.0
 10
163.0491634913
 20
91.4661935114
 30
0.0
 10
163.047565277
 20
91.3910871124
 30
0.0
  0
SPLINE
  5
3E0
100
AcDbEntity
  8
0
100
AcDbSpline
 62
7
  6
BYLAYER
 70
0
 71
3
 72
11
 73
7
 74
0
 42
0.0000001
 43
0.0000001
 44
0.0000000001
 40
0.0
 40
0.0
 40
0.0
 40
0.0
 40
0.2348328256
 40
0.4781440928
 40
0.7336214639
 40
1.0
 40
1.0
 40
1.0
 40
1.0
 10
151.1835669056
 20
129.9334306021
 30
0.0
 10
150.9811564999
 20
130.0388770745
 30
0.0
 10
150.6082835012
 20
130.3375290537
 30
0.0
 10
150.235517487
 20
130.9582574194
 30
0.0
 10
150.0326835855
 20
131.6803442747
 30
0.0
 10
149.9944964046
 20
132.1889684635
 30
0.0
 10
149.9944368598
 20
132.4478571873
 30
0.0
  0
SPLINE
  5
3E1
100
AcDbEntity
  8
0
100
AcDbSpline
 62
7
  6
BYLAYER
 70
0
 71
3
 72
11
 73
7
 74
0
 42
0.0000001
 43
0.0000001
 44
0.0000000001
 40
0.0
 40
0.0
 40
0.0
 40
0.0
 40
0.234873242
 40
0.4785421175
 40
0.7340300216
 40
1.0
 40
1.0
 40
1.0
 40
1.0
 10
127.5218561252
 20
89.1062197025
 30
0.0
 10
127.3294042285
 20
89.2173293433
 30
0.0
 10
126.8905599823
 20
89.3695707814
 30
0.0
 10
126.1863712698
 20
89.3668395804
 30
0.0
 10
125.4810291304
 20
89.1800791914
 30
0.0
 10
125.0345386337
 20
88.9640600514
 30
0.0
 10
124.8166040146
 20
88.8382440264
 30
0.0
  0
SPLINE
  5
3E2
100
AcDbEntity
  8
0
100
AcDbSpline
 62
7
  6
BYLAYER
 70
0
 71
3
 72
9
 73
5
 74
0
 42
0.0000001
 43
0.0000001
 44
0.0000000001
 40
0.0
 40
0.0
 40
0.0
 40
0.0
 40
0.4750442334
 40
1.0
 40
1.0
 40
1.0
 40
1.0
 10
162.6572482697
 20
93.996831845
 30
0.0
 10
162.5987926458
 20
93.9588975623
 30
0.0
 10
162.4919706061
 20
93.8521660596
 30
0.0
 10
162.4310975286
 20
93.7156824889
 30
0.0
 10
162.4088582011
 20
93.6419565414
 30
0.0
  0
SPLINE
  5
3E3
100
AcDbEntity
  8
0
100
AcDbSpline
 62
7
  6
BYLAYER
 70
0
 71
3
 72
9
 73
5
 74
0
 42
0.0000001
 43
0.0000001
 44
0.0000000001
 40
0.0
 40
0.0
 40
0.0
 40
0.0
 40
0.2356080703
 40
1.0
 40
1.0
 40
1.0
 40
1.0
 10
162.4088582011
 20
93.6419565414
 30
0.0
 10
162.4013326378
 20
93.617008427
 30
0.0
 10
162.3740810594
 20
93.5097135844
 30
0.0
 10
162.3643030128
 20
93.3983919487
 30
0.0
 10
162.3643030128
 20
93.3138495797
 30
0.0
  0
SPLINE
  5
3E4
100
AcDbEntity
  8
0
100
AcDbSpline
 62
7
  6
BYLAYER
 70
0
 71
3
 72
11
 73
7
 74
0
 42
0.0000001
 43
0.0000001
 44
0.0000000001
 40
0.0
 40
0.0
 40
0.0
 40
0.0
 40
0.2831046695
 40
0.5402926976
 40
0.7761362664
 40
1.0
 40
1.0
 40
1.0
 40
1.0
 10
107.0098952979
 20
84.1008462646
 30
0.0
 10
107.198697726
 20
84.0155745509
 30
0.0
 10
107.5728153064
 20
83.8804139509
 30
0.0
 10
108.1388094015
 20
83.7951253042
 30
0.0
 10
108.6669933213
 20
83.8433587891
 30
0.0
 10
108.9853812891
 20
83.9683021207
 30
0.0
 10
109.1272697101
 20
84.0501748121
 30
0.0
  0
SPLINE
  5
3E5
100
AcDbEntity
  8
0
100
AcDbSpline
 62
7
  6
BYLAYER
 70
0
 71
3
 72
11
 73
7
 74
0
 42
0.0000001
 43
0.0000001
 44
0.0000000001
 40
0.0
 40
0.0
 40
0.0
 40
0.0
 40
0.2296769145
 40
0.4827273545
 40
0.7449011697
 40
1.0
 40
1.0
 40
1.0
 40
1.0
 10
23.9452166616
 20
136.1396880039
 30
0.0
 10
23.9452166616
 20
135.6943691278
 30
0.0
 10
24.074893213
 20
134.7573761646
 30
0.0
 10
24.5551842736
 20
133.387517129
 30
0.0
 10
25.2908705994
 20
132.0794757729
 30
0.0
 10
25.9310812022
 20
131.2985776639
 30
0.0
 10
26.2819399388
 20
130.9499568837
 30
0.0
  0
SPLINE
  5
3E6
100
AcDbEntity
  8
0
100
AcDbSpline
 62
7
  6
BYLAYER
 70
0
 71
3
 72
9
 73
5
 74
0
 42
0.0000001
 43
0.0000001
 44
0.0000000001
 40
0.0
 40
0.0
 40
0.0
 40
0.0
 40
0.2629105486
 40
1.0
 40
1.0
 40
1.0
 40
1.0
 10
26.2819399388
 20
130.9499568837
 30
0.0
 10
26.376556042
 20
130.8559442905
 30
0.0
 10
26.7463007633
 20
130.5086885541
 30
0.0
 10
27.1569180021
 20
130.2029412332
 30
0.0
 10
27.4807652873
 20
130.0159721457
 30
0.0
  0
SPLINE
  5
3E7
100
AcDbEntity
  8
0
100
AcDbSpline
 62
7
  6
BYLAYER
 70
0
 71
3
 72
13
 73
9
 74
0
 42
0.0000001
 43
0.0000001
 44
0.0000000001
 40
0.0
 40
0.0
 40
0.0
 40
0.0
 40
0.2600864817
 40
0.382243979
 40
0.50000042
 40
0.6177567967
 40
0.7399133216
 40
1.0
 40
1.0
 40
1.0
 40
1.0
 10
133.8036228014
 20
82.7826388025
 30
0.0
 10
133.7316431381
 20
82.7410746407
 30
0.0
 10
133.61443466
 20
82.693322287
 30
0.0
 10
133.452461813
 20
82.6927165671
 30
0.0
 10
133.3419622485
 20
82.7309768504
 30
0.0
 10
133.253578641
 20
82.8075422791
 30
0.0
 10
133.1731172783
 20
82.9481176884
 30
0.0
 10
133.1558684261
 20
83.0734992624
 30
0.0
 10
133.1558745046
 20
83.1566176231
 30
0.0
  0
SPLINE
  5
3E8
100
AcDbEntity
  8
0
100
AcDbSpline
 62
7
  6
BYLAYER
 70
0
 71
3
 72
11
 73
7
 74
0
 42
0.0000001
 43
0.0000001
 44
0.0000000001
 40
0.0
 40
0.0
 40
0.0
 40
0.0
 40
0.237239768
 40
0.4999988393
 40
0.7627585384
 40
1.0
 40
1.0
 40
1.0
 40
1.0
 10
147.6184720725
 20
148.8374286532
 30
0.0
 10
148.1204203734
 20
148.5476352225
 30
0.0
 10
149.0702892415
 20
147.7482005072
 30
0.0
 10
150.178915302
 20
146.2332294208
 30
0.0
 10
150.936615343
 20
144.5156452506
 30
0.0
 10
151.1540206982
 20
143.2933136277
 30
0.0
 10
151.1540206982
 20
142.7137127949
 30
0.0
  0
SPLINE
  5
3E9
100
AcDbEntity
  8
0
100
AcDbSpline
 62
7
  6
BYLAYER
 70
0
 71
3
 72
12
 73
8
 74
0
 42
0.0000001
 43
0.0000001
 44
0.0000000001
 40
0.0
 40
0.0
 40
0.0
 40
0.0
 40
0.1081594402
 40
0.218358889
 40
0.4513620073
 40
0.7104188582
 40
1.0
 40
1.0
 40
1.0
 40
1.0
 10
54.5492791514
 20
137.8384476153
 30
0.0
 10
54.3007292946
 20
137.6949496954
 30
0.0
 10
53.8229090483
 20
137.3613525798
 30
0.0
 10
52.9655252343
 20
136.5182701178
 30
0.0
 10
52.116635583
 20
135.1340270046
 30
0.0
 10
51.5258764473
 20
133.127848817
 30
0.0
 10
51.4094525932
 20
131.6668278711
 30
0.0
 10
51.4094525932
 20
130.8984286608
 30
0.0
  0
SPLINE
  5
3EA
100
AcDbEntity
  8
0
100
AcDbSpline
 62
7
  6
BYLAYER
 70
0
 71
3
 72
11
 73
7
 74
0
 42
0.0000001
 43
0.0000001
 44
0.0000000001
 40
0.0
 40
0.0
 40
0.0
 40
0.0
 40
0.217745073
 40
0.4508830113
 40
0.7104597664
 40
1.0
 40
1.0
 40
1.0
 40
1.0
 10
51.7471703466
 20
165.8009908214
 30
0.0
 10
51.6977001296
 20
165.7724293252
 30
0.0
 10
51.6050477329
 20
165.6947153125
 30
0.0
 10
51.5064881168
 20
165.533493486
 30
0.0
 10
51.4480584203
 20
165.3348772914
 30
0.0
 10
51.4364604361
 20
165.1903425391
 30
0.0
 10
51.4364604361
 20
165.1143845937
 30
0.0
  0
SPLINE
  5
3EB
100
AcDbEntity
  8
0
100
AcDbSpline
 62
7
  6
BYLAYER
 70
0
 71
3
 72
11
 73
7
 74
0
 42
0.0000001
 43
0.0000001
 44
0.0000000001
 40
0.0
 40
0.0
 40
0.0
 40
0.0
 40
0.217781617
 40
0.4509070751
 40
0.7103216667
 40
1.0
 40
1.0
 40
1.0
 40
1.0
 10
25.4338154
 20
182.5638427726
 30
0.0
 10
25.3183939335
 20
182.4971347103
 30
0.0
 10
25.1023328769
 20
182.3156340332
 30
0.0
 10
24.8723579992
 20
181.9395888167
 30
0.0
 10
24.7358214547
 20
181.4762062038
 30
0.0
 10
24.7089039967
 20
181.1389482806
 30
0.0
 10
24.7089039967
 20
180.9616257457
 30
0.0
  0
SPLINE
  5
3EC
100
AcDbEntity
  8
0
100
AcDbSpline
 62
7
  6
BYLAYER
 70
0
 71
3
 72
11
 73
7
 74
0
 42
0.0000001
 43
0.0000001
 44
0.0000000001
 40
0.0
 40
0.0
 40
0.0
 40
0.0
 40
0.2896413964
 40
0.5491107671
 40
0.7822355978
 40
1.0
 40
1.0
 40
1.0
 40
1.0
 10
139.8403357511
 20
135.3652338809
 30
0.0
 10
139.8403357511
 20
135.2005979292
 30
0.0
 10
139.8153110255
 20
134.8874213801
 30
0.0
 10
139.6885565579
 20
134.457126867
 30
0.0
 10
139.4750391292
 20
134.1078816783
 30
0.0
 10
139.2743647412
 20
133.9394127047
 30
0.0
 10
139.1671927168
 20
133.8774798566
 30
0.0
  0
SPLINE
  5
3ED
100
AcDbEntity
  8
0
100
AcDbSpline
 62
7
  6
BYLAYER
 70
0
 71
3
 72
11
 73
7
 74
0
 42
0.0000001
 43
0.0000001
 44
0.0000000001
 40
0.0
 40
0.0
 40
0.0
 40
0.0
 40
0.217781617
 40
0.4509070751
 40
0.7103216667
 40
1.0
 40
1.0
 40
1.0
 40
1.0
 10
25.4338154
 20
136.9458527276
 30
0.0
 10
25.3183939335
 20
136.8791446653
 30
0.0
 10
25.1023328769
 20
136.6976439882
 30
0.0
 10
24.8723579992
 20
136.3215987716
 30
0.0
 10
24.7358214547
 20
135.8582161588
 30
0.0
 10
24.7089039967
 20
135.5209582356
 30
0.0
 10
24.7089039967
 20
135.3436357007
 30
0.0
  0
SPLINE
  5
3EE
100
AcDbEntity
  8
0
100
AcDbSpline
 62
7
  6
BYLAYER
 70
0
 71
3
 72
11
 73
7
 74
0
 42
0.0000001
 43
0.0000001
 44
0.0000000001
 40
0.0
 40
0.0
 40
0.0
 40
0.0
 40
0.217781617
 40
0.4509070751
 40
0.7103216667
 40
1.0
 40
1.0
 40
1.0
 40
1.0
 10
103.0532499294
 20
137.7512551489
 30
0.0
 10
102.9378284628
 20
137.6845470866
 30
0.0
 10
102.7217674063
 20
137.5030464095
 30
0.0
 10
102.4917925286
 20
137.127001193
 30
0.0
 10
102.3552559841
 20
136.6636185801
 30
0.0
 10
102.3283385261
 20
136.3263606569
 30
0.0
 10
102.3283385261
 20
136.149038122
 30
0.0
  0
SPLINE
  5
3EF
100
AcDbEntity
  8
0
100
AcDbSpline
 62
7
  6
BYLAYER
 70
0
 71
3
 72
12
 73
8
 74
0
 42
0.0000001
 43
0.0000001
 44
0.0000000001
 40
0.0
 40
0.0
 40
0.0
 40
0.0
 40
0.2895716989
 40
0.5486429765
 40
0.7816381653
 40
0.8918400871
 40
1.0
 40
1.0
 40
1.0
 40
1.0
 10
44.9109081415
 20
192.2129687967
 30
0.0
 10
44.3574260148
 20
191.8934176494
 30
0.0
 10
43.3534491835
 20
191.2019162629
 30
0.0
 10
42.1539380422
 20
189.9421080435
 30
0.0
 10
41.5099859787
 20
188.7548859188
 30
0.0
 10
41.2591092688
 20
187.7867089012
 30
0.0
 10
41.2176296164
 20
187.3037694323
 30
0.0
 10
41.2176054029
 20
187.0650528798
 30
0.0
  0
SPLINE
  5
3F0
100
AcDbEntity
  8
0
100
AcDbSpline
 62
7
  6
BYLAYER
 70
0
 71
3
 72
11
 73
7
 74
0
 42
0.0000001
 43
0.0000001
 44
0.0000000001
 40
0.0
 40
0.0
 40
0.0
 40
0.0
 40
0.217781617
 40
0.4509070751
 40
0.7103216667
 40
1.0
 40
1.0
 40
1.0
 40
1.0
 10
103.0532499294
 20
92.1332651039
 30
0.0
 10
102.9378284628
 20
92.0665570416
 30
0.0
 10
102.7217674063
 20
91.8850563645
 30
0.0
 10
102.4917925286
 20
91.509011148
 30
0.0
 10
102.3552559841
 20
91.0456285351
 30
0.0
 10
102.3283385261
 20
90.7083706119
 30
0.0
 10
102.3283385261
 20
90.531048077
 30
0.0
  0
SPLINE
  5
3F1
100
AcDbEntity
  8
0
100
AcDbSpline
 62
7
  6
BYLAYER
 70
0
 71
3
 72
18
 73
14
 74
0
 42
0.0000001
 43
0.0000001
 44
0.0000000001
 40
0.0
 40
0.0
 40
0.0
 40
0.0
 40
0.0428474714
 40
0.0874644388
 40
0.1352857479
 40
0.1872371743
 40
0.243728084
 40
0.3047335592
 40
0.4383682008
 40
0.5826763266
 40
0.7297923158
 40
0.8713437528
 40
1.0
 40
1.0
 40
1.0
 40
1.0
 10
66.4375181483
 20
187.0650528846
 30
0.0
 10
66.4375545591
 20
187.4240207152
 30
0.0
 10
66.3414476988
 20
188.1598881744
 30
0.0
 10
65.9195319604
 20
189.2224686727
 30
0.0
 10
65.2346760129
 20
190.229771862
 30
0.0
 10
64.3064392824
 20
191.1617945402
 30
0.0
 10
63.156298507
 20
192.002346235
 30
0.0
 10
61.3034991188
 20
193.0096189042
 30
0.0
 10
58.5885721502
 20
193.9163400377
 30
0.0
 10
55.0460350063
 20
194.4137671222
 30
0.0
 10
51.4022360243
 20
194.3131179941
 30
0.0
 10
47.9578717551
 20
193.623877825
 30
0.0
 10
45.8443612238
 20
192.7518949681
 30
0.0
 10
44.9109081415
 20
192.2129687967
 30
0.0
  0
SPLINE
  5
3F2
100
AcDbEntity
  8
0
100
AcDbSpline
 62
7
  6
BYLAYER
 70
0
 71
3
 72
16
 73
12
 74
0
 42
0.0000001
 43
0.0000001
 44
0.0000000001
 40
0.0
 40
0.0
 40
0.0
 40
0.0
 40
0.0428765743
 40
0.0875234667
 40
0.186928609
 40
0.3042403422
 40
0.4379658104
 40
0.582370771
 40
0.729593422
 40
0.8712541043
 40
1.0
 40
1.0
 40
1.0
 40
1.0
 10
135.9172655719
 20
142.7725624781
 30
0.0
 10
135.9973675742
 20
142.8188520314
 30
0.0
 10
136.1740003408
 20
142.892227944
 30
0.0
 10
136.5765422343
 20
142.9512653659
 30
0.0
 10
137.1448504331
 20
142.8402930837
 30
0.0
 10
137.8143122783
 20
142.4730971751
 30
0.0
 10
138.4578249522
 20
141.9039132455
 30
0.0
 10
139.0254761058
 20
141.1770142005
 30
0.0
 10
139.4725628276
 20
140.3508186506
 30
0.0
 10
139.7626088364
 20
139.493163801
 30
0.0
 10
139.8403357511
 20
138.9090396754
 30
0.0
 10
139.8403357511
 20
138.6312435494
 30
0.0
  0
SPLINE
  5
3F3
100
AcDbEntity
  8
0
100
AcDbSpline
 62
7
  6
BYLAYER
 70
0
 71
3
 72
11
 73
7
 74
0
 42
0.0000001
 43
0.0000001
 44
0.0000000001
 40
0.0
 40
0.0
 40
0.0
 40
0.0
 40
0.2177843137
 40
0.4509117637
 40
0.7102976701
 40
1.0
 40
1.0
 40
1.0
 40
1.0
 10
111.1984241608
 20
94.1038856007
 30
0.0
 10
111.3633534804
 20
94.1991069465
 30
0.0
 10
111.7423042331
 20
94.3366312783
 30
0.0
 10
112.3717349758
 20
94.3525683433
 30
0.0
 10
113.0425606335
 20
94.1905759059
 30
0.0
 10
113.4790063737
 20
93.9829502014
 30
0.0
 10
113.698400494
 20
93.8562858125
 30
0.0
  0
SPLINE
  5
3F4
100
AcDbEntity
  8
0
100
AcDbSpline
 62
7
  6
BYLAYER
 70
0
 71
3
 72
11
 73
7
 74
0
 42
0.0000001
 43
0.0000001
 44
0.0000000001
 40
0.0
 40
0.0
 40
0.0
 40
0.0
 40
0.2177833598
 40
0.4509104088
 40
0.7102966711
 40
1.0
 40
1.0
 40
1.0
 40
1.0
 10
24.9807889542
 20
185.7857362988
 30
0.0
 10
24.8158559924
 20
185.6905127478
 30
0.0
 10
24.5072732001
 20
185.4310878099
 30
0.0
 10
24.1787502445
 20
184.8939378189
 30
0.0
 10
23.9836269286
 20
184.2319693335
 30
0.0
 10
23.9452166616
 20
183.7501689193
 30
0.0
 10
23.9452166616
 20
183.4968281974
 30
0.0
  0
SPLINE
  5
3F5
100
AcDbEntity
  8
0
100
AcDbSpline
 62
7
  6
BYLAYER
 70
0
 71
3
 72
11
 73
7
 74
0
 42
0.0000001
 43
0.0000001
 44
0.0000000001
 40
0.0
 40
0.0
 40
0.0
 40
0.0
 40
0.2177843137
 40
0.4509117637
 40
0.7102976701
 40
1.0
 40
1.0
 40
1.0
 40
1.0
 10
53.2649424427
 20
202.1155024536
 30
0.0
 10
53.4298717622
 20
202.2107237994
 30
0.0
 10
53.808822515
 20
202.3482481311
 30
0.0
 10
54.4382532576
 20
202.3641851962
 30
0.0
 10
55.1090789154
 20
202.2021927588
 30
0.0
 10
55.5455246556
 20
201.9945670542
 30
0.0
 10
55.7649187759
 20
201.8679026653
 30
0.0
  0
SPLINE
  5
3F6
100
AcDbEntity
  8
0
100
AcDbSpline
 62
7
  6
BYLAYER
 70
0
 71
3
 72
11
 73
7
 74
0
 42
0.0000001
 43
0.0000001
 44
0.0000000001
 40
0.0
 40
0.0
 40
0.0
 40
0.0
 40
0.2318822687
 40
0.4881709494
 40
0.7507498008
 40
1.0
 40
1.0
 40
1.0
 40
1.0
 10
102.3283385261
 20
90.531048077
 30
0.0
 10
102.3283385261
 20
90.1839329411
 30
0.0
 10
102.4405354975
 20
89.4524272557
 30
0.0
 10
102.8468196909
 20
88.3975050036
 30
0.0
 10
103.4589313716
 20
87.4163756432
 30
0.0
 10
103.9885409496
 20
86.8527977741
 30
0.0
 10
104.2757545595
 20
86.6146331537
 30
0.0
  0
SPLINE
  5
3F7
100
AcDbEntity
  8
0
100
AcDbSpline
 62
7
  6
BYLAYER
 70
0
 71
3
 72
9
 73
5
 74
0
 42
0.0000001
 43
0.0000001
 44
0.0000000001
 40
0.0
 40
0.0
 40
0.0
 40
0.0
 40
0.2623393271
 40
1.0
 40
1.0
 40
1.0
 40
1.0
 10
104.6293064781
 20
86.8187552306
 30
0.0
 10
104.6863986878
 20
86.77141296
 30
0.0
 10
104.9085257842
 20
86.5965721993
 30
0.0
 10
105.1494295515
 20
86.4446203004
 30
0.0
 10
105.3364650866
 20
86.3523701534
 30
0.0
  0
SPLINE
  5
3F8
100
AcDbEntity
  8
0
100
AcDbSpline
 62
7
  6
BYLAYER
 70
0
 71
3
 72
9
 73
5
 74
0
 42
0.0000001
 43
0.0000001
 44
0.0000000001
 40
0.0
 40
0.0
 40
0.0
 40
0.0
 40
0.2586759197
 40
1.0
 40
1.0
 40
1.0
 40
1.0
 10
105.3345882655
 20
86.0043146405
 30
0.0
 10
105.3672817093
 20
85.9937383506
 30
0.0
 10
105.4945568651
 20
85.9557038014
 30
0.0
 10
105.6254803535
 20
85.9294317622
 30
0.0
 10
105.7233099901
 20
85.9181773367
 30
0.0
  0
SPLINE
  5
3F9
100
AcDbEntity
  8
0
100
AcDbSpline
 62
7
  6
BYLAYER
 70
0
 71
3
 72
9
 73
5
 74
0
 42
0.0000001
 43
0.0000001
 44
0.0000000001
 40
0.0
 40
0.0
 40
0.0
 40
0.0
 40
0.518232965
 40
1.0
 40
1.0
 40
1.0
 40
1.0
 10
105.7233099901
 20
85.9181773367
 30
0.0
 10
105.8700365564
 20
85.9012977564
 30
0.0
 10
106.1597261514
 20
85.9043384693
 30
0.0
 10
106.4343196636
 20
86.0024409571
 30
0.0
 10
106.553195717
 20
86.0711448754
 30
0.0
  0
SPLINE
  5
3FA
100
AcDbEntity
  8
0
100
AcDbSpline
 62
7
  6
BYLAYER
 70
0
 71
3
 72
10
 73
6
 74
0
 42
0.0000001
 43
0.0000001
 44
0.0000000001
 40
0.0
 40
0.0
 40
0.0
 40
0.0
 40
0.5119833047
 40
0.7578871871
 40
1.0
 40
1.0
 40
1.0
 40
1.0
 10
152.6776270697
 20
129.7719700456
 30
0.0
 10
152.4235274763
 20
129.7035686938
 30
0.0
 10
152.0254916396
 20
129.6549280593
 30
0.0
 10
151.5180476932
 20
129.75793202
 30
0.0
 10
151.28851787
 20
129.8665694455
 30
0.0
 10
151.1835669056
 20
129.9334306021
 30
0.0
  0
SPLINE
  5
3FB
100
AcDbEntity
  8
0
100
AcDbSpline
 62
7
  6
BYLAYER
 70
0
 71
3
 72
11
 73
7
 74
0
 42
0.0000001
 43
0.0000001
 44
0.0000000001
 40
0.0
 40
0.0
 40
0.0
 40
0.0
 40
0.2318822687
 40
0.4881709494
 40
0.7507498008
 40
1.0
 40
1.0
 40
1.0
 40
1.0
 10
102.3283385261
 20
136.149038122
 30
0.0
 10
102.3283385261
 20
135.8019229861
 30
0.0
 10
102.4405354975
 20
135.0704173007
 30
0.0
 10
102.8468196909
 20
134.0154950486
 30
0.0
 10
103.4589313716
 20
133.0343656882
 30
0.0
 10
103.9885409496
 20
132.4707878192
 30
0.0
 10
104.2757545595
 20
132.2326231987
 30
0.0
  0
SPLINE
  5
3FC
100
AcDbEntity
  8
0
100
AcDbSpline
 62
7
  6
BYLAYER
 70
0
 71
3
 72
10
 73
6
 74
0
 42
0.0000001
 43
0.0000001
 44
0.0000000001
 40
0.0
 40
0.0
 40
0.0
 40
0.0
 40
0.5118043848
 40
0.7579409088
 40
1.0
 40
1.0
 40
1.0
 40
1.0
 10
128.4725275036
 20
87.8638304213
 30
0.0
 10
128.4070883766
 20
88.1050880449
 30
0.0
 10
128.2591386961
 20
88.4549878885
 30
0.0
 10
127.9418377697
 20
88.8304202773
 30
0.0
 10
127.7488342072
 20
88.9748816336
 30
0.0
 10
127.6464466622
 20
89.033993773
 30
0.0
  0
SPLINE
  5
3FD
100
AcDbEntity
  8
0
100
AcDbSpline
 62
7
  6
BYLAYER
 70
0
 71
3
 72
9
 73
5
 74
0
 42
0.0000001
 43
0.0000001
 44
0.0000000001
 40
0.0
 40
0.0
 40
0.0
 40
0.0
 40
0.2623393271
 40
1.0
 40
1.0
 40
1.0
 40
1.0
 10
104.6293064781
 20
132.4367452757
 30
0.0
 10
104.6863986878
 20
132.389403005
 30
0.0
 10
104.9085257842
 20
132.2145622443
 30
0.0
 10
105.1494295515
 20
132.0626103455
 30
0.0
 10
105.3364650866
 20
131.9703601984
 30
0.0
  0
SPLINE
  5
3FE
100
AcDbEntity
  8
0
100
AcDbSpline
 62
7
  6
BYLAYER
 70
0
 71
3
 72
9
 73
5
 74
0
 42
0.0000001
 43
0.0000001
 44
0.0000000001
 40
0.0
 40
0.0
 40
0.0
 40
0.0
 40
0.2586759197
 40
1.0
 40
1.0
 40
1.0
 40
1.0
 10
105.3345882655
 20
131.6223046855
 30
0.0
 10
105.3672817093
 20
131.6117283957
 30
0.0
 10
105.4945568651
 20
131.5736938464
 30
0.0
 10
105.6254803535
 20
131.5474218072
 30
0.0
 10
105.7233099901
 20
131.5361673817
 30
0.0
  0
SPLINE
  5
3FF
100
AcDbEntity
  8
0
100
AcDbSpline
 62
7
  6
BYLAYER
 70
0
 71
3
 72
9
 73
5
 74
0
 42
0.0000001
 43
0.0000001
 44
0.0000000001
 40
0.0
 40
0.0
 40
0.0
 40
0.0
 40
0.518232965
 40
1.0
 40
1.0
 40
1.0
 40
1.0
 10
105.7233099901
 20
131.5361673817
 30
0.0
 10
105.8700365564
 20
131.5192878014
 30
0.0
 10
106.1597261514
 20
131.5223285143
 30
0.0
 10
106.4343196636
 20
131.6204310022
 30
0.0
 10
106.553195717
 20
131.6891349205
 30
0.0
  0
SPLINE
  5
400
100
AcDbEntity
  8
0
100
AcDbSpline
 62
7
  6
BYLAYER
 70
0
 71
3
 72
13
 73
9
 74
0
 42
0.0000001
 43
0.0000001
 44
0.0000000001
 40
0.0
 40
0.0
 40
0.0
 40
0.0
 40
0.2600853976
 40
0.3822425429
 40
0.4999988634
 40
0.6177553606
 40
0.7399122376
 40
1.0
 40
1.0
 40
1.0
 40
1.0
 10
155.026884435
 20
130.4094585977
 30
0.0
 10
155.0268904383
 20
130.4925765492
 30
0.0
 10
155.0096414111
 20
130.6179577755
 30
0.0
 10
154.9291806117
 20
130.758533223
 30
0.0
 10
154.8407971139
 20
130.8350990759
 30
0.0
 10
154.7302978619
 20
130.8733596663
 30
0.0
 10
154.5683247663
 20
130.8727544534
 30
0.0
 10
154.4511160746
 20
130.8250017745
 30
0.0
 10
154.3791360945
 20
130.7834373428
 30
0.0
  0
SPLINE
  5
401
100
AcDbEntity
  8
0
100
AcDbSpline
 62
7
  6
BYLAYER
 70
0
 71
3
 72
13
 73
9
 74
0
 42
0.0000001
 43
0.0000001
 44
0.0000000001
 40
0.0
 40
0.0
 40
0.0
 40
0.0
 40
0.2600864817
 40
0.382243979
 40
0.50000042
 40
0.6177567967
 40
0.7399133216
 40
1.0
 40
1.0
 40
1.0
 40
1.0
 10
129.0981282966
 20
85.4992958625
 30
0.0
 10
129.0261486333
 20
85.4577317007
 30
0.0
 10
128.9089401551
 20
85.409979347
 30
0.0
 10
128.7469673081
 20
85.4093736271
 30
0.0
 10
128.6364677436
 20
85.4476339104
 30
0.0
 10
128.5480841361
 20
85.5241993391
 30
0.0
 10
128.4676227734
 20
85.6647747485
 30
0.0
 10
128.4503739212
 20
85.7901563224
 30
0.0
 10
128.4503799997
 20
85.8732746832
 30
0.0
  0
SPLINE
  5
402
100
AcDbEntity
  8
0
100
AcDbSpline
 62
7
  6
BYLAYER
 70
0
 71
3
 72
11
 73
7
 74
0
 42
0.0000001
 43
0.0000001
 44
0.0000000001
 40
0.0
 40
0.0
 40
0.0
 40
0.0
 40
0.2318822687
 40
0.4881709494
 40
0.7507498008
 40
1.0
 40
1.0
 40
1.0
 40
1.0
 10
24.7089039967
 20
135.3436357007
 30
0.0
 10
24.7089039967
 20
134.9965205648
 30
0.0
 10
24.8211009681
 20
134.2650148794
 30
0.0
 10
25.2273851615
 20
133.2100926273
 30
0.0
 10
25.8394968423
 20
132.2289632669
 30
0.0
 10
26.3691064202
 20
131.6653853978
 30
0.0
 10
26.6563200301
 20
131.4272207774
 30
0.0
  0
SPLINE
  5
403
100
AcDbEntity
  8
0
100
AcDbSpline
 62
7
  6
BYLAYER
 70
0
 71
3
 72
10
 73
6
 74
0
 42
0.0000001
 43
0.0000001
 44
0.0000000001
 40
0.0
 40
0.0
 40
0.0
 40
0.0
 40
0.5126208197
 40
0.7585333086
 40
1.0
 40
1.0
 40
1.0
 40
1.0
 10
133.1811085603
 20
85.0430764972
 30
0.0
 10
133.1159949499
 20
85.3117377549
 30
0.0
 10
132.9624638141
 20
85.7029823932
 30
0.0
 10
132.6187208561
 20
86.1233838183
 30
0.0
 10
132.4067112327
 20
86.284055872
 30
0.0
 10
132.2939411836
 20
86.3491622173
 30
0.0
  0
SPLINE
  5
404
100
AcDbEntity
  8
0
100
AcDbSpline
 62
7
  6
BYLAYER
 70
0
 71
3
 72
9
 73
5
 74
0
 42
0.0000001
 43
0.0000001
 44
0.0000000001
 40
0.0
 40
0.0
 40
0.0
 40
0.0
 40
0.2623393271
 40
1.0
 40
1.0
 40
1.0
 40
1.0
 10
27.0098719487
 20
131.6313428543
 30
0.0
 10
27.0669641584
 20
131.5840005837
 30
0.0
 10
27.2890912548
 20
131.409159823
 30
0.0
 10
27.5299950221
 20
131.2572079241
 30
0.0
 10
27.7170305572
 20
131.1649577771
 30
0.0
  0
SPLINE
  5
405
100
AcDbEntity
  8
0
100
AcDbSpline
 62
7
  6
BYLAYER
 70
0
 71
3
 72
15
 73
11
 74
0
 42
0.0000001
 43
0.0000001
 44
0.0000000001
 40
0.0
 40
0.0
 40
0.0
 40
0.0
 40
0.1269854104
 40
0.2491771549
 40
0.3679938515
 40
0.4865012097
 40
0.6079406389
 40
0.7340531414
 40
0.8649675265
 40
1.0
 40
1.0
 40
1.0
 40
1.0
 10
157.3758571449
 20
127.0773624785
 30
0.0
 10
157.21038843
 20
127.0342344165
 30
0.0
 10
156.8768948287
 20
126.9781128928
 30
0.0
 10
156.377052152
 20
127.0091191819
 30
0.0
 10
155.9141457667
 20
127.1741946634
 30
0.0
 10
155.5238786661
 20
127.4715005084
 30
0.0
 10
155.2295034082
 20
127.8740635245
 30
0.0
 10
155.0326881666
 20
128.3482716833
 30
0.0
 10
154.9244188967
 20
128.867403829
 30
0.0
 10
154.9041472627
 20
129.2261887104
 30
0.0
 10
154.9047982959
 20
129.4080204704
 30
0.0
  0
SPLINE
  5
406
100
AcDbEntity
  8
0
100
AcDbSpline
 62
7
  6
BYLAYER
 70
0
 71
3
 72
9
 73
5
 74
0
 42
0.0000001
 43
0.0000001
 44
0.0000000001
 40
0.0
 40
0.0
 40
0.0
 40
0.0
 40
0.2586759197
 40
1.0
 40
1.0
 40
1.0
 40
1.0
 10
27.7151537361
 20
130.8169022642
 30
0.0
 10
27.7478471799
 20
130.8063259743
 30
0.0
 10
27.8751223357
 20
130.7682914251
 30
0.0
 10
28.0060458241
 20
130.7420193858
 30
0.0
 10
28.1038754607
 20
130.7307649604
 30
0.0
  0
SPLINE
  5
407
100
AcDbEntity
  8
0
100
AcDbSpline
 62
7
  6
BYLAYER
 70
0
 71
3
 72
9
 73
5
 74
0
 42
0.0000001
 43
0.0000001
 44
0.0000000001
 40
0.0
 40
0.0
 40
0.0
 40
0.0
 40
0.518232965
 40
1.0
 40
1.0
 40
1.0
 40
1.0
 10
28.1038754607
 20
130.7307649604
 30
0.0
 10
28.250602027
 20
130.7138853801
 30
0.0
 10
28.540291622
 20
130.716926093
 30
0.0
 10
28.8148851343
 20
130.8150285808
 30
0.0
 10
28.9337611876
 20
130.8837324991
 30
0.0
  0
SPLINE
  5
408
100
AcDbEntity
  8
0
100
AcDbSpline
 62
7
  6
BYLAYER
 70
0
 71
3
 72
13
 73
9
 74
0
 42
0.0000001
 43
0.0000001
 44
0.0000000001
 40
0.0
 40
0.0
 40
0.0
 40
0.0
 40
0.2600853976
 40
0.3822425429
 40
0.4999988634
 40
0.6177553606
 40
0.7399122376
 40
1.0
 40
1.0
 40
1.0
 40
1.0
 10
159.7323789399
 20
127.6928015377
 30
0.0
 10
159.7323849431
 20
127.7759194891
 30
0.0
 10
159.715135916
 20
127.9013007155
 30
0.0
 10
159.6346751166
 20
128.041876163
 30
0.0
 10
159.5462916187
 20
128.1184420159
 30
0.0
 10
159.4357923668
 20
128.1567026063
 30
0.0
 10
159.2738192712
 20
128.1560973933
 30
0.0
 10
159.1566105794
 20
128.1083447145
 30
0.0
 10
159.0846305993
 20
128.0667802828
 30
0.0
  0
SPLINE
  5
409
100
AcDbEntity
  8
0
100
AcDbSpline
 62
7
  6
BYLAYER
 70
0
 71
3
 72
11
 73
7
 74
0
 42
0.0000001
 43
0.0000001
 44
0.0000000001
 40
0.0
 40
0.0
 40
0.0
 40
0.0
 40
0.2318822687
 40
0.4881709494
 40
0.7507498008
 40
1.0
 40
1.0
 40
1.0
 40
1.0
 10
24.7089039967
 20
180.9616257457
 30
0.0
 10
24.7089039967
 20
180.6145106098
 30
0.0
 10
24.8211009681
 20
179.8830049244
 30
0.0
 10
25.2273851615
 20
178.8280826723
 30
0.0
 10
25.8394968423
 20
177.8469533119
 30
0.0
 10
26.3691064202
 20
177.2833754429
 30
0.0
 10
26.6563200301
 20
177.0452108224
 30
0.0
  0
SPLINE
  5
40A
100
AcDbEntity
  8
0
100
AcDbSpline
 62
7
  6
BYLAYER
 70
0
 71
3
 72
9
 73
5
 74
0
 42
0.0000001
 43
0.0000001
 44
0.0000000001
 40
0.0
 40
0.0
 40
0.0
 40
0.0
 40
0.2623393271
 40
1.0
 40
1.0
 40
1.0
 40
1.0
 10
27.0098719487
 20
177.2493328994
 30
0.0
 10
27.0669641584
 20
177.2019906287
 30
0.0
 10
27.2890912548
 20
177.027149868
 30
0.0
 10
27.5299950221
 20
176.8751979692
 30
0.0
 10
27.7170305572
 20
176.7829478221
 30
0.0
  0
SPLINE
  5
40B
100
AcDbEntity
  8
0
100
AcDbSpline
 62
7
  6
BYLAYER
 70
0
 71
3
 72
10
 73
6
 74
0
 42
0.0000001
 43
0.0000001
 44
0.0000000001
 40
0.0
 40
0.0
 40
0.0
 40
0.0
 40
0.512452438
 40
0.7584105539
 40
1.0
 40
1.0
 40
1.0
 40
1.0
 10
137.8830533145
 20
82.3422129193
 30
0.0
 10
137.8171392073
 20
82.6077309379
 30
0.0
 10
137.6631379027
 20
82.9940725693
 30
0.0
 10
137.3214817403
 20
83.4090590275
 30
0.0
 10
137.1113753231
 20
83.5678784429
 30
0.0
 10
136.9996793819
 20
83.6323646658
 30
0.0
  0
SPLINE
  5
40C
100
AcDbEntity
  8
0
100
AcDbSpline
 62
7
  6
BYLAYER
 70
0
 71
3
 72
15
 73
11
 74
0
 42
0.0000001
 43
0.0000001
 44
0.0000000001
 40
0.0
 40
0.0
 40
0.0
 40
0.0
 40
0.1269104263
 40
0.2490470324
 40
0.3678489327
 40
0.4863820839
 40
0.6078645887
 40
0.7340149106
 40
0.8649540416
 40
1.0
 40
1.0
 40
1.0
 40
1.0
 10
162.0724534731
 20
124.3580919247
 30
0.0
 10
161.9073141771
 20
124.315647986
 30
0.0
 10
161.574546252
 20
124.2608724117
 30
0.0
 10
161.0761548198
 20
124.2937357483
 30
0.0
 10
160.6150129741
 20
124.4601797685
 30
0.0
 10
160.2265386923
 20
124.7580328877
 30
0.0
 10
159.9335919931
 20
125.1603539678
 30
0.0
 10
159.737701858
 20
125.6338040349
 30
0.0
 10
159.6299052847
 20
126.1518908015
 30
0.0
 10
159.6096988143
 20
126.5099048716
 30
0.0
 10
159.6103352586
 20
126.6913405193
 30
0.0
  0
SPLINE
  5
40D
100
AcDbEntity
  8
0
100
AcDbSpline
 62
7
  6
BYLAYER
 70
0
 71
3
 72
9
 73
5
 74
0
 42
0.0000001
 43
0.0000001
 44
0.0000000001
 40
0.0
 40
0.0
 40
0.0
 40
0.0
 40
0.2586759197
 40
1.0
 40
1.0
 40
1.0
 40
1.0
 10
27.7151537361
 20
176.4348923092
 30
0.0
 10
27.7478471799
 20
176.4243160194
 30
0.0
 10
27.8751223357
 20
176.3862814701
 30
0.0
 10
28.0060458241
 20
176.3600094309
 30
0.0
 10
28.1038754607
 20
176.3487550054
 30
0.0
  0
SPLINE
  5
40E
100
AcDbEntity
  8
0
100
AcDbSpline
 62
7
  6
BYLAYER
 70
0
 71
3
 72
9
 73
5
 74
0
 42
0.0000001
 43
0.0000001
 44
0.0000000001
 40
0.0
 40
0.0
 40
0.0
 40
0.0
 40
0.518232965
 40
1.0
 40
1.0
 40
1.0
 40
1.0
 10
28.1038754607
 20
176.3487550054
 30
0.0
 10
28.250602027
 20
176.3318754251
 30
0.0
 10
28.540291622
 20
176.334916138
 30
0.0
 10
28.8148851343
 20
176.4330186259
 30
0.0
 10
28.9337611876
 20
176.5017225442
 30
0.0
  0
SPLINE
  5
40F
100
AcDbEntity
  8
0
100
AcDbSpline
 62
7
  6
BYLAYER
 70
0
 71
3
 72
11
 73
7
 74
0
 42
0.0000001
 43
0.0000001
 44
0.0000000001
 40
0.0
 40
0.0
 40
0.0
 40
0.0
 40
0.2895391946
 40
0.5491157945
 40
0.7822541179
 40
1.0
 40
1.0
 40
1.0
 40
1.0
 10
94.1872481146
 20
96.71155706
 30
0.0
 10
94.2530280013
 20
96.6735798839
 30
0.0
 10
94.3839945886
 20
96.6113597954
 30
0.0
 10
94.5852108668
 20
96.5626561945
 30
0.0
 10
94.7741079837
 20
96.5674013767
 30
0.0
 10
94.8877337143
 20
96.6087824879
 30
0.0
 10
94.9372027918
 20
96.6373433263
 30
0.0
  0
SPLINE
  5
410
100
AcDbEntity
  8
0
100
AcDbSpline
 62
7
  6
BYLAYER
 70
0
 71
3
 72
11
 73
7
 74
0
 42
0.0000001
 43
0.0000001
 44
0.0000000001
 40
0.0
 40
0.0
 40
0.0
 40
0.0
 40
0.2372539654
 40
0.5000012591
 40
0.7627478695
 40
1.0
 40
1.0
 40
1.0
 40
1.0
 10
51.4364604361
 20
122.617931087
 30
0.0
 10
51.4364604361
 20
122.4440422623
 30
0.0
 10
51.5016568346
 20
122.0773327255
 30
0.0
 10
51.7290654674
 20
121.5621182778
 30
0.0
 10
52.0615513247
 20
121.1075720787
 30
0.0
 10
52.3465331972
 20
120.8677585943
 30
0.0
 10
52.4971250239
 20
120.7808163296
 30
0.0
  0
SPLINE
  5
411
100
AcDbEntity
  8
0
100
AcDbSpline
 62
7
  6
BYLAYER
 70
0
 71
3
 72
19
 73
15
 74
0
 42
0.0000001
 43
0.0000001
 44
0.0000000001
 40
0.0
 40
0.0
 40
0.0
 40
0.0
 40
0.1286300724
 40
0.2701556583
 40
0.417244474
 40
0.5615285344
 40
0.6301797383
 40
0.6953178396
 40
0.7563131864
 40
0.8127952171
 40
0.8647362923
 40
0.9125485201
 40
0.9571585673
 40
1.0
 40
1.0
 40
1.0
 40
1.0
 10
51.4094525932
 20
130.8984286608
 30
0.0
 10
51.4094525932
 20
129.6026373791
 30
0.0
 10
51.7719951146
 20
126.8780919663
 30
0.0
 10
53.1249012187
 20
122.8773683032
 30
0.0
 10
55.2098122225
 20
119.0243161498
 30
0.0
 10
57.4546369134
 20
116.1494720612
 30
0.0
 10
59.4749721191
 20
114.2033436155
 30
0.0
 10
61.0231569707
 20
112.9913967705
 30
0.0
 10
62.5963312841
 20
112.0289126645
 30
0.0
 10
64.1627221228
 20
111.3365951035
 30
0.0
 10
65.6911408874
 20
110.9305508471
 30
0.0
 10
67.1515456161
 20
110.8230796772
 30
0.0
 10
68.511534511
 20
111.0223759094
 30
0.0
 10
69.3354362085
 20
111.3647651213
 30
0.0
 10
69.7091929015
 20
111.5805500293
 30
0.0
  0
SPLINE
  5
412
100
AcDbEntity
  8
0
100
AcDbSpline
 62
7
  6
BYLAYER
 70
0
 71
3
 72
13
 73
9
 74
0
 42
0.0000001
 43
0.0000001
 44
0.0000000001
 40
0.0
 40
0.0
 40
0.0
 40
0.0
 40
0.0871057549
 40
0.1867775846
 40
0.3044747155
 40
0.4385990512
 40
0.7299553771
 40
1.0
 40
1.0
 40
1.0
 40
1.0
 10
149.8506003316
 20
107.6824069063
 30
0.0
 10
149.8755594762
 20
107.6968249553
 30
0.0
 10
149.9383021334
 20
107.7128241713
 30
0.0
 10
150.0392773126
 20
107.6927703922
 30
0.0
 10
150.1424611445
 20
107.6363698897
 30
0.0
 10
150.2777884203
 20
107.5163256253
 30
0.0
 10
150.405030787
 20
107.3198236352
 30
0.0
 10
150.4541469325
 20
107.134645415
 30
0.0
 10
150.4541469325
 20
107.0452845978
 30
0.0
  0
SPLINE
  5
413
100
AcDbEntity
  8
0
100
AcDbSpline
 62
7
  6
BYLAYER
 70
0
 71
3
 72
16
 73
12
 74
0
 42
0.0000001
 43
0.0000001
 44
0.0000000001
 40
0.0
 40
0.0
 40
0.0
 40
0.0
 40
0.1316442064
 40
0.2798020262
 40
0.4349069455
 40
0.5868236535
 40
0.7256644681
 40
0.8427233186
 40
0.891264476
 40
0.9326138423
 40
1.0
 40
1.0
 40
1.0
 40
1.0
 10
145.4008640902
 20
103.9586825498
 30
0.0
 10
145.1376692796
 20
103.8067278622
 30
0.0
 10
144.6215051433
 20
103.4078213008
 30
0.0
 10
143.9551839847
 20
102.6506691909
 30
0.0
 10
143.3997347815
 20
101.7529021603
 30
0.0
 10
143.0071586033
 20
100.7958410322
 30
0.0
 10
142.8099245122
 20
99.8698388866
 30
0.0
 10
142.8165319532
 20
99.1578102842
 30
0.0
 10
142.9353473142
 20
98.6922826219
 30
0.0
 10
143.0881887572
 20
98.3618675714
 30
0.0
 10
143.268820518
 20
98.1694852583
 30
0.0
 10
143.4033884019
 20
98.0914320812
 30
0.0
  0
SPLINE
  5
414
100
AcDbEntity
  8
0
100
AcDbSpline
 62
7
  6
BYLAYER
 70
0
 71
3
 72
11
 73
7
 74
0
 42
0.0000001
 43
0.0000001
 44
0.0000000001
 40
0.0
 40
0.0
 40
0.0
 40
0.0
 40
0.2332475917
 40
0.4731693065
 40
0.727178275
 40
1.0
 40
1.0
 40
1.0
 40
1.0
 10
142.8988277732
 20
97.229798832
 30
0.0
 10
143.0752263273
 20
97.1274535345
 30
0.0
 10
143.4717188857
 20
96.9809874525
 30
0.0
 10
144.1156704335
 20
96.9562676959
 30
0.0
 10
144.7747716565
 20
97.1096352217
 30
0.0
 10
145.1942819394
 20
97.3073936644
 30
0.0
 10
145.4008640902
 20
97.4266632128
 30
0.0
  0
SPLINE
  5
415
100
AcDbEntity
  8
0
100
AcDbSpline
 62
7
  6
BYLAYER
 70
0
 71
3
 72
16
 73
12
 74
0
 42
0.0000001
 43
0.0000001
 44
0.0000000001
 40
0.0
 40
0.0
 40
0.0
 40
0.0
 40
0.1270688605
 40
0.2645503364
 40
0.4065956891
 40
0.5459959969
 40
0.6763183817
 40
0.7939356935
 40
0.8998464879
 40
0.9502856283
 40
1.0
 40
1.0
 40
1.0
 40
1.0
 10
144.9008663286
 20
104.824709246
 30
0.0
 10
144.5704043191
 20
104.6339180547
 30
0.0
 10
143.9338841693
 20
104.1452740498
 30
0.0
 10
143.1255766529
 20
103.222167631
 30
0.0
 10
142.4684399767
 20
102.1421099011
 30
0.0
 10
142.0118003091
 20
100.9861549042
 30
0.0
 10
141.7926026476
 20
99.835386889
 30
0.0
 10
141.8366175768
 20
98.7622994057
 30
0.0
 10
142.1321391949
 20
97.971202249
 30
0.0
 10
142.5272471765
 20
97.48852645
 30
0.0
 10
142.7696974114
 20
97.3047194308
 30
0.0
 10
142.8988277732
 20
97.229798832
 30
0.0
  0
SPLINE
  5
416
100
AcDbEntity
  8
0
100
AcDbSpline
 62
7
  6
BYLAYER
 70
0
 71
3
 72
11
 73
7
 74
0
 42
0.0000001
 43
0.0000001
 44
0.0000000001
 40
0.0
 40
0.0
 40
0.0
 40
0.0
 40
0.1863616778
 40
0.4071317878
 40
0.6769164115
 40
1.0
 40
1.0
 40
1.0
 40
1.0
 10
143.4033884019
 20
98.0914320812
 30
0.0
 10
143.4879306715
 20
98.0423951746
 30
0.0
 10
143.6950509542
 20
97.9724715005
 30
0.0
 10
144.054338477
 20
97.9689108466
 30
0.0
 10
144.4721850587
 20
98.0721623892
 30
0.0
 10
144.7541302086
 20
98.2079722763
 30
0.0
 10
144.9008663286
 20
98.292689909
 30
0.0
  0
SPLINE
  5
417
100
AcDbEntity
  8
0
100
AcDbSpline
 62
7
  6
BYLAYER
 70
0
 71
3
 72
9
 73
5
 74
0
 42
0.0000001
 43
0.0000001
 44
0.0000000001
 40
0.0
 40
0.0
 40
0.0
 40
0.0
 40
0.7545751909
 40
1.0
 40
1.0
 40
1.0
 40
1.0
 10
147.6433290825
 20
98.4259150533
 30
0.0
 10
147.6754289544
 20
98.4010887856
 30
0.0
 10
147.7190781428
 20
98.3695705087
 30
0.0
 10
147.7641668057
 20
98.3402535252
 30
0.0
 10
147.7753216929
 20
98.3331985574
 30
0.0
  0
SPLINE
  5
418
100
AcDbEntity
  8
0
100
AcDbSpline
 62
7
  6
BYLAYER
 70
0
 71
3
 72
9
 73
5
 74
0
 42
0.0000001
 43
0.0000001
 44
0.0000000001
 40
0.0
 40
0.0
 40
0.0
 40
0.0
 40
0.2441975411
 40
1.0
 40
1.0
 40
1.0
 40
1.0
 10
159.1036104046
 20
80.8632770731
 30
0.0
 10
159.1062448668
 20
80.8442142346
 30
0.0
 10
159.1182974254
 20
80.766324982
 30
0.0
 10
159.1355621265
 20
80.6892915851
 30
0.0
 10
159.1506697716
 20
80.6316783542
 30
0.0
  0
SPLINE
  5
419
100
AcDbEntity
  8
0
100
AcDbSpline
 62
7
  6
BYLAYER
 70
0
 71
3
 72
9
 73
5
 74
0
 42
0.0000001
 43
0.0000001
 44
0.0000000001
 40
0.0
 40
0.0
 40
0.0
 40
0.0
 40
0.2441025549
 40
1.0
 40
1.0
 40
1.0
 40
1.0
 10
160.3957952114
 20
80.9426698343
 30
0.0
 10
160.401733216
 20
80.9153622863
 30
0.0
 10
160.4283577837
 20
80.8040000224
 30
0.0
 10
160.4637906932
 20
80.6947877362
 30
0.0
 10
160.494783911
 20
80.6139904588
 30
0.0
  0
SPLINE
  5
41A
100
AcDbEntity
  8
0
100
AcDbSpline
 62
7
  6
BYLAYER
 70
0
 71
3
 72
9
 73
5
 74
0
 42
0.0000001
 43
0.0000001
 44
0.0000000001
 40
0.0
 40
0.0
 40
0.0
 40
0.0
 40
0.2470470673
 40
1.0
 40
1.0
 40
1.0
 40
1.0
 10
161.571838938
 20
81.2436834794
 30
0.0
 10
161.5810512061
 20
81.2173280006
 30
0.0
 10
161.6202966581
 20
81.1113351991
 30
0.0
 10
161.6668557033
 20
81.0080874852
 30
0.0
 10
161.7053513457
 20
80.9322009236
 30
0.0
  0
SPLINE
  5
41B
100
AcDbEntity
  8
0
100
AcDbSpline
 62
7
  6
BYLAYER
 70
0
 71
3
 72
9
 73
5
 74
0
 42
0.0000001
 43
0.0000001
 44
0.0000000001
 40
0.0
 40
0.0
 40
0.0
 40
0.0
 40
0.2467361394
 40
1.0
 40
1.0
 40
1.0
 40
1.0
 10
162.475308839
 20
82.1279041911
 30
0.0
 10
162.4837688549
 20
82.1032154976
 30
0.0
 10
162.5197067219
 20
82.0037253791
 30
0.0
 10
162.5621191321
 20
81.9065909588
 30
0.0
 10
162.59729173
 20
81.835099981
 30
0.0
  0
SPLINE
  5
41C
100
AcDbEntity
  8
0
100
AcDbSpline
 62
7
  6
BYLAYER
 70
0
 71
3
 72
9
 73
5
 74
0
 42
0.0000001
 43
0.0000001
 44
0.0000000001
 40
0.0
 40
0.0
 40
0.0
 40
0.0
 40
0.2525241868
 40
1.0
 40
1.0
 40
1.0
 40
1.0
 10
163.6506786495
 20
84.5675256755
 30
0.0
 10
163.6821574525
 20
84.4915178679
 30
0.0
 10
163.8215895789
 20
84.1969821074
 30
0.0
 10
164.0154234073
 20
83.9272218603
 30
0.0
 10
164.1871063284
 20
83.7545225683
 30
0.0
  0
SPLINE
  5
41D
100
AcDbEntity
  8
0
100
AcDbSpline
 62
7
  6
BYLAYER
 70
0
 71
3
 72
9
 73
5
 74
0
 42
0.0000001
 43
0.0000001
 44
0.0000000001
 40
0.0
 40
0.0
 40
0.0
 40
0.0
 40
0.2598432672
 40
1.0
 40
1.0
 40
1.0
 40
1.0
 10
163.9286445488
 20
85.9888745148
 30
0.0
 10
163.9683092905
 20
85.913025041
 30
0.0
 10
164.1349207617
 20
85.6289215039
 30
0.0
 10
164.3568627807
 20
85.3750493025
 30
0.0
 10
164.5483192332
 20
85.2240868194
 30
0.0
  0
SPLINE
  5
41E
100
AcDbEntity
  8
0
100
AcDbSpline
 62
7
  6
BYLAYER
 70
0
 71
3
 72
9
 73
5
 74
0
 42
0.0000001
 43
0.0000001
 44
0.0000000001
 40
0.0
 40
0.0
 40
0.0
 40
0.0
 40
0.5244499269
 40
1.0
 40
1.0
 40
1.0
 40
1.0
 10
163.7960886473
 20
87.8799845795
 30
0.0
 10
163.8948085968
 20
87.6705429716
 30
0.0
 10
164.1353807953
 20
87.294477358
 30
0.0
 10
164.4702643975
 20
86.9928670346
 30
0.0
 10
164.6515126082
 20
86.8868995871
 30
0.0
  0
SPLINE
  5
41F
100
AcDbEntity
  8
0
100
AcDbSpline
 62
7
  6
BYLAYER
 70
0
 71
3
 72
9
 73
5
 74
0
 42
0.0000001
 43
0.0000001
 44
0.0000000001
 40
0.0
 40
0.0
 40
0.0
 40
0.0
 40
0.5377086626
 40
1.0
 40
1.0
 40
1.0
 40
1.0
 10
163.5066495113
 20
89.6695853531
 30
0.0
 10
163.6246285393
 20
89.4468963034
 30
0.0
 10
163.9012063104
 20
89.0612255339
 30
0.0
 10
164.2914421741
 20
88.7746457389
 30
0.0
 10
164.4938913583
 20
88.6974584745
 30
0.0
  0
SPLINE
  5
420
100
AcDbEntity
  8
0
100
AcDbSpline
 62
7
  6
BYLAYER
 70
0
 71
3
 72
9
 73
5
 74
0
 42
0.0000001
 43
0.0000001
 44
0.0000000001
 40
0.0
 40
0.0
 40
0.0
 40
0.0
 40
0.5509063799
 40
1.0
 40
1.0
 40
1.0
 40
1.0
 10
163.047565277
 20
91.3910871124
 30
0.0
 10
163.1829301666
 20
91.1881156331
 30
0.0
 10
163.4776988192
 20
90.850873208
 30
0.0
 10
163.8844761612
 20
90.6277242048
 30
0.0
 10
164.0806941898
 20
90.5952842496
 30
0.0
  0
SPLINE
  5
421
100
AcDbEntity
  8
0
100
AcDbSpline
 62
7
  6
BYLAYER
 70
0
 71
3
 72
10
 73
6
 74
0
 42
0.0000001
 43
0.0000001
 44
0.0000000001
 40
0.0
 40
0.0
 40
0.0
 40
0.0
 40
0.2943413895
 40
0.5637105619
 40
1.0
 40
1.0
 40
1.0
 40
1.0
 10
162.3764290247
 20
93.120835553
 30
0.0
 10
162.4538574436
 20
93.0273677359
 30
0.0
 10
162.6167353174
 20
92.8589285472
 30
0.0
 10
162.9472747409
 20
92.6147195312
 30
0.0
 10
163.2439118173
 20
92.5141802311
 30
0.0
 10
163.4232502343
 20
92.5284576504
 30
0.0
  0
SPLINE
  5
422
100
AcDbEntity
  8
0
100
AcDbSpline
 62
7
  6
BYLAYER
 70
0
 71
3
 72
9
 73
5
 74
0
 42
0.0000001
 43
0.0000001
 44
0.0000000001
 40
0.0
 40
0.0
 40
0.0
 40
0.0
 40
0.2435191422
 40
1.0
 40
1.0
 40
1.0
 40
1.0
 10
162.3643030128
 20
93.3138495797
 30
0.0
 10
162.3643030128
 20
93.2981456608
 30
0.0
 10
162.3653620314
 20
93.2336604054
 30
0.0
 10
162.370526326
 20
93.1692606208
 30
0.0
 10
162.3764290247
 20
93.120835553
 30
0.0
  0
SPLINE
  5
423
100
AcDbEntity
  8
0
100
AcDbSpline
 62
7
  6
BYLAYER
 70
0
 71
3
 72
11
 73
7
 74
0
 42
0.0000001
 43
0.0000001
 44
0.0000000001
 40
0.0
 40
0.0
 40
0.0
 40
0.0
 40
0.2993835474
 40
0.5660229513
 40
0.7970400152
 40
1.0
 40
1.0
 40
1.0
 40
1.0
 10
161.51363289
 20
94.8062731436
 30
0.0
 10
161.5960369578
 20
94.7266583094
 30
0.0
 10
161.7643609321
 20
94.5881595546
 30
0.0
 10
162.0358809439
 20
94.4435743861
 30
0.0
 10
162.3009308226
 20
94.3822282469
 30
0.0
 10
162.4708682238
 20
94.4048505973
 30
0.0
 10
162.543500199
 20
94.4323906356
 30
0.0
  0
SPLINE
  5
424
100
AcDbEntity
  8
0
100
AcDbSpline
 62
7
  6
BYLAYER
 70
0
 71
3
 72
9
 73
5
 74
0
 42
0.0000001
 43
0.0000001
 44
0.0000000001
 40
0.0
 40
0.0
 40
0.0
 40
0.0
 40
0.2374523424
 40
1.0
 40
1.0
 40
1.0
 40
1.0
 10
161.4573694589
 20
95.2352829764
 30
0.0
 10
161.4573694589
 20
95.20098666
 30
0.0
 10
161.4625540182
 20
95.0565627964
 30
0.0
 10
161.4869617754
 20
94.9131332237
 30
0.0
 10
161.51363289
 20
94.8062731436
 30
0.0
  0
SPLINE
  5
425
100
AcDbEntity
  8
0
100
AcDbSpline
 62
7
  6
BYLAYER
 70
0
 71
3
 72
10
 73
6
 74
0
 42
0.0000001
 43
0.0000001
 44
0.0000000001
 40
0.0
 40
0.0
 40
0.0
 40
0.0
 40
0.2187009315
 40
0.4547611094
 40
1.0
 40
1.0
 40
1.0
 40
1.0
 10
161.7053513457
 20
95.8841942227
 30
0.0
 10
161.6649835118
 20
95.8512287101
 30
0.0
 10
161.5905090049
 20
95.7701594126
 30
0.0
 10
161.4819406045
 20
95.5555916539
 30
0.0
 10
161.4573694589
 20
95.3652173397
 30
0.0
 10
161.4573694589
 20
95.2352829764
 30
0.0
  0
SPLINE
  5
426
100
AcDbEntity
  8
0
100
AcDbSpline
 62
7
  6
BYLAYER
 70
0
 71
3
 72
9
 73
5
 74
0
 42
0.0000001
 43
0.0000001
 44
0.0000000001
 40
0.0
 40
0.0
 40
0.0
 40
0.0
 40
0.2874155323
 40
1.0
 40
1.0
 40
1.0
 40
1.0
 10
160.4850698243
 20
96.3963674687
 30
0.0
 10
160.5431555315
 20
96.3526773674
 30
0.0
 10
160.7525404585
 20
96.2142016675
 30
0.0
 10
161.0129018476
 20
96.1266376179
 30
0.0
 10
161.1920859599
 20
96.1457542835
 30
0.0
  0
SPLINE
  5
427
100
AcDbEntity
  8
0
100
AcDbSpline
 62
7
  6
BYLAYER
 70
0
 71
3
 72
9
 73
5
 74
0
 42
0.0000001
 43
0.0000001
 44
0.0000000001
 40
0.0
 40
0.0
 40
0.0
 40
0.0
 40
0.2330122319
 40
1.0
 40
1.0
 40
1.0
 40
1.0
 10
160.3540044617
 20
97.0670361416
 30
0.0
 10
160.3540044617
 20
97.0138000045
 30
0.0
 10
160.3667593544
 20
96.7853683867
 30
0.0
 10
160.4240971812
 20
96.560650735
 30
0.0
 10
160.4850698243
 20
96.3963674687
 30
0.0
  0
SPLINE
  5
428
100
AcDbEntity
  8
0
100
AcDbSpline
 62
7
  6
BYLAYER
 70
0
 71
3
 72
9
 73
5
 74
0
 42
0.0000001
 43
0.0000001
 44
0.0000000001
 40
0.0
 40
0.0
 40
0.0
 40
0.0
 40
0.2247541394
 40
1.0
 40
1.0
 40
1.0
 40
1.0
 10
160.494783911
 20
97.6002159332
 30
0.0
 10
160.4711418529
 20
97.5658815246
 30
0.0
 10
160.3814905142
 20
97.4022670143
 30
0.0
 10
160.3540044617
 20
97.2108270643
 30
0.0
 10
160.3540044617
 20
97.0670361416
 30
0.0
  0
SPLINE
  5
429
100
AcDbEntity
  8
0
100
AcDbSpline
 62
7
  6
BYLAYER
 70
0
 71
3
 72
9
 73
5
 74
0
 42
0.0000001
 43
0.0000001
 44
0.0000000001
 40
0.0
 40
0.0
 40
0.0
 40
0.0
 40
0.2677979489
 40
1.0
 40
1.0
 40
1.0
 40
1.0
 10
159.3229504092
 20
97.84227349
 30
0.0
 10
159.3525604794
 20
97.8260084141
 30
0.0
 10
159.465254051
 20
97.7694795048
 30
0.0
 10
159.5875473554
 20
97.7301041099
 30
0.0
 10
159.6790315999
 20
97.7173515253
 30
0.0
  0
SPLINE
  5
42A
100
AcDbEntity
  8
0
100
AcDbSpline
 62
7
  6
BYLAYER
 70
0
 71
3
 72
9
 73
5
 74
0
 42
0.0000001
 43
0.0000001
 44
0.0000000001
 40
0.0
 40
0.0
 40
0.0
 40
0.0
 40
0.2612083007
 40
1.0
 40
1.0
 40
1.0
 40
1.0
 10
159.6790315999
 20
97.7173515253
 30
0.0
 10
159.6974491055
 20
97.7147841893
 30
0.0
 10
159.7682595141
 20
97.7074725564
 30
0.0
 10
159.8403823923
 20
97.7109183933
 30
0.0
 10
159.8920591386
 20
97.72070373
 30
0.0
  0
SPLINE
  5
42B
100
AcDbEntity
  8
0
100
AcDbSpline
 62
7
  6
BYLAYER
 70
0
 71
3
 72
9
 73
5
 74
0
 42
0.0000001
 43
0.0000001
 44
0.0000000001
 40
0.0
 40
0.0
 40
0.0
 40
0.0
 40
0.4749907964
 40
1.0
 40
1.0
 40
1.0
 40
1.0
 10
159.0877332083
 20
98.7534521824
 30
0.0
 10
159.0877332083
 20
98.6035170938
 30
0.0
 10
159.1358512318
 20
98.287620055
 30
0.0
 10
159.2495220892
 20
97.9908422447
 30
0.0
 10
159.3229504092
 20
97.84227349
 30
0.0
  0
SPLINE
  5
42C
100
AcDbEntity
  8
0
100
AcDbSpline
 62
7
  6
BYLAYER
 70
0
 71
3
 72
9
 73
5
 74
0
 42
0.0000001
 43
0.0000001
 44
0.0000000001
 40
0.0
 40
0.0
 40
0.0
 40
0.0
 40
0.2322544664
 40
1.0
 40
1.0
 40
1.0
 40
1.0
 10
159.1506697716
 20
99.1345422471
 30
0.0
 10
159.1401087352
 20
99.1064621349
 30
0.0
 10
159.1005358048
 20
98.9832941955
 30
0.0
 10
159.0877332083
 20
98.852622403
 30
0.0
 10
159.0877332083
 20
98.7534521824
 30
0.0
  0
SPLINE
  5
42D
100
AcDbEntity
  8
0
100
AcDbSpline
 62
7
  6
BYLAYER
 70
0
 71
3
 72
9
 73
5
 74
0
 42
0.0000001
 43
0.0000001
 44
0.0000000001
 40
0.0
 40
0.0
 40
0.0
 40
0.0
 40
0.4745819137
 40
1.0
 40
1.0
 40
1.0
 40
1.0
 10
157.69703071
 20
100.2432902006
 30
0.0
 10
157.69703071
 20
100.0518014415
 30
0.0
 10
157.7744551594
 20
99.6483151396
 30
0.0
 10
157.9490140217
 20
99.2802068766
 30
0.0
 10
158.0616268417
 20
99.1005889116
 30
0.0
  0
SPLINE
  5
42E
100
AcDbEntity
  8
0
100
AcDbSpline
 62
7
  6
BYLAYER
 70
0
 71
3
 72
9
 73
5
 74
0
 42
0.0000001
 43
0.0000001
 44
0.0000000001
 40
0.0
 40
0.0
 40
0.0
 40
0.0
 40
0.2417225316
 40
1.0
 40
1.0
 40
1.0
 40
1.0
 10
157.712128923
 20
100.4426056122
 30
0.0
 10
157.7095721105
 20
100.426694566
 30
0.0
 10
157.7006149119
 20
100.3606171017
 30
0.0
 10
157.69703071
 20
100.2938430791
 30
0.0
 10
157.69703071
 20
100.2432902006
 30
0.0
  0
SPLINE
  5
42F
100
AcDbEntity
  8
0
100
AcDbSpline
 62
7
  6
BYLAYER
 70
0
 71
3
 72
9
 73
5
 74
0
 42
0.0000001
 43
0.0000001
 44
0.0000000001
 40
0.0
 40
0.0
 40
0.0
 40
0.0
 40
0.4751964435
 40
1.0
 40
1.0
 40
1.0
 40
1.0
 10
156.22532904
 20
101.4827138276
 30
0.0
 10
156.2264770175
 20
101.2728478434
 30
0.0
 10
156.3185821816
 20
100.8315293535
 30
0.0
 10
156.5250283091
 20
100.435311357
 30
0.0
 10
156.6572642902
 20
100.2449572964
 30
0.0
  0
SPLINE
  5
430
100
AcDbEntity
  8
0
100
AcDbSpline
 62
7
  6
BYLAYER
 70
0
 71
3
 72
9
 73
5
 74
0
 42
0.0000001
 43
0.0000001
 44
0.0000000001
 40
0.0
 40
0.0
 40
0.0
 40
0.0
 40
0.4856613725
 40
1.0
 40
1.0
 40
1.0
 40
1.0
 10
154.7314056324
 20
102.2258540428
 30
0.0
 10
154.7570946861
 20
102.0488111513
 30
0.0
 10
154.8619948364
 20
101.6913477164
 30
0.0
 10
155.0404892871
 20
101.3657081791
 30
0.0
 10
155.1489358988
 20
101.2103550978
 30
0.0
  0
SPLINE
  5
431
100
AcDbEntity
  8
0
100
AcDbSpline
 62
7
  6
BYLAYER
 70
0
 71
3
 72
9
 73
5
 74
0
 42
0.0000001
 43
0.0000001
 44
0.0000000001
 40
0.0
 40
0.0
 40
0.0
 40
0.0
 40
0.243986439
 40
1.0
 40
1.0
 40
1.0
 40
1.0
 10
153.2803570055
 20
102.6471609698
 30
0.0
 10
153.3017176111
 20
102.5683748525
 30
0.0
 10
153.4066071164
 20
102.2503914057
 30
0.0
 10
153.5755338143
 20
101.9537437861
 30
0.0
 10
153.7317870719
 20
101.7548389907
 30
0.0
  0
SPLINE
  5
432
100
AcDbEntity
  8
0
100
AcDbSpline
 62
7
  6
BYLAYER
 70
0
 71
3
 72
9
 73
5
 74
0
 42
0.0000001
 43
0.0000001
 44
0.0000000001
 40
0.0
 40
0.0
 40
0.0
 40
0.0
 40
0.2544091209
 40
1.0
 40
1.0
 40
1.0
 40
1.0
 10
149.5937202418
 20
101.9087804413
 30
0.0
 10
149.6169679251
 20
101.873122057
 30
0.0
 10
149.7118316391
 20
101.735284036
 30
0.0
 10
149.8201396001
 20
101.6065350418
 30
0.0
 10
149.9081976941
 20
101.5181688519
 30
0.0
  0
SPLINE
  5
433
100
AcDbEntity
  8
0
100
AcDbSpline
 62
7
  6
BYLAYER
 70
0
 71
3
 72
9
 73
5
 74
0
 42
0.0000001
 43
0.0000001
 44
0.0000000001
 40
0.0
 40
0.0
 40
0.0
 40
0.0
 40
0.2545294268
 40
1.0
 40
1.0
 40
1.0
 40
1.0
 10
148.7139667783
 20
101.0206757526
 30
0.0
 10
148.7317803385
 20
100.9986887243
 30
0.0
 10
148.8032253223
 20
100.9135054509
 30
0.0
 10
148.8804961929
 20
100.8331478483
 30
0.0
 10
148.9413791876
 20
100.776915311
 30
0.0
  0
SPLINE
  5
434
100
AcDbEntity
  8
0
100
AcDbSpline
 62
7
  6
BYLAYER
 70
0
 71
3
 72
9
 73
5
 74
0
 42
0.0000001
 43
0.0000001
 44
0.0000000001
 40
0.0
 40
0.0
 40
0.0
 40
0.0
 40
0.2632409603
 40
1.0
 40
1.0
 40
1.0
 40
1.0
 10
148.1254526139
 20
99.965959972
 30
0.0
 10
148.1607580409
 20
99.8980836751
 30
0.0
 10
148.2829642
 20
99.634513725
 30
0.0
 10
148.3604015372
 20
99.3479175792
 30
0.0
 10
148.3777420468
 20
99.1344866985
 30
0.0
  0
SPLINE
  5
435
100
AcDbEntity
  8
0
100
AcDbSpline
 62
7
  6
BYLAYER
 70
0
 71
3
 72
9
 73
5
 74
0
 42
0.0000001
 43
0.0000001
 44
0.0000000001
 40
0.0
 40
0.0
 40
0.0
 40
0.0
 40
0.2575715881
 40
1.0
 40
1.0
 40
1.0
 40
1.0
 10
149.0658135908
 20
100.1750808252
 30
0.0
 10
149.0658135908
 20
100.1596690896
 30
0.0
 10
149.0648495761
 20
100.0998416883
 30
0.0
 10
149.059926954
 20
100.0400510704
 30
0.0
 10
149.0536875788
 20
99.9960683942
 30
0.0
  0
SPLINE
  5
436
100
AcDbEntity
  8
0
100
AcDbSpline
 62
7
  6
BYLAYER
 70
0
 71
3
 72
9
 73
5
 74
0
 42
0.0000001
 43
0.0000001
 44
0.0000000001
 40
0.0
 40
0.0
 40
0.0
 40
0.0
 40
0.5253155788
 40
1.0
 40
1.0
 40
1.0
 40
1.0
 10
148.6866270018
 20
101.3407876695
 30
0.0
 10
148.8036311014
 20
101.1584035995
 30
0.0
 10
148.9850077626
 20
100.783325881
 30
0.0
 10
149.0658135908
 20
100.37088438
 30
0.0
 10
149.0658135908
 20
100.1750808252
 30
0.0
  0
SPLINE
  5
437
100
AcDbEntity
  8
0
100
AcDbSpline
 62
7
  6
BYLAYER
 70
0
 71
3
 72
9
 73
5
 74
0
 42
0.0000001
 43
0.0000001
 44
0.0000000001
 40
0.0
 40
0.0
 40
0.0
 40
0.0
 40
0.2675290292
 40
1.0
 40
1.0
 40
1.0
 40
1.0
 10
149.9727471447
 20
101.04930125
 30
0.0
 10
149.9727471447
 20
101.0163689317
 30
0.0
 10
149.9685255259
 20
100.8934019585
 30
0.0
 10
149.9463186936
 20
100.7703440485
 30
0.0
 10
149.9164837135
 20
100.6852573617
 30
0.0
  0
SPLINE
  5
438
100
AcDbEntity
  8
0
100
AcDbSpline
 62
7
  6
BYLAYER
 70
0
 71
3
 72
9
 73
5
 74
0
 42
0.0000001
 43
0.0000001
 44
0.0000000001
 40
0.0
 40
0.0
 40
0.0
 40
0.0
 40
0.2674905569
 40
1.0
 40
1.0
 40
1.0
 40
1.0
 10
149.7247652579
 20
101.9845508367
 30
0.0
 10
149.7639805104
 20
101.9072457058
 30
0.0
 10
149.8967798231
 20
101.6120776632
 30
0.0
 10
149.9727471447
 20
101.2866779215
 30
0.0
 10
149.9727471447
 20
101.04930125
 30
0.0
  0
SPLINE
  5
439
100
AcDbEntity
  8
0
100
AcDbSpline
 62
7
  6
BYLAYER
 70
0
 71
3
 72
9
 73
5
 74
0
 42
0.0000001
 43
0.0000001
 44
0.0000000001
 40
0.0
 40
0.0
 40
0.0
 40
0.0
 40
0.2782968942
 40
1.0
 40
1.0
 40
1.0
 40
1.0
 10
151.0761121419
 20
101.6070270813
 30
0.0
 10
151.0761121419
 20
101.5569966749
 30
0.0
 10
151.0669672652
 20
101.3779503308
 30
0.0
 10
151.0153925119
 20
101.1966983602
 30
0.0
 10
150.9447241067
 20
101.0878900584
 30
0.0
  0
SPLINE
  5
43A
100
AcDbEntity
  8
0
100
AcDbSpline
 62
7
  6
BYLAYER
 70
0
 71
3
 72
9
 73
5
 74
0
 42
0.0000001
 43
0.0000001
 44
0.0000000001
 40
0.0
 40
0.0
 40
0.0
 40
0.0
 40
0.2661982664
 40
1.0
 40
1.0
 40
1.0
 40
1.0
 10
150.9353326925
 20
102.3027613014
 30
0.0
 10
150.9579567684
 20
102.2437818259
 30
0.0
 10
151.0342457636
 20
102.0192215593
 30
0.0
 10
151.0761121419
 20
101.7811609363
 30
0.0
 10
151.0761121419
 20
101.6070270813
 30
0.0
  0
SPLINE
  5
43B
100
AcDbEntity
  8
0
100
AcDbSpline
 62
7
  6
BYLAYER
 70
0
 71
3
 72
9
 73
5
 74
0
 42
0.0000001
 43
0.0000001
 44
0.0000000001
 40
0.0
 40
0.0
 40
0.0
 40
0.0
 40
0.5461606942
 40
1.0
 40
1.0
 40
1.0
 40
1.0
 10
152.3423833953
 20
101.8313121019
 30
0.0
 10
152.3423833953
 20
101.7044130765
 30
0.0
 10
152.3139728268
 20
101.4690896754
 30
0.0
 10
152.1867744965
 20
101.2608838403
 30
0.0
 10
152.1071661944
 20
101.1917326936
 30
0.0
  0
SPLINE
  5
43C
100
AcDbEntity
  8
0
100
AcDbSpline
 62
7
  6
BYLAYER
 70
0
 71
3
 72
9
 73
5
 74
0
 42
0.0000001
 43
0.0000001
 44
0.0000000001
 40
0.0
 40
0.0
 40
0.0
 40
0.0
 40
0.2629168592
 40
1.0
 40
1.0
 40
1.0
 40
1.0
 10
152.2794468319
 20
102.2850734061
 30
0.0
 10
152.2896457503
 20
102.2461796783
 30
0.0
 10
152.3248757232
 20
102.0973847919
 30
0.0
 10
152.3423833953
 20
101.944036554
 30
0.0
 10
152.3423833953
 20
101.8313121019
 30
0.0
  0
SPLINE
  5
43D
100
AcDbEntity
  8
0
100
AcDbSpline
 62
7
  6
BYLAYER
 70
0
 71
3
 72
11
 73
7
 74
0
 42
0.0000001
 43
0.0000001
 44
0.0000000001
 40
0.0
 40
0.0
 40
0.0
 40
0.0
 40
0.2896002398
 40
0.5489839787
 40
0.7821339603
 40
1.0
 40
1.0
 40
1.0
 40
1.0
 10
153.7330858935
 20
101.7153415249
 30
0.0
 10
153.7330858935
 20
101.6382611026
 30
0.0
 10
153.7213529281
 20
101.4916534992
 30
0.0
 10
153.6620683787
 20
101.2901750497
 30
0.0
 10
153.5620649463
 20
101.1266341277
 30
0.0
 10
153.4680793729
 20
101.047727252
 30
0.0
 10
153.4178829311
 20
101.0186949877
 30
0.0
  0
SPLINE
  5
43E
100
AcDbEntity
  8
0
100
AcDbSpline
 62
7
  6
BYLAYER
 70
0
 71
3
 72
9
 73
5
 74
0
 42
0.0000001
 43
0.0000001
 44
0.0000000001
 40
0.0
 40
0.0
 40
0.0
 40
0.0
 40
0.2571530298
 40
1.0
 40
1.0
 40
1.0
 40
1.0
 10
153.7179002537
 20
101.9321218704
 30
0.0
 10
153.7204032551
 20
101.9136555396
 30
0.0
 10
153.7290227855
 20
101.8417020084
 30
0.0
 10
153.7330858935
 20
101.7691736581
 30
0.0
 10
153.7330858935
 20
101.7153415249
 30
0.0
  0
SPLINE
  5
43F
100
AcDbEntity
  8
0
100
AcDbSpline
 62
7
  6
BYLAYER
 70
0
 71
3
 72
11
 73
7
 74
0
 42
0.0000001
 43
0.0000001
 44
0.0000000001
 40
0.0
 40
0.0
 40
0.0
 40
0.0
 40
0.2892289641
 40
0.5488123116
 40
0.7818670671
 40
1.0
 40
1.0
 40
1.0
 40
1.0
 10
155.2047875636
 20
101.2554288852
 30
0.0
 10
155.204367706
 20
101.179157977
 30
0.0
 10
155.1923918232
 20
101.0340492919
 30
0.0
 10
155.1338257355
 20
100.8343981333
 30
0.0
 10
155.033914819
 20
100.6726967682
 30
0.0
 10
154.9405364946
 20
100.5948262468
 30
0.0
 10
154.8906940583
 20
100.5661090169
 30
0.0
  0
SPLINE
  5
440
100
AcDbEntity
  8
0
100
AcDbSpline
 62
7
  6
BYLAYER
 70
0
 71
3
 72
9
 73
5
 74
0
 42
0.0000001
 43
0.0000001
 44
0.0000000001
 40
0.0
 40
0.0
 40
0.0
 40
0.0
 40
0.5349222659
 40
1.0
 40
1.0
 40
1.0
 40
1.0
 10
156.6987109712
 20
100.273573962
 30
0.0
 10
156.6808999626
 20
100.1713906129
 30
0.0
 10
156.6203919124
 20
99.9817604113
 30
0.0
 10
156.4791962818
 20
99.8353411074
 30
0.0
 10
156.4010871962
 20
99.7902683922
 30
0.0
  0
SPLINE
  5
441
100
AcDbEntity
  8
0
100
AcDbSpline
 62
7
  6
BYLAYER
 70
0
 71
3
 72
9
 73
5
 74
0
 42
0.0000001
 43
0.0000001
 44
0.0000000001
 40
0.0
 40
0.0
 40
0.0
 40
0.0
 40
0.5198847506
 40
1.0
 40
1.0
 40
1.0
 40
1.0
 10
158.149759598
 20
99.0193921629
 30
0.0
 10
158.1244711263
 20
98.9553185182
 30
0.0
 10
158.0599545276
 20
98.8370466314
 30
0.0
 10
157.9580879621
 20
98.7468606349
 30
0.0
 10
157.903024262
 20
98.7150055099
 30
0.0
  0
SPLINE
  5
442
100
AcDbEntity
  8
0
100
AcDbSpline
 62
7
  6
BYLAYER
 70
0
 71
3
 72
11
 73
7
 74
0
 42
0.0000001
 43
0.0000001
 44
0.0000000001
 40
0.0
 40
0.0
 40
0.0
 40
0.0
 40
0.2027200115
 40
0.4341800873
 40
0.7010800226
 40
1.0
 40
1.0
 40
1.0
 40
1.0
 10
162.3404614397
 20
83.4672437925
 30
0.0
 10
162.4144285678
 20
83.4927450849
 30
0.0
 10
162.5863136148
 20
83.5105852755
 30
0.0
 10
162.852207303
 20
83.4430687896
 30
0.0
 10
163.1236910344
 20
83.292972108
 30
0.0
 10
163.2915772058
 20
83.1512587024
 30
0.0
 10
163.3735903526
 20
83.0701191311
 30
0.0
  0
SPLINE
  5
443
100
AcDbEntity
  8
0
100
AcDbSpline
 62
7
  6
BYLAYER
 70
0
 71
3
 72
10
 73
6
 74
0
 42
0.0000001
 43
0.0000001
 44
0.0000000001
 40
0.0
 40
0.0
 40
0.0
 40
0.0
 40
0.4376631451
 40
0.7065914371
 40
1.0
 40
1.0
 40
1.0
 40
1.0
 10
161.6693251875
 20
82.5124392122
 30
0.0
 10
161.8511594499
 20
82.5219813089
 30
0.0
 10
162.1475737252
 20
82.4133577422
 30
0.0
 10
162.4780838713
 20
82.1630330723
 30
0.0
 10
162.6393028672
 20
81.9909263406
 30
0.0
 10
162.7161463971
 20
81.8960794457
 30
0.0
  0
SPLINE
  5
444
100
AcDbEntity
  8
0
100
AcDbSpline
 62
7
  6
BYLAYER
 70
0
 71
3
 72
9
 73
5
 74
0
 42
0.0000001
 43
0.0000001
 44
0.0000000001
 40
0.0
 40
0.0
 40
0.0
 40
0.0
 40
0.4504193864
 40
1.0
 40
1.0
 40
1.0
 40
1.0
 10
160.8065290528
 20
81.8232502447
 30
0.0
 10
161.0038560358
 20
81.7860496355
 30
0.0
 10
161.4091978578
 20
81.5556257091
 30
0.0
 10
161.7025865457
 20
81.2132150756
 30
0.0
 10
161.8363963618
 20
81.007971319
 30
0.0
  0
SPLINE
  5
445
100
AcDbEntity
  8
0
100
AcDbSpline
 62
7
  6
BYLAYER
 70
0
 71
3
 72
10
 73
6
 74
0
 42
0.0000001
 43
0.0000001
 44
0.0000000001
 40
0.0
 40
0.0
 40
0.0
 40
0.0
 40
0.2195534729
 40
0.465406313
 40
1.0
 40
1.0
 40
1.0
 40
1.0
 10
159.7779659871
 20
81.4208113769
 30
0.0
 10
159.8741884315
 20
81.3820810453
 30
0.0
 10
160.0671562174
 20
81.271987772
 30
0.0
 10
160.426529451
 20
80.9627803751
 30
0.0
 10
160.6425157604
 20
80.6544471725
 30
0.0
 10
160.7584271445
 20
80.430056124
 30
0.0
  0
SPLINE
  5
446
100
AcDbEntity
  8
0
100
AcDbSpline
 62
7
  6
BYLAYER
 70
0
 71
3
 72
9
 73
5
 74
0
 42
0.0000001
 43
0.0000001
 44
0.0000000001
 40
0.0
 40
0.0
 40
0.0
 40
0.0
 40
0.4786363945
 40
1.0
 40
1.0
 40
1.0
 40
1.0
 10
158.615846572
 20
81.3167749128
 30
0.0
 10
158.8161761582
 20
81.1955022949
 30
0.0
 10
159.1777591903
 20
80.8489796458
 30
0.0
 10
159.4250570049
 20
80.4191309052
 30
0.0
 10
159.5182350803
 20
80.1816763935
 30
0.0
  0
SPLINE
  5
447
100
AcDbEntity
  8
0
100
AcDbSpline
 62
7
  6
BYLAYER
 70
0
 71
3
 72
9
 73
5
 74
0
 42
0.0000001
 43
0.0000001
 44
0.0000000001
 40
0.0
 40
0.0
 40
0.0
 40
0.0
 40
0.4935497805
 40
1.0
 40
1.0
 40
1.0
 40
1.0
 10
157.3545230044
 20
81.5148775451
 30
0.0
 10
157.5455678775
 20
81.3601375765
 30
0.0
 10
157.8746009718
 20
80.9737585161
 30
0.0
 10
158.0837451752
 20
80.5130773356
 30
0.0
 10
158.149759598
 20
80.2695907905
 30
0.0
  0
SPLINE
  5
448
100
AcDbEntity
  8
0
100
AcDbSpline
 62
7
  6
BYLAYER
 70
0
 71
3
 72
9
 73
5
 74
0
 42
0.0000001
 43
0.0000001
 44
0.0000000001
 40
0.0
 40
0.0
 40
0.0
 40
0.0
 40
0.2439757952
 40
1.0
 40
1.0
 40
1.0
 40
1.0
 10
156.0326426354
 20
82.0089061966
 30
0.0
 10
156.0588764481
 20
81.9818948315
 30
0.0
 10
156.1635166444
 20
81.8684022834
 30
0.0
 10
156.2570838968
 20
81.7448010982
 30
0.0
 10
156.3212192552
 20
81.6473273235
 30
0.0
  0
SPLINE
  5
449
100
AcDbEntity
  8
0
100
AcDbSpline
 62
7
  6
BYLAYER
 70
0
 71
3
 72
9
 73
5
 74
0
 42
0.0000001
 43
0.0000001
 44
0.0000000001
 40
0.0
 40
0.0
 40
0.0
 40
0.0
 40
0.2515029778
 40
1.0
 40
1.0
 40
1.0
 40
1.0
 10
156.3212192552
 20
81.6473273235
 30
0.0
 10
156.3466971044
 20
81.6086057479
 30
0.0
 10
156.4438331641
 20
81.451953594
 30
0.0
 10
156.5246308783
 20
81.2850928655
 30
0.0
 10
156.57418001
 20
81.1563516552
 30
0.0
  0
SPLINE
  5
44A
100
AcDbEntity
  8
0
100
AcDbSpline
 62
7
  6
BYLAYER
 70
0
 71
3
 72
9
 73
5
 74
0
 42
0.0000001
 43
0.0000001
 44
0.0000000001
 40
0.0
 40
0.0
 40
0.0
 40
0.0
 40
0.2591505379
 40
1.0
 40
1.0
 40
1.0
 40
1.0
 10
156.57418001
 20
81.1563516552
 30
0.0
 10
156.5891468343
 20
81.1174640498
 30
0.0
 10
156.6430056906
 20
80.9659712648
 30
0.0
 10
156.681605722
 20
80.8087830552
 30
0.0
 10
156.6987109712
 20
80.6908977174
 30
0.0
  0
SPLINE
  5
44B
100
AcDbEntity
  8
0
100
AcDbSpline
 62
7
  6
BYLAYER
 70
0
 71
3
 72
9
 73
5
 74
0
 42
0.0000001
 43
0.0000001
 44
0.0000000001
 40
0.0
 40
0.0
 40
0.0
 40
0.0
 40
0.5231936233
 40
1.0
 40
1.0
 40
1.0
 40
1.0
 10
154.6903701309
 20
82.7838500568
 30
0.0
 10
154.8472554696
 20
82.5827374751
 30
0.0
 10
155.0916428905
 20
82.1531279374
 30
0.0
 10
155.2035160557
 20
81.6664869646
 30
0.0
 10
155.2047875636
 20
81.4340379327
 30
0.0
  0
SPLINE
  5
44C
100
AcDbEntity
  8
0
100
AcDbSpline
 62
7
  6
BYLAYER
 70
0
 71
3
 72
9
 73
5
 74
0
 42
0.0000001
 43
0.0000001
 44
0.0000000001
 40
0.0
 40
0.0
 40
0.0
 40
0.0
 40
0.2585419709
 40
1.0
 40
1.0
 40
1.0
 40
1.0
 10
153.7330858935
 20
82.6734615597
 30
0.0
 10
153.7330858935
 20
82.6562306342
 30
0.0
 10
153.7318854795
 20
82.5895951133
 30
0.0
 10
153.7257404716
 20
82.5230053657
 30
0.0
 10
153.7179002537
 20
82.4742156838
 30
0.0
  0
SPLINE
  5
44D
100
AcDbEntity
  8
0
100
AcDbSpline
 62
7
  6
BYLAYER
 70
0
 71
3
 72
9
 73
5
 74
0
 42
0.0000001
 43
0.0000001
 44
0.0000000001
 40
0.0
 40
0.0
 40
0.0
 40
0.0
 40
0.5254180863
 40
1.0
 40
1.0
 40
1.0
 40
1.0
 10
153.3684897619
 20
83.8161628486
 30
0.0
 10
153.4811025818
 20
83.6365448836
 30
0.0
 10
153.6556614442
 20
83.2684366206
 30
0.0
 10
153.7330858935
 20
82.8649503188
 30
0.0
 10
153.7330858935
 20
82.6734615597
 30
0.0
  0
SPLINE
  5
44E
100
AcDbEntity
  8
0
100
AcDbSpline
 62
7
  6
BYLAYER
 70
0
 71
3
 72
9
 73
5
 74
0
 42
0.0000001
 43
0.0000001
 44
0.0000000001
 40
0.0
 40
0.0
 40
0.0
 40
0.0
 40
0.2687588344
 40
1.0
 40
1.0
 40
1.0
 40
1.0
 10
152.3423833953
 20
84.1632995779
 30
0.0
 10
152.3423833953
 20
84.1285962557
 30
0.0
 10
152.3377686396
 20
83.9996194888
 30
0.0
 10
152.3126857915
 20
83.8705866072
 30
0.0
 10
152.2794468319
 20
83.7822095132
 30
0.0
  0
SPLINE
  5
44F
100
AcDbEntity
  8
0
100
AcDbSpline
 62
7
  6
BYLAYER
 70
0
 71
3
 72
9
 73
5
 74
0
 42
0.0000001
 43
0.0000001
 44
0.0000000001
 40
0.0
 40
0.0
 40
0.0
 40
0.0
 40
0.2634223737
 40
1.0
 40
1.0
 40
1.0
 40
1.0
 10
152.2693290671
 20
84.6555146018
 30
0.0
 10
152.2811991398
 20
84.6133880024
 30
0.0
 10
152.3214925284
 20
84.4522354597
 30
0.0
 10
152.3423833953
 20
84.2856801552
 30
0.0
 10
152.3423833953
 20
84.1632995779
 30
0.0
  0
SPLINE
  5
450
100
AcDbEntity
  8
0
100
AcDbSpline
 62
7
  6
BYLAYER
 70
0
 71
3
 72
8
 73
4
 74
0
 42
0.0000001
 43
0.0000001
 44
0.0000000001
 40
0.0
 40
0.0
 40
0.0
 40
0.0
 40
1.0
 40
1.0
 40
1.0
 40
1.0
 10
150.9813778829
 20
85.3946394678
 30
0.0
 10
150.9678052622
 20
85.3676365997
 30
0.0
 10
150.952472627
 20
85.3414274634
 30
0.0
 10
150.9353326925
 20
85.316535827
 30
0.0
  0
SPLINE
  5
451
100
AcDbEntity
  8
0
100
AcDbSpline
 62
7
  6
BYLAYER
 70
0
 71
3
 72
9
 73
5
 74
0
 42
0.0000001
 43
0.0000001
 44
0.0000000001
 40
0.0
 40
0.0
 40
0.0
 40
0.0
 40
0.4521423655
 40
1.0
 40
1.0
 40
1.0
 40
1.0
 10
147.3494224137
 20
92.3214675107
 30
0.0
 10
147.5101582651
 20
92.2948936843
 30
0.0
 10
147.846686294
 20
92.1332997212
 30
0.0
 10
148.108003446
 20
91.879778627
 30
0.0
 10
148.23326849
 20
91.7272077132
 30
0.0
  0
SPLINE
  5
452
100
AcDbEntity
  8
0
100
AcDbSpline
 62
7
  6
BYLAYER
 70
0
 71
3
 72
9
 73
5
 74
0
 42
0.0000001
 43
0.0000001
 44
0.0000000001
 40
0.0
 40
0.0
 40
0.0
 40
0.0
 40
0.5333073356
 40
1.0
 40
1.0
 40
1.0
 40
1.0
 10
147.9234670922
 20
93.2471664072
 30
0.0
 10
147.9044402645
 20
93.1490969242
 30
0.0
 10
147.8425296599
 20
92.9671994005
 30
0.0
 10
147.7051998055
 20
92.8273372516
 30
0.0
 10
147.6294858218
 20
92.7836376667
 30
0.0
  0
SPLINE
  5
453
100
AcDbEntity
  8
0
100
AcDbSpline
 62
7
  6
BYLAYER
 70
0
 71
3
 72
9
 73
5
 74
0
 42
0.0000001
 43
0.0000001
 44
0.0000000001
 40
0.0
 40
0.0
 40
0.0
 40
0.0
 40
0.4622913374
 40
1.0
 40
1.0
 40
1.0
 40
1.0
 10
146.9362252452
 20
94.2192932858
 30
0.0
 10
147.1386744294
 20
94.1421060214
 30
0.0
 10
147.5289102931
 20
93.8555262263
 30
0.0
 10
147.8054880643
 20
93.4698554568
 30
0.0
 10
147.9234670922
 20
93.2471664072
 30
0.0
  0
SPLINE
  5
454
100
AcDbEntity
  8
0
100
AcDbSpline
 62
7
  6
BYLAYER
 70
0
 71
3
 72
9
 73
5
 74
0
 42
0.0000001
 43
0.0000001
 44
0.0000000001
 40
0.0
 40
0.0
 40
0.0
 40
0.0
 40
0.5178851271
 40
1.0
 40
1.0
 40
1.0
 40
1.0
 10
147.6903839179
 20
94.9081145255
 30
0.0
 10
147.6649348646
 20
94.8477859525
 30
0.0
 10
147.6002009865
 20
94.7367363084
 30
0.0
 10
147.5021084885
 20
94.6523216654
 30
0.0
 10
147.4493722222
 20
94.6217553681
 30
0.0
  0
SPLINE
  5
455
100
AcDbEntity
  8
0
100
AcDbSpline
 62
7
  6
BYLAYER
 70
0
 71
3
 72
9
 73
5
 74
0
 42
0.0000001
 43
0.0000001
 44
0.0000000001
 40
0.0
 40
0.0
 40
0.0
 40
0.0
 40
0.4771310437
 40
1.0
 40
1.0
 40
1.0
 40
1.0
 10
146.7786039954
 20
96.0298521732
 30
0.0
 10
146.979530776
 20
95.9123795757
 30
0.0
 10
147.344094449
 20
95.5706791422
 30
0.0
 10
147.5946599479
 20
95.1445291237
 30
0.0
 10
147.6903839179
 20
94.9081145255
 30
0.0
  0
SPLINE
  5
456
100
AcDbEntity
  8
0
100
AcDbSpline
 62
7
  6
BYLAYER
 70
0
 71
3
 72
9
 73
5
 74
0
 42
0.0000001
 43
0.0000001
 44
0.0000000001
 40
0.0
 40
0.0
 40
0.0
 40
0.0
 40
0.4915968136
 40
1.0
 40
1.0
 40
1.0
 40
1.0
 10
146.8817973704
 20
97.6926649408
 30
0.0
 10
147.0738777084
 20
97.5412105271
 30
0.0
 10
147.407217892
 20
97.1592102237
 30
0.0
 10
147.6213477955
 20
96.701410626
 30
0.0
 10
147.6903839179
 20
96.4580419347
 30
0.0
  0
SPLINE
  5
457
100
AcDbEntity
  8
0
100
AcDbSpline
 62
7
  6
BYLAYER
 70
0
 71
3
 72
9
 73
5
 74
0
 42
0.0000001
 43
0.0000001
 44
0.0000000001
 40
0.0
 40
0.0
 40
0.0
 40
0.0
 40
0.2592630297
 40
1.0
 40
1.0
 40
1.0
 40
1.0
 10
147.6026066413
 20
98.6983243144
 30
0.0
 10
147.6432988354
 20
98.6310166028
 30
0.0
 10
147.7883762749
 20
98.3646570202
 30
0.0
 10
147.8882875926
 20
98.0718005225
 30
0.0
 10
147.9234670922
 20
97.8498548748
 30
0.0
  0
SPLINE
  5
458
100
AcDbEntity
  8
0
100
AcDbSpline
 62
7
  6
BYLAYER
 70
0
 71
3
 72
11
 73
7
 74
0
 42
0.0000001
 43
0.0000001
 44
0.0000000001
 40
0.0
 40
0.0
 40
0.0
 40
0.0
 40
0.2372413576
 40
0.5000010231
 40
0.762760128
 40
1.0
 40
1.0
 40
1.0
 40
1.0
 10
142.6687746517
 20
137.8147829484
 30
0.0
 10
142.6687746517
 20
138.3943835272
 30
0.0
 10
142.4513694519
 20
139.6167148153
 30
0.0
 10
141.6936696847
 20
141.3342988309
 30
0.0
 10
140.5850436271
 20
142.8492702317
 30
0.0
 10
139.6351745469
 20
143.648705249
 30
0.0
 10
139.1332260259
 20
143.9384988067
 30
0.0
  0
SPLINE
  5
459
100
AcDbEntity
  8
0
100
AcDbSpline
 62
7
  6
BYLAYER
 70
0
 71
3
 72
11
 73
7
 74
0
 42
0.0000001
 43
0.0000001
 44
0.0000000001
 40
0.0
 40
0.0
 40
0.0
 40
0.0
 40
0.2896413964
 40
0.5491107671
 40
0.7822355978
 40
1.0
 40
1.0
 40
1.0
 40
1.0
 10
135.2441225376
 20
141.2848084538
 30
0.0
 10
135.2441225376
 20
141.4494444055
 30
0.0
 10
135.2691472632
 20
141.7626209546
 30
0.0
 10
135.3959017308
 20
142.1929154676
 30
0.0
 10
135.6094191595
 20
142.5421606564
 30
0.0
 10
135.8100935475
 20
142.71062963
 30
0.0
 10
135.9172655719
 20
142.7725624781
 30
0.0
  0
SPLINE
  5
45A
100
AcDbEntity
  8
0
100
AcDbSpline
 62
7
  6
BYLAYER
 70
0
 71
3
 72
9
 73
5
 74
0
 42
0.0000001
 43
0.0000001
 44
0.0000000001
 40
0.0
 40
0.0
 40
0.0
 40
0.0
 40
0.4804923896
 40
1.0
 40
1.0
 40
1.0
 40
1.0
 10
147.6294858218
 20
92.7836376667
 30
0.0
 10
147.574378315
 20
92.7518314526
 30
0.0
 10
147.4457990221
 20
92.7079863073
 30
0.0
 10
147.3110556149
 20
92.7103761264
 30
0.0
 10
147.2430102751
 20
92.720498168
 30
0.0
  0
SPLINE
  5
45B
100
AcDbEntity
  8
0
100
AcDbSpline
 62
7
  6
BYLAYER
 70
0
 71
3
 72
9
 73
5
 74
0
 42
0.0000001
 43
0.0000001
 44
0.0000000001
 40
0.0
 40
0.0
 40
0.0
 40
0.0
 40
0.2702051074
 40
1.0
 40
1.0
 40
1.0
 40
1.0
 10
28.0687056547
 20
182.2212415965
 30
0.0
 10
27.9837207354
 20
182.291878989
 30
0.0
 10
27.6598221789
 20
182.5410291794
 30
0.0
 10
27.2936904338
 20
182.7411626301
 30
0.0
 10
27.0098719487
 20
182.8335312746
 30
0.0
  0
SPLINE
  5
45C
100
AcDbEntity
  8
0
100
AcDbSpline
 62
7
  6
BYLAYER
 70
0
 71
3
 72
16
 73
12
 74
0
 42
0.0000001
 43
0.0000001
 44
0.0000000001
 40
0.0
 40
0.0
 40
0.0
 40
0.0
 40
0.0428765743
 40
0.0875234667
 40
0.186928609
 40
0.3042403422
 40
0.4379658104
 40
0.582370771
 40
0.729593422
 40
0.8712541043
 40
1.0
 40
1.0
 40
1.0
 40
1.0
 10
26.4944830202
 20
137.5581985731
 30
0.0
 10
26.5807467149
 20
137.6080488613
 30
0.0
 10
26.7709666174
 20
137.6870690748
 30
0.0
 10
27.2044732719
 20
137.7506478368
 30
0.0
 10
27.816497486
 20
137.6311392253
 30
0.0
 10
28.5374563963
 20
137.2356974775
 30
0.0
 10
29.2304700451
 20
136.6227301688
 30
0.0
 10
29.8417866721
 20
135.8399158126
 30
0.0
 10
30.3232646802
 20
134.9501667588
 30
0.0
 10
30.6356219204
 20
134.0265384593
 30
0.0
 10
30.7193278285
 20
133.3974817087
 30
0.0
 10
30.7193278285
 20
133.0983166499
 30
0.0
  0
SPLINE
  5
45D
100
AcDbEntity
  8
0
100
AcDbSpline
 62
7
  6
BYLAYER
 70
0
 71
3
 72
11
 73
7
 74
0
 42
0.0000001
 43
0.0000001
 44
0.0000000001
 40
0.0
 40
0.0
 40
0.0
 40
0.0
 40
0.2318500959
 40
0.4880956242
 40
0.7506704316
 40
1.0
 40
1.0
 40
1.0
 40
1.0
 10
29.6586720727
 20
178.1039404641
 30
0.0
 10
29.6586720727
 20
178.4506185143
 30
0.0
 10
29.5467523539
 20
179.1811929676
 30
0.0
 10
29.1413586477
 20
180.2349601088
 30
0.0
 10
28.5304605075
 20
181.215359778
 30
0.0
 10
28.0018618191
 20
181.7788147524
 30
0.0
 10
27.7151537361
 20
182.0171195195
 30
0.0
  0
SPLINE
  5
45E
100
AcDbEntity
  8
0
100
AcDbSpline
 62
7
  6
BYLAYER
 70
0
 71
3
 72
9
 73
5
 74
0
 42
0.0000001
 43
0.0000001
 44
0.0000000001
 40
0.0
 40
0.0
 40
0.0
 40
0.0
 40
0.2468530049
 40
1.0
 40
1.0
 40
1.0
 40
1.0
 10
163.1475877052
 20
81.4505889783
 30
0.0
 10
163.1945003169
 20
81.4949528345
 30
0.0
 10
163.3805846559
 20
81.6788257803
 30
0.0
 10
163.5504781556
 20
81.878963223
 30
0.0
 10
163.6686562788
 20
82.0365729267
 30
0.0
  0
SPLINE
  5
45F
100
AcDbEntity
  8
0
100
AcDbSpline
 62
7
  6
BYLAYER
 70
0
 71
3
 72
9
 73
5
 74
0
 42
0.0000001
 43
0.0000001
 44
0.0000000001
 40
0.0
 40
0.0
 40
0.0
 40
0.0
 40
0.2463260405
 40
1.0
 40
1.0
 40
1.0
 40
1.0
 10
163.984293929
 20
82.5108707754
 30
0.0
 10
164.0100731083
 20
82.5545802491
 30
0.0
 10
164.1122403163
 20
82.733484976
 30
0.0
 10
164.2045006356
 20
82.9180170165
 30
0.0
 10
164.2685875814
 20
83.0594368361
 30
0.0
  0
SPLINE
  5
460
100
AcDbEntity
  8
0
100
AcDbSpline
 62
7
  6
BYLAYER
 70
0
 71
3
 72
9
 73
5
 74
0
 42
0.0000001
 43
0.0000001
 44
0.0000000001
 40
0.0
 40
0.0
 40
0.0
 40
0.0
 40
0.2430128051
 40
1.0
 40
1.0
 40
1.0
 40
1.0
 10
164.491629606
 20
83.6211535389
 30
0.0
 10
164.5222969675
 20
83.7099873755
 30
0.0
 10
164.641038229
 20
84.0780938009
 30
0.0
 10
164.7305591751
 20
84.455436594
 30
0.0
 10
164.7836079229
 20
84.743333503
 30
0.0
  0
SPLINE
  5
461
100
AcDbEntity
  8
0
100
AcDbSpline
 62
7
  6
BYLAYER
 70
0
 71
3
 72
9
 73
5
 74
0
 42
0.0000001
 43
0.0000001
 44
0.0000000001
 40
0.0
 40
0.0
 40
0.0
 40
0.0
 40
0.2430540541
 40
1.0
 40
1.0
 40
1.0
 40
1.0
 10
164.8386562218
 20
85.0780144672
 30
0.0
 10
164.8548512725
 20
85.1895134033
 30
0.0
 10
164.9130772807
 20
85.649457132
 30
0.0
 10
164.9387694453
 20
86.1133480755
 30
0.0
 10
164.9422625977
 20
86.4642168541
 30
0.0
  0
SPLINE
  5
462
100
AcDbEntity
  8
0
100
AcDbSpline
 62
7
  6
BYLAYER
 70
0
 71
3
 72
11
 73
7
 74
0
 42
0.0000001
 43
0.0000001
 44
0.0000000001
 40
0.0
 40
0.0
 40
0.0
 40
0.0
 40
0.2372539654
 40
0.5000012591
 40
0.7627478695
 40
1.0
 40
1.0
 40
1.0
 40
1.0
 10
95.2479127023
 20
139.8204030606
 30
0.0
 10
95.2479127023
 20
139.9942918853
 30
0.0
 10
95.1827163038
 20
140.3610014221
 30
0.0
 10
94.955307671
 20
140.8762158698
 30
0.0
 10
94.6228218138
 20
141.3307620689
 30
0.0
 10
94.3378399412
 20
141.5705755533
 30
0.0
 10
94.1872481146
 20
141.6575178181
 30
0.0
  0
SPLINE
  5
463
100
AcDbEntity
  8
0
100
AcDbSpline
 62
7
  6
BYLAYER
 70
0
 71
3
 72
11
 73
7
 74
0
 42
0.0000001
 43
0.0000001
 44
0.0000000001
 40
0.0
 40
0.0
 40
0.0
 40
0.0
 40
0.2895391946
 40
0.5491157945
 40
0.7822541179
 40
1.0
 40
1.0
 40
1.0
 40
1.0
 10
52.4971250239
 20
165.7267770876
 30
0.0
 10
52.4313451372
 20
165.7647542638
 30
0.0
 10
52.3003785499
 20
165.8269743522
 30
0.0
 10
52.0991622716
 20
165.8756779532
 30
0.0
 10
51.9102651547
 20
165.8709327709
 30
0.0
 10
51.7966394241
 20
165.8295516597
 30
0.0
 10
51.7471703466
 20
165.8009908214
 30
0.0
  0
SPLINE
  5
464
100
AcDbEntity
  8
0
100
AcDbSpline
 62
7
  6
BYLAYER
 70
0
 71
3
 72
11
 73
7
 74
0
 42
0.0000001
 43
0.0000001
 44
0.0000000001
 40
0.0
 40
0.0
 40
0.0
 40
0.0
 40
0.2177816419
 40
0.4509072171
 40
0.7103207752
 40
1.0
 40
1.0
 40
1.0
 40
1.0
 10
106.553195717
 20
131.6891349205
 30
0.0
 10
106.668617513
 20
131.7558424651
 30
0.0
 10
106.8846768041
 20
131.9373456775
 30
0.0
 10
107.1146524211
 20
132.3133891673
 30
0.0
 10
107.2511899405
 20
132.7767718328
 30
0.0
 10
107.2781066021
 20
133.1140297452
 30
0.0
 10
107.2781066021
 20
133.2913528404
 30
0.0
  0
SPLINE
  5
465
100
AcDbEntity
  8
0
100
AcDbSpline
 62
7
  6
BYLAYER
 70
0
 71
3
 72
12
 73
8
 74
0
 42
0.0000001
 43
0.0000001
 44
0.0000000001
 40
0.0
 40
0.0
 40
0.0
 40
0.0
 40
0.2895807947
 40
0.5486357973
 40
0.7816395153
 40
0.8918394853
 40
1.0
 40
1.0
 40
1.0
 40
1.0
 10
84.0919704714
 20
125.0116510303
 30
0.0
 10
84.0919704714
 20
124.2432525541
 30
0.0
 10
83.9755501916
 20
122.7822362791
 30
0.0
 10
83.3847893247
 20
120.7760639874
 30
0.0
 10
82.5359099537
 20
119.3918152665
 30
0.0
 10
81.6785201087
 20
118.5487311061
 30
0.0
 10
81.2006999262
 20
118.2151251885
 30
0.0
 10
80.9521451258
 20
118.0716299892
 30
0.0
  0
SPLINE
  5
466
100
AcDbEntity
  8
0
100
AcDbSpline
 62
7
  6
BYLAYER
 70
0
 71
3
 72
19
 73
15
 74
0
 42
0.0000001
 43
0.0000001
 44
0.0000000001
 40
0.0
 40
0.0
 40
0.0
 40
0.0
 40
0.1286300724
 40
0.2701556583
 40
0.417244474
 40
0.5615285344
 40
0.6301797383
 40
0.6953178396
 40
0.7563131864
 40
0.8127952171
 40
0.8647362923
 40
0.9125485201
 40
0.9571585673
 40
1.0
 40
1.0
 40
1.0
 40
1.0
 10
72.8490194597
 20
118.5205689838
 30
0.0
 10
72.8490194597
 20
119.8163602656
 30
0.0
 10
72.4864769383
 20
122.5409056783
 30
0.0
 10
71.1335708342
 20
126.5416293414
 30
0.0
 10
69.0486598305
 20
130.3946814949
 30
0.0
 10
66.8038351396
 20
133.2695255834
 30
0.0
 10
64.7834999339
 20
135.2156540291
 30
0.0
 10
63.2353150822
 20
136.4276008742
 30
0.0
 10
61.6621407688
 20
137.3900849801
 30
0.0
 10
60.0957499301
 20
138.0824025412
 30
0.0
 10
58.5673311656
 20
138.4884467975
 30
0.0
 10
57.1069264369
 20
138.5959179674
 30
0.0
 10
55.746937542
 20
138.3966217352
 30
0.0
 10
54.9230358445
 20
138.0542325233
 30
0.0
 10
54.5492791514
 20
137.8384476153
 30
0.0
  0
SPLINE
  5
467
100
AcDbEntity
  8
0
100
AcDbSpline
 62
7
  6
BYLAYER
 70
0
 71
3
 72
16
 73
12
 74
0
 42
0.0000001
 43
0.0000001
 44
0.0000000001
 40
0.0
 40
0.0
 40
0.0
 40
0.0
 40
0.0428765743
 40
0.0875234667
 40
0.186928609
 40
0.3042403422
 40
0.4379658104
 40
0.582370771
 40
0.729593422
 40
0.8712541043
 40
1.0
 40
1.0
 40
1.0
 40
1.0
 10
104.1139175496
 20
138.3636009944
 30
0.0
 10
104.2001812443
 20
138.4134512826
 30
0.0
 10
104.3904011468
 20
138.4924714961
 30
0.0
 10
104.8239078013
 20
138.5560502582
 30
0.0
 10
105.4359320154
 20
138.4365416466
 30
0.0
 10
106.1568909257
 20
138.0410998988
 30
0.0
 10
106.8499045745
 20
137.4281325901
 30
0.0
 10
107.4612212014
 20
136.6453182339
 30
0.0
 10
107.9426992096
 20
135.7555691801
 30
0.0
 10
108.2550564498
 20
134.8319408806
 30
0.0
 10
108.3387623579
 20
134.20288413
 30
0.0
 10
108.3387623579
 20
133.9037190712
 30
0.0
  0
SPLINE
  5
468
100
AcDbEntity
  8
0
100
AcDbSpline
 62
7
  6
BYLAYER
 70
0
 71
3
 72
12
 73
8
 74
0
 42
0.0000001
 43
0.0000001
 44
0.0000000001
 40
0.0
 40
0.0
 40
0.0
 40
0.0
 40
0.2895716989
 40
0.5486429765
 40
0.7816381653
 40
0.8918400871
 40
1.0
 40
1.0
 40
1.0
 40
1.0
 10
62.7442154097
 20
181.9171369677
 30
0.0
 10
63.2976975363
 20
182.236688115
 30
0.0
 10
64.3016743677
 20
182.9281895015
 30
0.0
 10
65.501185509
 20
184.1879977209
 30
0.0
 10
66.1451375724
 20
185.3752198456
 30
0.0
 10
66.3960142824
 20
186.3433968632
 30
0.0
 10
66.4374939348
 20
186.8263363321
 30
0.0
 10
66.4375181483
 20
187.0650528846
 30
0.0
  0
SPLINE
  5
469
100
AcDbEntity
  8
0
100
AcDbSpline
 62
7
  6
BYLAYER
 70
0
 71
3
 72
9
 73
5
 74
0
 42
0.0000001
 43
0.0000001
 44
0.0000000001
 40
0.0
 40
0.0
 40
0.0
 40
0.0
 40
0.2548375709
 40
1.0
 40
1.0
 40
1.0
 40
1.0
 10
134.1239177661
 20
83.0653998862
 30
0.0
 10
134.1010056387
 20
83.0371208166
 30
0.0
 10
134.007110357
 20
82.9296313404
 30
0.0
 10
133.8957854051
 20
82.8358574644
 30
0.0
 10
133.8036228014
 20
82.7826388025
 30
0.0
  0
SPLINE
  5
46A
100
AcDbEntity
  8
0
100
AcDbSpline
 62
7
  6
BYLAYER
 70
0
 71
3
 72
10
 73
6
 74
0
 42
0.0000001
 43
0.0000001
 44
0.0000000001
 40
0.0
 40
0.0
 40
0.0
 40
0.0
 40
0.4763900148
 40
0.7382244891
 40
1.0
 40
1.0
 40
1.0
 40
1.0
 10
156.1026545514
 20
87.5938424532
 30
0.0
 10
156.1026545514
 20
88.3848679371
 30
0.0
 10
155.8147642877
 20
89.6139307646
 30
0.0
 10
155.0918066238
 20
91.1095788809
 30
0.0
 10
154.5986580851
 20
91.8315959928
 30
0.0
 10
154.3256211557
 20
92.1698065561
 30
0.0
  0
SPLINE
  5
46B
100
AcDbEntity
  8
0
100
AcDbSpline
 62
7
  6
BYLAYER
 70
0
 71
3
 72
17
 73
13
 74
0
 42
0.0000001
 43
0.0000001
 44
0.0000000001
 40
0.0
 40
0.0
 40
0.0
 40
0.0
 40
0.0428592926
 40
0.087485474
 40
0.1353198781
 40
0.1872819044
 40
0.3045421965
 40
0.4382074305
 40
0.582548911
 40
0.7297129633
 40
0.8713059682
 40
1.0
 40
1.0
 40
1.0
 40
1.0
 10
152.8615261049
 20
95.5843725295
 30
0.0
 10
152.9847870781
 20
95.6555492799
 30
0.0
 10
153.2565379418
 20
95.7683898428
 30
0.0
 10
153.7050386086
 20
95.8342210287
 30
0.0
 10
154.1867144731
 20
95.7987323121
 30
0.0
 10
154.8865781897
 20
95.612591614
 30
0.0
 10
155.7812453728
 20
95.1233821611
 30
0.0
 10
156.7697104533
 20
94.2479939517
 30
0.0
 10
157.6435107835
 20
93.1296118815
 30
0.0
 10
158.3311808803
 20
91.8585578789
 30
0.0
 10
158.7774995203
 20
90.5390918651
 30
0.0
 10
158.8970550089
 20
89.6404423063
 30
0.0
 10
158.8970550089
 20
89.2130500306
 30
0.0
  0
SPLINE
  5
46C
100
AcDbEntity
  8
0
100
AcDbSpline
 62
7
  6
BYLAYER
 70
0
 71
3
 72
11
 73
7
 74
0
 42
0.0000001
 43
0.0000001
 44
0.0000000001
 40
0.0
 40
0.0
 40
0.0
 40
0.0
 40
0.2177816419
 40
0.4509072171
 40
0.7103207752
 40
1.0
 40
1.0
 40
1.0
 40
1.0
 10
106.553195717
 20
86.0711448754
 30
0.0
 10
106.668617513
 20
86.1378524201
 30
0.0
 10
106.8846768041
 20
86.3193556325
 30
0.0
 10
107.1146524211
 20
86.6953991223
 30
0.0
 10
107.2511899405
 20
87.1587817878
 30
0.0
 10
107.2781066021
 20
87.4960397002
 30
0.0
 10
107.2781066021
 20
87.6733627954
 30
0.0
  0
SPLINE
  5
46D
100
AcDbEntity
  8
0
100
AcDbSpline
 62
7
  6
BYLAYER
 70
0
 71
3
 72
13
 73
9
 74
0
 42
0.0000001
 43
0.0000001
 44
0.0000000001
 40
0.0
 40
0.0
 40
0.0
 40
0.0
 40
0.2934090964
 40
0.5611315358
 40
0.6832756492
 40
0.7969025095
 40
0.902024524
 40
1.0
 40
1.0
 40
1.0
 40
1.0
 10
154.3320480926
 20
92.1581908605
 30
0.0
 10
154.0727422545
 20
92.4793927352
 30
0.0
 10
153.533941764
 20
93.061670124
 30
0.0
 10
152.7559219731
 20
93.6388065182
 30
0.0
 10
152.1231530221
 20
93.9604528346
 30
0.0
 10
151.6698250075
 20
94.1221368713
 30
0.0
 10
151.2297284263
 20
94.20411287
 30
0.0
 10
150.9422059123
 20
94.20611635
 30
0.0
 10
150.804844783
 20
94.1945746423
 30
0.0
  0
SPLINE
  5
46E
100
AcDbEntity
  8
0
100
AcDbSpline
 62
7
  6
BYLAYER
 70
0
 71
3
 72
16
 73
12
 74
0
 42
0.0000001
 43
0.0000001
 44
0.0000000001
 40
0.0
 40
0.0
 40
0.0
 40
0.0
 40
0.0428765743
 40
0.0875234667
 40
0.186928609
 40
0.3042403422
 40
0.4379658104
 40
0.582370771
 40
0.729593422
 40
0.8712541043
 40
1.0
 40
1.0
 40
1.0
 40
1.0
 10
104.1139175496
 20
92.7456109494
 30
0.0
 10
104.2001812443
 20
92.7954612376
 30
0.0
 10
104.3904011468
 20
92.8744814511
 30
0.0
 10
104.8239078013
 20
92.9380602132
 30
0.0
 10
105.4359320154
 20
92.8185516016
 30
0.0
 10
106.1568909257
 20
92.4231098538
 30
0.0
 10
106.8499045745
 20
91.8101425451
 30
0.0
 10
107.4612212014
 20
91.0273281889
 30
0.0
 10
107.9426992096
 20
90.1375791351
 30
0.0
 10
108.2550564498
 20
89.2139508356
 30
0.0
 10
108.3387623579
 20
88.584894085
 30
0.0
 10
108.3387623579
 20
88.2857290262
 30
0.0
  0
SPLINE
  5
46F
100
AcDbEntity
  8
0
100
AcDbSpline
 62
7
  6
BYLAYER
 70
0
 71
3
 72
11
 73
7
 74
0
 42
0.0000001
 43
0.0000001
 44
0.0000000001
 40
0.0
 40
0.0
 40
0.0
 40
0.0
 40
0.2175937509
 40
0.4506891509
 40
0.7100805485
 40
1.0
 40
1.0
 40
1.0
 40
1.0
 10
155.0684495454
 20
85.3115306666
 30
0.0
 10
155.2342302687
 20
85.4061081306
 30
0.0
 10
155.5430194299
 20
85.6673508849
 30
0.0
 10
155.8720502551
 20
86.2059488248
 30
0.0
 10
156.0663723415
 20
86.8707889691
 30
0.0
 10
156.1027273781
 20
87.3543032658
 30
0.0
 10
156.1027273781
 20
87.608605083
 30
0.0
  0
SPLINE
  5
470
100
AcDbEntity
  8
0
100
AcDbSpline
 62
7
  6
BYLAYER
 70
0
 71
3
 72
18
 73
14
 74
0
 42
0.0000001
 43
0.0000001
 44
0.0000000001
 40
0.0
 40
0.0
 40
0.0
 40
0.0
 40
0.0428474714
 40
0.0874644388
 40
0.1352857479
 40
0.1872371743
 40
0.243728084
 40
0.3047335592
 40
0.4383682008
 40
0.5826763266
 40
0.7297923158
 40
0.8713437528
 40
1.0
 40
1.0
 40
1.0
 40
1.0
 10
41.2176054029
 20
187.0650528798
 30
0.0
 10
41.2175689921
 20
186.7060850492
 30
0.0
 10
41.3136758524
 20
185.97021759
 30
0.0
 10
41.7355915907
 20
184.9076370917
 30
0.0
 10
42.4204475383
 20
183.9003339024
 30
0.0
 10
43.3486842688
 20
182.9683112242
 30
0.0
 10
44.4988250442
 20
182.1277595294
 30
0.0
 10
46.3516244324
 20
181.1204868602
 30
0.0
 10
49.066551401
 20
180.2137657267
 30
0.0
 10
52.6090885448
 20
179.7163386421
 30
0.0
 10
56.2528875269
 20
179.8169877703
 30
0.0
 10
59.697251796
 20
180.5062279394
 30
0.0
 10
61.8107623274
 20
181.3782107963
 30
0.0
 10
62.7442154097
 20
181.9171369677
 30
0.0
  0
SPLINE
  5
471
100
AcDbEntity
  8
0
100
AcDbSpline
 62
7
  6
BYLAYER
 70
0
 71
3
 72
11
 73
7
 74
0
 42
0.0000001
 43
0.0000001
 44
0.0000000001
 40
0.0
 40
0.0
 40
0.0
 40
0.0
 40
0.2097131756
 40
0.4397248994
 40
0.7027495694
 40
1.0
 40
1.0
 40
1.0
 40
1.0
 10
160.6995315366
 20
95.806877916
 30
0.0
 10
160.6396714109
 20
95.772038342
 30
0.0
 10
160.4976087092
 20
95.724541763
 30
0.0
 10
160.2617205861
 20
95.7397762013
 30
0.0
 10
160.0141248135
 20
95.8298444129
 30
0.0
 10
159.8564211034
 20
95.929112034
 30
0.0
 10
159.7779659871
 20
95.9881233148
 30
0.0
  0
SPLINE
  5
472
100
AcDbEntity
  8
0
100
AcDbSpline
 62
7
  6
BYLAYER
 70
0
 71
3
 72
12
 73
8
 74
0
 42
0.0000001
 43
0.0000001
 44
0.0000000001
 40
0.0
 40
0.0
 40
0.0
 40
0.0
 40
0.1081590511
 40
0.2183609311
 40
0.4513555486
 40
0.7104292476
 40
1.0
 40
1.0
 40
1.0
 40
1.0
 10
66.4375115945
 20
185.8402992582
 30
0.0
 10
66.4374877981
 20
185.6015847248
 30
0.0
 10
66.3960185926
 20
185.1186461748
 30
0.0
 10
66.1451257742
 20
184.150476795
 30
0.0
 10
65.501191044
 20
182.9632444136
 30
0.0
 10
64.3016711858
 20
181.7034388703
 30
0.0
 10
63.297695456
 20
181.0119332883
 30
0.0
 10
62.7442154097
 20
180.692383342
 30
0.0
  0
SPLINE
  5
473
100
AcDbEntity
  8
0
100
AcDbSpline
 62
7
  6
BYLAYER
 70
0
 71
3
 72
16
 73
12
 74
0
 42
0.0000001
 43
0.0000001
 44
0.0000000001
 40
0.0
 40
0.0
 40
0.0
 40
0.0
 40
0.0428765743
 40
0.0875234667
 40
0.186928609
 40
0.3042403422
 40
0.4379658104
 40
0.582370771
 40
0.729593422
 40
0.8712541043
 40
1.0
 40
1.0
 40
1.0
 40
1.0
 10
139.1671927168
 20
133.8774798566
 30
0.0
 10
139.0870907145
 20
133.8311903032
 30
0.0
 10
138.9104579479
 20
133.7578143907
 30
0.0
 10
138.5079160544
 20
133.6987769688
 30
0.0
 10
137.9396078556
 20
133.809749251
 30
0.0
 10
137.2701460104
 20
134.1769451596
 30
0.0
 10
136.6266333365
 20
134.7461290891
 30
0.0
 10
136.0589821829
 20
135.4730281342
 30
0.0
 10
135.6118954611
 20
136.2992236841
 30
0.0
 10
135.3218494523
 20
137.1568785336
 30
0.0
 10
135.2441225376
 20
137.7410026592
 30
0.0
 10
135.2441225376
 20
138.0187987853
 30
0.0
  0
SPLINE
  5
474
100
AcDbEntity
  8
0
100
AcDbSpline
 62
7
  6
BYLAYER
 70
0
 71
3
 72
11
 73
7
 74
0
 42
0.0000001
 43
0.0000001
 44
0.0000000001
 40
0.0
 40
0.0
 40
0.0
 40
0.0
 40
0.2192317172
 40
0.4529202558
 40
0.7120423287
 40
1.0
 40
1.0
 40
1.0
 40
1.0
 10
159.3505917545
 20
97.3734623903
 30
0.0
 10
159.3019772327
 20
97.3453231302
 30
0.0
 10
159.1908532833
 20
97.3041535811
 30
0.0
 10
159.0061468563
 20
97.2968482696
 30
0.0
 10
158.8092013186
 20
97.3407137413
 30
0.0
 10
158.6805125468
 20
97.3985077389
 30
0.0
 10
158.615846572
 20
97.4340293362
 30
0.0
  0
SPLINE
  5
475
100
AcDbEntity
  8
0
100
AcDbSpline
 62
7
  6
BYLAYER
 70
0
 71
3
 72
9
 73
5
 74
0
 42
0.0000001
 43
0.0000001
 44
0.0000000001
 40
0.0
 40
0.0
 40
0.0
 40
0.0
 40
0.4668188765
 40
1.0
 40
1.0
 40
1.0
 40
1.0
 10
157.903024262
 20
98.7150055099
 30
0.0
 10
157.8273314649
 20
98.6712161621
 30
0.0
 10
157.6373884656
 20
98.622658203
 30
0.0
 10
157.4489483239
 20
98.6597956132
 30
0.0
 10
157.3545230044
 20
98.6923447578
 30
0.0
  0
SPLINE
  5
476
100
AcDbEntity
  8
0
100
AcDbSpline
 62
7
  6
BYLAYER
 70
0
 71
3
 72
9
 73
5
 74
0
 42
0.0000001
 43
0.0000001
 44
0.0000000001
 40
0.0
 40
0.0
 40
0.0
 40
0.0
 40
0.4819813972
 40
1.0
 40
1.0
 40
1.0
 40
1.0
 10
156.4010871962
 20
99.7902683922
 30
0.0
 10
156.3483095352
 20
99.7598131325
 30
0.0
 10
156.2261592153
 20
99.717001407
 30
0.0
 10
156.0976270545
 20
99.7165322165
 30
0.0
 10
156.0326426354
 20
99.7246575496
 30
0.0
  0
SPLINE
  5
477
100
AcDbEntity
  8
0
100
AcDbSpline
 62
7
  6
BYLAYER
 70
0
 71
3
 72
9
 73
5
 74
0
 42
0.0000001
 43
0.0000001
 44
0.0000000001
 40
0.0
 40
0.0
 40
0.0
 40
0.0
 40
0.5000011284
 40
1.0
 40
1.0
 40
1.0
 40
1.0
 10
145.504420072
 20
104.1875755207
 30
0.0
 10
145.504420072
 20
104.308750155
 30
0.0
 10
145.4216202052
 20
104.5480197913
 30
0.0
 10
145.2558056408
 20
104.7393610908
 30
0.0
 10
145.1508652094
 20
104.7999471065
 30
0.0
  0
SPLINE
  5
478
100
AcDbEntity
  8
0
100
AcDbSpline
 62
7
  6
BYLAYER
 70
0
 71
3
 72
11
 73
7
 74
0
 42
0.0000001
 43
0.0000001
 44
0.0000000001
 40
0.0
 40
0.0
 40
0.0
 40
0.0
 40
0.289702329
 40
0.5490881649
 40
0.7822156415
 40
1.0
 40
1.0
 40
1.0
 40
1.0
 10
27.4807652873
 20
185.5381365105
 30
0.0
 10
27.261371167
 20
185.6648008994
 30
0.0
 10
26.8249255167
 20
185.8724266516
 30
0.0
 10
26.1540998679
 20
186.0344190268
 30
0.0
 10
25.5246691585
 20
186.0184819555
 30
0.0
 10
25.1457182639
 20
185.8809577413
 30
0.0
 10
24.9807889542
 20
185.7857362988
 30
0.0
  0
SPLINE
  5
479
100
AcDbEntity
  8
0
100
AcDbSpline
 62
7
  6
BYLAYER
 70
0
 71
3
 72
10
 73
6
 74
0
 42
0.0000001
 43
0.0000001
 44
0.0000000001
 40
0.0
 40
0.0
 40
0.0
 40
0.0
 40
0.5302791259
 40
0.7696567171
 40
1.0
 40
1.0
 40
1.0
 40
1.0
 10
104.2757545595
 20
92.1988315289
 30
0.0
 10
104.0645700443
 20
92.2675614687
 30
0.0
 10
103.7370452701
 20
92.3248487416
 30
0.0
 10
103.3203586833
 20
92.2586930898
 30
0.0
 10
103.13677405
 20
92.1815380327
 30
0.0
 10
103.0532499294
 20
92.1332651039
 30
0.0
  0
SPLINE
  5
47A
100
AcDbEntity
  8
0
100
AcDbSpline
 62
7
  6
BYLAYER
 70
0
 71
3
 72
11
 73
7
 74
0
 42
0.0000001
 43
0.0000001
 44
0.0000000001
 40
0.0
 40
0.0
 40
0.0
 40
0.0
 40
0.2342639532
 40
0.4935871824
 40
0.7563582957
 40
1.0
 40
1.0
 40
1.0
 40
1.0
 10
110.1628518683
 20
133.7441529735
 30
0.0
 10
110.1628518683
 20
134.281341761
 30
0.0
 10
109.9753127735
 20
135.4141445179
 30
0.0
 10
109.3091450581
 20
137.0279227088
 30
0.0
 10
108.3191323616
 20
138.4920166075
 30
0.0
 10
107.4669429267
 20
139.3016928011
 30
0.0
 10
107.0098952979
 20
139.6230106294
 30
0.0
  0
SPLINE
  5
47B
100
AcDbEntity
  8
0
100
AcDbSpline
 62
7
  6
BYLAYER
 70
0
 71
3
 72
11
 73
7
 74
0
 42
0.0000001
 43
0.0000001
 44
0.0000000001
 40
0.0
 40
0.0
 40
0.0
 40
0.0
 40
0.237239768
 40
0.4999988393
 40
0.7627585384
 40
1.0
 40
1.0
 40
1.0
 40
1.0
 10
113.698400494
 20
122.1445252493
 30
0.0
 10
113.1964521931
 20
122.4343186799
 30
0.0
 10
112.2465833251
 20
123.2337533952
 30
0.0
 10
111.1379572645
 20
124.7487244816
 30
0.0
 10
110.3802572235
 20
126.4663086518
 30
0.0
 10
110.1628518683
 20
127.6886402747
 30
0.0
 10
110.1628518683
 20
128.2682411075
 30
0.0
  0
SPLINE
  5
47C
100
AcDbEntity
  8
0
100
AcDbSpline
 62
7
  6
BYLAYER
 70
0
 71
3
 72
11
 73
7
 74
0
 42
0.0000001
 43
0.0000001
 44
0.0000000001
 40
0.0
 40
0.0
 40
0.0
 40
0.0
 40
0.2897033281
 40
0.5490895198
 40
0.7822165953
 40
1.0
 40
1.0
 40
1.0
 40
1.0
 10
110.1628518683
 20
91.8149774994
 30
0.0
 10
110.1628518683
 20
92.0683182214
 30
0.0
 10
110.2012620491
 20
92.5501185815
 30
0.0
 10
110.3963854144
 20
93.212087028
 30
0.0
 10
110.7249083587
 20
93.7492369871
 30
0.0
 10
111.0334911203
 20
94.0086621066
 30
0.0
 10
111.1984241608
 20
94.1038856007
 30
0.0
  0
SPLINE
  5
47D
100
AcDbEntity
  8
0
100
AcDbSpline
 62
7
  6
BYLAYER
 70
0
 71
3
 72
9
 73
5
 74
0
 42
0.0000001
 43
0.0000001
 44
0.0000000001
 40
0.0
 40
0.0
 40
0.0
 40
0.0
 40
0.2702051074
 40
1.0
 40
1.0
 40
1.0
 40
1.0
 10
105.6881401841
 20
91.7906639277
 30
0.0
 10
105.6031552648
 20
91.8613013203
 30
0.0
 10
105.2792567083
 20
92.1104515107
 30
0.0
 10
104.9131249632
 20
92.3105849613
 30
0.0
 10
104.6293064781
 20
92.4029536058
 30
0.0
  0
SPLINE
  5
47E
100
AcDbEntity
  8
0
100
AcDbSpline
 62
7
  6
BYLAYER
 70
0
 71
3
 72
11
 73
7
 74
0
 42
0.0000001
 43
0.0000001
 44
0.0000000001
 40
0.0
 40
0.0
 40
0.0
 40
0.0
 40
0.2177838913
 40
0.4509225002
 40
0.710258114
 40
1.0
 40
1.0
 40
1.0
 40
1.0
 10
109.1272697101
 20
84.0501748121
 30
0.0
 10
109.2922265486
 20
84.1453584798
 30
0.0
 10
109.6008026719
 20
84.4048302039
 30
0.0
 10
109.9292994758
 20
84.9419402611
 30
0.0
 10
110.1244952936
 20
85.6038925367
 30
0.0
 10
110.1628518683
 20
86.0856908251
 30
0.0
 10
110.1628518683
 20
86.3390656335
 30
0.0
  0
SPLINE
  5
47F
100
AcDbEntity
  8
0
100
AcDbSpline
 62
7
  6
BYLAYER
 70
0
 71
3
 72
11
 73
7
 74
0
 42
0.0000001
 43
0.0000001
 44
0.0000000001
 40
0.0
 40
0.0
 40
0.0
 40
0.0
 40
0.2896413964
 40
0.5491107671
 40
0.7822355978
 40
1.0
 40
1.0
 40
1.0
 40
1.0
 10
108.3387623579
 20
88.2857290262
 30
0.0
 10
108.3387623579
 20
88.1084287705
 30
0.0
 10
108.3118126535
 20
87.7711617176
 30
0.0
 10
108.1753078421
 20
87.3077676266
 30
0.0
 10
107.9453659958
 20
86.9316574234
 30
0.0
 10
107.7292551165
 20
86.7502292979
 30
0.0
 10
107.6138390902
 20
86.6835323846
 30
0.0
  0
SPLINE
  5
480
100
AcDbEntity
  8
0
100
AcDbSpline
 62
7
  6
BYLAYER
 70
0
 71
3
 72
11
 73
7
 74
0
 42
0.0000001
 43
0.0000001
 44
0.0000000001
 40
0.0
 40
0.0
 40
0.0
 40
0.0
 40
0.2318500959
 40
0.4880956242
 40
0.7506704316
 40
1.0
 40
1.0
 40
1.0
 40
1.0
 10
107.2781066021
 20
87.6733627954
 30
0.0
 10
107.2781066021
 20
88.0200408456
 30
0.0
 10
107.1661868833
 20
88.7506152989
 30
0.0
 10
106.760793177
 20
89.8043824401
 30
0.0
 10
106.1498950369
 20
90.7847821093
 30
0.0
 10
105.6212963485
 20
91.3482370836
 30
0.0
 10
105.3345882655
 20
91.5865418508
 30
0.0
  0
SPLINE
  5
481
100
AcDbEntity
  8
0
100
AcDbSpline
 62
7
  6
BYLAYER
 70
0
 71
3
 72
11
 73
7
 74
0
 42
0.0000001
 43
0.0000001
 44
0.0000000001
 40
0.0
 40
0.0
 40
0.0
 40
0.0
 40
0.2896413964
 40
0.5491107671
 40
0.7822355978
 40
1.0
 40
1.0
 40
1.0
 40
1.0
 10
108.3387623579
 20
133.9037190712
 30
0.0
 10
108.3387623579
 20
133.7264188156
 30
0.0
 10
108.3118126535
 20
133.3891517626
 30
0.0
 10
108.1753078421
 20
132.9257576717
 30
0.0
 10
107.9453659958
 20
132.5496474684
 30
0.0
 10
107.7292551165
 20
132.368219343
 30
0.0
 10
107.6138390902
 20
132.3015224296
 30
0.0
  0
SPLINE
  5
482
100
AcDbEntity
  8
0
100
AcDbSpline
 62
7
  6
BYLAYER
 70
0
 71
3
 72
11
 73
7
 74
0
 42
0.0000001
 43
0.0000001
 44
0.0000000001
 40
0.0
 40
0.0
 40
0.0
 40
0.0
 40
0.2896413964
 40
0.5491107671
 40
0.7822355978
 40
1.0
 40
1.0
 40
1.0
 40
1.0
 10
30.7193278285
 20
133.0983166499
 30
0.0
 10
30.7193278285
 20
132.9210163942
 30
0.0
 10
30.6923781241
 20
132.5837493413
 30
0.0
 10
30.5558733128
 20
132.1203552503
 30
0.0
 10
30.3259314665
 20
131.7442450471
 30
0.0
 10
30.1098205871
 20
131.5628169216
 30
0.0
 10
29.9944045608
 20
131.4961200083
 30
0.0
  0
SPLINE
  5
483
100
AcDbEntity
  8
0
100
AcDbSpline
 62
7
  6
BYLAYER
 70
0
 71
3
 72
11
 73
7
 74
0
 42
0.0000001
 43
0.0000001
 44
0.0000000001
 40
0.0
 40
0.0
 40
0.0
 40
0.0
 40
0.2896413964
 40
0.5491107671
 40
0.7822355978
 40
1.0
 40
1.0
 40
1.0
 40
1.0
 10
30.7193278285
 20
178.7163066949
 30
0.0
 10
30.7193278285
 20
178.5390064392
 30
0.0
 10
30.6923781241
 20
178.2017393863
 30
0.0
 10
30.5558733128
 20
177.7383452954
 30
0.0
 10
30.3259314665
 20
177.3622350921
 30
0.0
 10
30.1098205871
 20
177.1808069666
 30
0.0
 10
29.9944045608
 20
177.1141100533
 30
0.0
  0
SPLINE
  5
484
100
AcDbEntity
  8
0
100
AcDbSpline
 62
7
  6
BYLAYER
 70
0
 71
3
 72
11
 73
7
 74
0
 42
0.0000001
 43
0.0000001
 44
0.0000000001
 40
0.0
 40
0.0
 40
0.0
 40
0.0
 40
0.2372523758
 40
0.4999990758
 40
0.7627462798
 40
1.0
 40
1.0
 40
1.0
 40
1.0
 10
94.2579584983
 20
141.6983422335
 30
0.0
 10
94.4085504806
 20
141.6113998788
 30
0.0
 10
94.6935325122
 20
141.3715861794
 30
0.0
 10
95.0260183623
 20
140.9170397525
 30
0.0
 10
95.2534267942
 20
140.4018254125
 30
0.0
 10
95.318623086
 20
140.0351161209
 30
0.0
 10
95.318623086
 20
139.861227476
 30
0.0
  0
SPLINE
  5
485
100
AcDbEntity
  8
0
100
AcDbSpline
 62
7
  6
BYLAYER
 70
0
 71
3
 72
9
 73
5
 74
0
 42
0.0000001
 43
0.0000001
 44
0.0000000001
 40
0.0
 40
0.0
 40
0.0
 40
0.0
 40
0.2444475974
 40
1.0
 40
1.0
 40
1.0
 40
1.0
 10
164.9386107493
 20
86.8971744024
 30
0.0
 10
164.9356570885
 20
87.0089589551
 30
0.0
 10
164.9173444025
 20
87.4660767819
 30
0.0
 10
164.8748468683
 20
87.9221509137
 30
0.0
 10
164.8306976774
 20
88.2649501964
 30
0.0
  0
SPLINE
  5
486
100
AcDbEntity
  8
0
100
AcDbSpline
 62
7
  6
BYLAYER
 70
0
 71
3
 72
9
 73
5
 74
0
 42
0.0000001
 43
0.0000001
 44
0.0000000001
 40
0.0
 40
0.0
 40
0.0
 40
0.0
 40
0.2455261985
 40
1.0
 40
1.0
 40
1.0
 40
1.0
 10
164.7748787564
 20
88.6570566279
 30
0.0
 10
164.7548878378
 20
88.7853679583
 30
0.0
 10
164.666788897
 20
89.3069111312
 30
0.0
 10
164.5527230463
 20
89.8240009299
 30
0.0
 10
164.4536695284
 20
90.2105542284
 30
0.0
  0
SPLINE
  5
487
100
AcDbEntity
  8
0
100
AcDbSpline
 62
7
  6
BYLAYER
 70
0
 71
3
 72
9
 73
5
 74
0
 42
0.0000001
 43
0.0000001
 44
0.0000000001
 40
0.0
 40
0.0
 40
0.0
 40
0.0
 40
0.254035223
 40
1.0
 40
1.0
 40
1.0
 40
1.0
 10
159.0024816909
 20
99.6513805254
 30
0.0
 10
158.9134419296
 20
99.7384747995
 30
0.0
 10
158.5593285971
 20
100.0775969045
 30
0.0
 10
158.1906659817
 20
100.4015998428
 30
0.0
 10
157.907563897
 20
100.6331664332
 30
0.0
  0
SPLINE
  5
488
100
AcDbEntity
  8
0
100
AcDbSpline
 62
7
  6
BYLAYER
 70
0
 71
3
 72
9
 73
5
 74
0
 42
0.0000001
 43
0.0000001
 44
0.0000000001
 40
0.0
 40
0.0
 40
0.0
 40
0.0
 40
0.2554895285
 40
1.0
 40
1.0
 40
1.0
 40
1.0
 10
157.5083371188
 20
100.9486934824
 30
0.0
 10
157.415407326
 20
101.0195996928
 30
0.0
 10
157.0483778257
 20
101.2927653956
 30
0.0
 10
156.6680398983
 20
101.5481832823
 30
0.0
 10
156.3776646468
 20
101.7262560919
 30
0.0
  0
SPLINE
  5
489
100
AcDbEntity
  8
0
100
AcDbSpline
 62
7
  6
BYLAYER
 70
0
 71
3
 72
9
 73
5
 74
0
 42
0.0000001
 43
0.0000001
 44
0.0000000001
 40
0.0
 40
0.0
 40
0.0
 40
0.0
 40
0.5437422847
 40
1.0
 40
1.0
 40
1.0
 40
1.0
 10
95.318623086
 20
97.3647739693
 30
0.0
 10
95.318623086
 20
97.2472363394
 30
0.0
 10
95.2933551353
 20
97.0289123356
 30
0.0
 10
95.1851296579
 20
96.8315750262
 30
0.0
 10
95.1157169212
 20
96.7615102179
 30
0.0
  0
SPLINE
  5
48A
100
AcDbEntity
  8
0
100
AcDbSpline
 62
7
  6
BYLAYER
 70
0
 71
3
 72
8
 73
4
 74
0
 42
0.0000001
 43
0.0000001
 44
0.0000000001
 40
0.0
 40
0.0
 40
0.0
 40
0.0
 40
1.0
 40
1.0
 40
1.0
 40
1.0
 10
95.1157169212
 20
96.7615102179
 30
0.0
 10
95.083749917
 20
96.7292429118
 30
0.0
 10
95.0472489902
 20
96.7008781401
 30
0.0
 10
95.0079131766
 20
96.6781677423
 30
0.0
  0
SPLINE
  5
48B
100
AcDbEntity
  8
0
100
AcDbSpline
 62
7
  6
BYLAYER
 70
0
 71
3
 72
10
 73
6
 74
0
 42
0.0000001
 43
0.0000001
 44
0.0000000001
 40
0.0
 40
0.0
 40
0.0
 40
0.0
 40
0.5302791259
 40
0.7696567171
 40
1.0
 40
1.0
 40
1.0
 40
1.0
 10
104.2757545595
 20
137.8168215739
 30
0.0
 10
104.0645700443
 20
137.8855515138
 30
0.0
 10
103.7370452701
 20
137.9428387866
 30
0.0
 10
103.3203586833
 20
137.8766831348
 30
0.0
 10
103.13677405
 20
137.7995280777
 30
0.0
 10
103.0532499294
 20
137.7512551489
 30
0.0
  0
SPLINE
  5
48C
100
AcDbEntity
  8
0
100
AcDbSpline
 62
7
  6
BYLAYER
 70
0
 71
3
 72
9
 73
5
 74
0
 42
0.0000001
 43
0.0000001
 44
0.0000000001
 40
0.0
 40
0.0
 40
0.0
 40
0.0
 40
0.2548377749
 40
1.0
 40
1.0
 40
1.0
 40
1.0
 10
159.6476511597
 20
127.2740483304
 30
0.0
 10
159.6606849775
 20
127.3080295422
 30
0.0
 10
159.7068241286
 20
127.4430866068
 30
0.0
 10
159.7323712535
 20
127.5863799046
 30
0.0
 10
159.7323789399
 20
127.6928015377
 30
0.0
  0
SPLINE
  5
48D
100
AcDbEntity
  8
0
100
AcDbSpline
 62
7
  6
BYLAYER
 70
0
 71
3
 72
9
 73
5
 74
0
 42
0.0000001
 43
0.0000001
 44
0.0000000001
 40
0.0
 40
0.0
 40
0.0
 40
0.0
 40
0.241596921
 40
1.0
 40
1.0
 40
1.0
 40
1.0
 10
148.3825513266
 20
99.0412638139
 30
0.0
 10
148.3646508605
 20
99.0350923559
 30
0.0
 10
148.2891931168
 20
99.013531407
 30
0.0
 10
148.2094783289
 20
99.0083499512
 30
0.0
 10
148.150151813
 20
99.0119826641
 30
0.0
  0
SPLINE
  5
48E
100
AcDbEntity
  8
0
100
AcDbSpline
 62
7
  6
BYLAYER
 70
0
 71
3
 72
9
 73
5
 74
0
 42
0.0000001
 43
0.0000001
 44
0.0000000001
 40
0.0
 40
0.0
 40
0.0
 40
0.0
 40
0.2171461932
 40
1.0
 40
1.0
 40
1.0
 40
1.0
 10
149.0536875788
 20
99.9960683942
 30
0.0
 10
148.9977808527
 20
99.993134583
 30
0.0
 10
148.738353113
 20
100.0148130378
 30
0.0
 10
148.5009838738
 20
100.149841098
 30
0.0
 10
148.3429423312
 20
100.2753757986
 30
0.0
  0
SPLINE
  5
48F
100
AcDbEntity
  8
0
100
AcDbSpline
 62
7
  6
BYLAYER
 70
0
 71
3
 72
9
 73
5
 74
0
 42
0.0000001
 43
0.0000001
 44
0.0000000001
 40
0.0
 40
0.0
 40
0.0
 40
0.0
 40
0.2410119707
 40
1.0
 40
1.0
 40
1.0
 40
1.0
 10
148.3429423312
 20
100.2753757986
 30
0.0
 10
148.3129658359
 20
100.2991865657
 30
0.0
 10
148.1917958119
 20
100.4019951966
 30
0.0
 10
148.0827551505
 20
100.5187589055
 30
0.0
 10
148.0068629411
 20
100.6124315988
 30
0.0
  0
SPLINE
  5
490
100
AcDbEntity
  8
0
100
AcDbSpline
 62
7
  6
BYLAYER
 70
0
 71
3
 72
12
 73
8
 74
0
 42
0.0000001
 43
0.0000001
 44
0.0000000001
 40
0.0
 40
0.0
 40
0.0
 40
0.0
 40
0.1081594402
 40
0.218358889
 40
0.4513620073
 40
0.7104188582
 40
1.0
 40
1.0
 40
1.0
 40
1.0
 10
69.7091929015
 20
111.5805500293
 30
0.0
 10
69.9577427584
 20
111.7240479492
 30
0.0
 10
70.4355630047
 20
112.0576450648
 30
0.0
 10
71.2929468186
 20
112.9007275268
 30
0.0
 10
72.14183647
 20
114.28497064
 30
0.0
 10
72.7325956057
 20
116.2911488276
 30
0.0
 10
72.8490194597
 20
117.7521697735
 30
0.0
 10
72.8490194597
 20
118.5205689838
 30
0.0
  0
SPLINE
  5
491
100
AcDbEntity
  8
0
100
AcDbSpline
 62
7
  6
BYLAYER
 70
0
 71
3
 72
9
 73
5
 74
0
 42
0.0000001
 43
0.0000001
 44
0.0000000001
 40
0.0
 40
0.0
 40
0.0
 40
0.0
 40
0.4504193864
 40
1.0
 40
1.0
 40
1.0
 40
1.0
 10
149.9164837135
 20
100.6852573617
 30
0.0
 10
149.7191567306
 20
100.7224579709
 30
0.0
 10
149.3138149086
 20
100.9528818973
 30
0.0
 10
149.0204262206
 20
101.2952925308
 30
0.0
 10
148.8866164046
 20
101.5005362874
 30
0.0
  0
SPLINE
  5
492
100
AcDbEntity
  8
0
100
AcDbSpline
 62
7
  6
BYLAYER
 70
0
 71
3
 72
9
 73
5
 74
0
 42
0.0000001
 43
0.0000001
 44
0.0000000001
 40
0.0
 40
0.0
 40
0.0
 40
0.0
 40
0.2702051074
 40
1.0
 40
1.0
 40
1.0
 40
1.0
 10
105.6881401841
 20
137.4086539728
 30
0.0
 10
105.6031552648
 20
137.4792913653
 30
0.0
 10
105.2792567083
 20
137.7284415557
 30
0.0
 10
104.9131249632
 20
137.9285750064
 30
0.0
 10
104.6293064781
 20
138.0209436509
 30
0.0
  0
SPLINE
  5
493
100
AcDbEntity
  8
0
100
AcDbSpline
 62
7
  6
BYLAYER
 70
0
 71
3
 72
9
 73
5
 74
0
 42
0.0000001
 43
0.0000001
 44
0.0000000001
 40
0.0
 40
0.0
 40
0.0
 40
0.0
 40
0.5000011284
 40
1.0
 40
1.0
 40
1.0
 40
1.0
 10
145.504420072
 20
97.6555561836
 30
0.0
 10
145.504420072
 20
97.7767308179
 30
0.0
 10
145.4216202052
 20
98.0160004542
 30
0.0
 10
145.2558056408
 20
98.2073417537
 30
0.0
 10
145.1508652094
 20
98.2679277694
 30
0.0
  0
SPLINE
  5
494
100
AcDbEntity
  8
0
100
AcDbSpline
 62
7
  6
BYLAYER
 70
0
 71
3
 72
10
 73
6
 74
0
 42
0.0000001
 43
0.0000001
 44
0.0000000001
 40
0.0
 40
0.0
 40
0.0
 40
0.0
 40
0.2195549056
 40
0.465413934
 40
1.0
 40
1.0
 40
1.0
 40
1.0
 10
150.9447241067
 20
101.0878900584
 30
0.0
 10
150.8485265054
 20
101.1266103905
 30
0.0
 10
150.6556160436
 20
101.2366973685
 30
0.0
 10
150.2963778109
 20
101.5458673631
 30
0.0
 10
150.0804646714
 20
101.8541230297
 30
0.0
 10
149.9645856218
 20
102.0784514824
 30
0.0
  0
SPLINE
  5
495
100
AcDbEntity
  8
0
100
AcDbSpline
 62
7
  6
BYLAYER
 70
0
 71
3
 72
9
 73
5
 74
0
 42
0.0000001
 43
0.0000001
 44
0.0000000001
 40
0.0
 40
0.0
 40
0.0
 40
0.0
 40
0.4786363945
 40
1.0
 40
1.0
 40
1.0
 40
1.0
 10
152.1071661944
 20
101.1917326936
 30
0.0
 10
151.9068366082
 20
101.3130053115
 30
0.0
 10
151.545253576
 20
101.6595279605
 30
0.0
 10
151.2979557615
 20
102.0893767011
 30
0.0
 10
151.204777686
 20
102.3268312129
 30
0.0
  0
SPLINE
  5
496
100
AcDbEntity
  8
0
100
AcDbSpline
 62
7
  6
BYLAYER
 70
0
 71
3
 72
9
 73
5
 74
0
 42
0.0000001
 43
0.0000001
 44
0.0000000001
 40
0.0
 40
0.0
 40
0.0
 40
0.0
 40
0.4935497805
 40
1.0
 40
1.0
 40
1.0
 40
1.0
 10
153.3684897619
 20
100.9936300613
 30
0.0
 10
153.1774448888
 20
101.1483700298
 30
0.0
 10
152.8484117945
 20
101.5347490903
 30
0.0
 10
152.6392675911
 20
101.9954302707
 30
0.0
 10
152.5732531683
 20
102.2389168159
 30
0.0
  0
SPLINE
  5
497
100
AcDbEntity
  8
0
100
AcDbSpline
 62
7
  6
BYLAYER
 70
0
 71
3
 72
11
 73
7
 74
0
 42
0.0000001
 43
0.0000001
 44
0.0000000001
 40
0.0
 40
0.0
 40
0.0
 40
0.0
 40
0.2318500959
 40
0.4880956242
 40
0.7506704316
 40
1.0
 40
1.0
 40
1.0
 40
1.0
 10
107.2781066021
 20
133.2913528404
 30
0.0
 10
107.2781066021
 20
133.6380308906
 30
0.0
 10
107.1661868833
 20
134.3686053439
 30
0.0
 10
106.760793177
 20
135.4223724851
 30
0.0
 10
106.1498950369
 20
136.4027721543
 30
0.0
 10
105.6212963485
 20
136.9662271287
 30
0.0
 10
105.3345882655
 20
137.2045318958
 30
0.0
  0
SPLINE
  5
498
100
AcDbEntity
  8
0
100
AcDbSpline
 62
7
  6
BYLAYER
 70
0
 71
3
 72
9
 73
5
 74
0
 42
0.0000001
 43
0.0000001
 44
0.0000000001
 40
0.0
 40
0.0
 40
0.0
 40
0.0
 40
0.5081473318
 40
1.0
 40
1.0
 40
1.0
 40
1.0
 10
154.6903701309
 20
100.4996014098
 30
0.0
 10
154.5141247303
 20
100.6810706043
 30
0.0
 10
154.2252446284
 20
101.0958884674
 30
0.0
 10
154.0594625798
 20
101.5752900653
 30
0.0
 10
154.0243017951
 20
101.817609889
 30
0.0
  0
SPLINE
  5
499
100
AcDbEntity
  8
0
100
AcDbSpline
 62
7
  6
BYLAYER
 70
0
 71
3
 72
9
 73
5
 74
0
 42
0.0000001
 43
0.0000001
 44
0.0000000001
 40
0.0
 40
0.0
 40
0.0
 40
0.0
 40
0.5231936233
 40
1.0
 40
1.0
 40
1.0
 40
1.0
 10
156.0326426354
 20
99.7246575496
 30
0.0
 10
155.8757572968
 20
99.9257701313
 30
0.0
 10
155.6313698758
 20
100.355379669
 30
0.0
 10
155.5194967107
 20
100.8420206418
 30
0.0
 10
155.5182252027
 20
101.0744696737
 30
0.0
  0
SPLINE
  5
49A
100
AcDbEntity
  8
0
100
AcDbSpline
 62
7
  6
BYLAYER
 70
0
 71
3
 72
9
 73
5
 74
0
 42
0.0000001
 43
0.0000001
 44
0.0000000001
 40
0.0
 40
0.0
 40
0.0
 40
0.0
 40
0.258476532
 40
1.0
 40
1.0
 40
1.0
 40
1.0
 10
156.9899268728
 20
99.8350460467
 30
0.0
 10
156.9899268728
 20
99.8522778694
 30
0.0
 10
156.9911381181
 20
99.9189323093
 30
0.0
 10
156.9971817825
 20
99.9855525758
 30
0.0
 10
157.0050250857
 20
100.0343614583
 30
0.0
  0
SPLINE
  5
49B
100
AcDbEntity
  8
0
100
AcDbSpline
 62
7
  6
BYLAYER
 70
0
 71
3
 72
9
 73
5
 74
0
 42
0.0000001
 43
0.0000001
 44
0.0000000001
 40
0.0
 40
0.0
 40
0.0
 40
0.0
 40
0.5254180863
 40
1.0
 40
1.0
 40
1.0
 40
1.0
 10
157.3545230044
 20
98.6923447578
 30
0.0
 10
157.2419101845
 20
98.8719627228
 30
0.0
 10
157.0673513221
 20
99.2400709857
 30
0.0
 10
156.9899268728
 20
99.6435572876
 30
0.0
 10
156.9899268728
 20
99.8350460467
 30
0.0
  0
SPLINE
  5
49C
100
AcDbEntity
  8
0
100
AcDbSpline
 62
7
  6
BYLAYER
 70
0
 71
3
 72
9
 73
5
 74
0
 42
0.0000001
 43
0.0000001
 44
0.0000000001
 40
0.0
 40
0.0
 40
0.0
 40
0.0
 40
0.2687588344
 40
1.0
 40
1.0
 40
1.0
 40
1.0
 10
158.3806293711
 20
98.3452080285
 30
0.0
 10
158.3806293711
 20
98.3799113507
 30
0.0
 10
158.3852441268
 20
98.5088881176
 30
0.0
 10
158.4103269749
 20
98.6379209992
 30
0.0
 10
158.4435659344
 20
98.7262980932
 30
0.0
  0
SPLINE
  5
49D
100
AcDbEntity
  8
0
100
AcDbSpline
 62
7
  6
BYLAYER
 70
0
 71
3
 72
9
 73
5
 74
0
 42
0.0000001
 43
0.0000001
 44
0.0000000001
 40
0.0
 40
0.0
 40
0.0
 40
0.0
 40
0.5250092036
 40
1.0
 40
1.0
 40
1.0
 40
1.0
 10
158.615846572
 20
97.4340293362
 30
0.0
 10
158.542418252
 20
97.5825980908
 30
0.0
 10
158.4287473946
 20
97.8793759012
 30
0.0
 10
158.3806293711
 20
98.1952729399
 30
0.0
 10
158.3806293711
 20
98.3452080285
 30
0.0
  0
SPLINE
  5
49E
100
AcDbEntity
  8
0
100
AcDbSpline
 62
7
  6
BYLAYER
 70
0
 71
3
 72
9
 73
5
 74
0
 42
0.0000001
 43
0.0000001
 44
0.0000000001
 40
0.0
 40
0.0
 40
0.0
 40
0.0
 40
0.2794216778
 40
1.0
 40
1.0
 40
1.0
 40
1.0
 10
159.6469006244
 20
96.6587919878
 30
0.0
 10
159.6469006244
 20
96.7105546467
 30
0.0
 10
159.6566031036
 20
96.8949682853
 30
0.0
 10
159.7119753043
 20
97.0820287923
 30
0.0
 10
159.7876800738
 20
97.1919717794
 30
0.0
  0
SPLINE
  5
49F
100
AcDbEntity
  8
0
100
AcDbSpline
 62
7
  6
BYLAYER
 70
0
 71
3
 72
9
 73
5
 74
0
 42
0.0000001
 43
0.0000001
 44
0.0000000001
 40
0.0
 40
0.0
 40
0.0
 40
0.0
 40
0.26587956
 40
1.0
 40
1.0
 40
1.0
 40
1.0
 10
159.7779659871
 20
95.9881233148
 30
0.0
 10
159.7568352683
 20
96.0450574302
 30
0.0
 10
159.6859274856
 20
96.2620554637
 30
0.0
 10
159.6469006244
 20
96.4911133001
 30
0.0
 10
159.6469006244
 20
96.6587919878
 30
0.0
  0
SPLINE
  5
4A0
100
AcDbEntity
  8
0
100
AcDbSpline
 62
7
  6
BYLAYER
 70
0
 71
3
 72
11
 73
7
 74
0
 42
0.0000001
 43
0.0000001
 44
0.0000000001
 40
0.0
 40
0.0
 40
0.0
 40
0.0
 40
0.2088479324
 40
0.438513757
 40
0.7016938889
 40
1.0
 40
1.0
 40
1.0
 40
1.0
 10
147.8770403093
 20
97.8196227064
 30
0.0
 10
147.8157988633
 20
97.7843876797
 30
0.0
 10
147.6699102476
 20
97.7380195368
 30
0.0
 10
147.4288866312
 20
97.7552135667
 30
0.0
 10
147.1760609933
 20
97.8511998488
 30
0.0
 10
147.016054171
 20
97.9559306444
 30
0.0
 10
146.9362252452
 20
98.0176708995
 30
0.0
  0
SPLINE
  5
4A1
100
AcDbEntity
  8
0
100
AcDbSpline
 62
7
  6
BYLAYER
 70
0
 71
3
 72
10
 73
6
 74
0
 42
0.0000001
 43
0.0000001
 44
0.0000000001
 40
0.0
 40
0.0
 40
0.0
 40
0.0
 40
0.5452388906
 40
0.7812990685
 40
1.0
 40
1.0
 40
1.0
 40
1.0
 10
160.7502656217
 20
94.8270388225
 30
0.0
 10
160.7502656217
 20
94.9569731858
 30
0.0
 10
160.7748367673
 20
95.1473475
 30
0.0
 10
160.8834051677
 20
95.3619152587
 30
0.0
 10
160.9578796746
 20
95.4429845562
 30
0.0
 10
160.9982475085
 20
95.4759500688
 30
0.0
  0
SPLINE
  5
4A2
100
AcDbEntity
  8
0
100
AcDbSpline
 62
7
  6
BYLAYER
 70
0
 71
3
 72
9
 73
5
 74
0
 42
0.0000001
 43
0.0000001
 44
0.0000000001
 40
0.0
 40
0.0
 40
0.0
 40
0.0
 40
0.2622618066
 40
1.0
 40
1.0
 40
1.0
 40
1.0
 10
160.8065290528
 20
94.3980289897
 30
0.0
 10
160.797356944
 20
94.4347778208
 30
0.0
 10
160.7661387777
 20
94.5757660811
 30
0.0
 10
160.7502656217
 20
94.7204937761
 30
0.0
 10
160.7502656217
 20
94.8270388225
 30
0.0
  0
SPLINE
  5
4A3
100
AcDbEntity
  8
0
100
AcDbSpline
 62
7
  6
BYLAYER
 70
0
 71
3
 72
11
 73
7
 74
0
 42
0.0000001
 43
0.0000001
 44
0.0000000001
 40
0.0
 40
0.0
 40
0.0
 40
0.0
 40
0.2029599848
 40
0.4339770487
 40
0.7006164526
 40
1.0
 40
1.0
 40
1.0
 40
1.0
 10
161.8363963618
 20
94.0241464817
 30
0.0
 10
161.7637643866
 20
93.9966064434
 30
0.0
 10
161.5938269854
 20
93.9739840931
 30
0.0
 10
161.3287771066
 20
94.0353302322
 30
0.0
 10
161.0572570949
 20
94.1799154008
 30
0.0
 10
160.8889331206
 20
94.3184141555
 30
0.0
 10
160.8065290528
 20
94.3980289897
 30
0.0
  0
SPLINE
  5
4A4
100
AcDbEntity
  8
0
100
AcDbSpline
 62
7
  6
BYLAYER
 70
0
 71
3
 72
11
 73
7
 74
0
 42
0.0000001
 43
0.0000001
 44
0.0000000001
 40
0.0
 40
0.0
 40
0.0
 40
0.0
 40
0.2895738228
 40
0.5489730288
 40
0.7821068366
 40
1.0
 40
1.0
 40
1.0
 40
1.0
 10
161.6571991756
 20
92.9056054258
 30
0.0
 10
161.6571991756
 20
92.9826786772
 30
0.0
 10
161.6689397812
 20
93.1292826797
 30
0.0
 10
161.7282110035
 20
93.3307533387
 30
0.0
 10
161.8281990683
 20
93.4943176491
 30
0.0
 10
161.9222073523
 20
93.5732023567
 30
0.0
 10
161.9724092007
 20
93.6022394823
 30
0.0
  0
SPLINE
  5
4A5
100
AcDbEntity
  8
0
100
AcDbSpline
 62
7
  6
BYLAYER
 70
0
 71
3
 72
9
 73
5
 74
0
 42
0.0000001
 43
0.0000001
 44
0.0000000001
 40
0.0
 40
0.0
 40
0.0
 40
0.0
 40
0.2564668453
 40
1.0
 40
1.0
 40
1.0
 40
1.0
 10
161.6693251875
 20
92.7125913991
 30
0.0
 10
161.6673240417
 20
92.7290085716
 30
0.0
 10
161.6604220101
 20
92.7931255764
 30
0.0
 10
161.6571991756
 20
92.8576574681
 30
0.0
 10
161.6571991756
 20
92.9056054258
 30
0.0
  0
SPLINE
  5
4A6
100
AcDbEntity
  8
0
100
AcDbSpline
 62
7
  6
BYLAYER
 70
0
 71
3
 72
10
 73
6
 74
0
 42
0.0000001
 43
0.0000001
 44
0.0000000001
 40
0.0
 40
0.0
 40
0.0
 40
0.0
 40
0.4362894381
 40
0.7056586105
 40
1.0
 40
1.0
 40
1.0
 40
1.0
 10
162.7161463971
 20
92.1202134965
 30
0.0
 10
162.5368079801
 20
92.1059360772
 30
0.0
 10
162.2401709037
 20
92.2064753773
 30
0.0
 10
161.9096314802
 20
92.4506843933
 30
0.0
 10
161.7467536064
 20
92.619123582
 30
0.0
 10
161.6693251875
 20
92.7125913991
 30
0.0
  0
SPLINE
  5
4A7
100
AcDbEntity
  8
0
100
AcDbSpline
 62
7
  6
BYLAYER
 70
0
 71
3
 72
11
 73
7
 74
0
 42
0.0000001
 43
0.0000001
 44
0.0000000001
 40
0.0
 40
0.0
 40
0.0
 40
0.0
 40
0.2879135975
 40
0.5471417917
 40
0.7809589751
 40
1.0
 40
1.0
 40
1.0
 40
1.0
 10
162.3404614397
 20
90.9828429586
 30
0.0
 10
162.3420308735
 20
91.0565968464
 30
0.0
 10
162.3563637819
 20
91.1969663512
 30
0.0
 10
162.4168554701
 20
91.389474649
 30
0.0
 10
162.515229346
 20
91.5460170236
 30
0.0
 10
162.6067544528
 20
91.6214391375
 30
0.0
 10
162.6555839221
 20
91.6491078156
 30
0.0
  0
SPLINE
  5
4A8
100
AcDbEntity
  8
0
100
AcDbSpline
 62
7
  6
BYLAYER
 70
0
 71
3
 72
9
 73
5
 74
0
 42
0.0000001
 43
0.0000001
 44
0.0000000001
 40
0.0
 40
0.0
 40
0.0
 40
0.0
 40
0.4490936201
 40
1.0
 40
1.0
 40
1.0
 40
1.0
 10
163.3735903526
 20
90.1870400957
 30
0.0
 10
163.177372324
 20
90.219480051
 30
0.0
 10
162.770594982
 20
90.4426290541
 30
0.0
 10
162.4758263294
 20
90.7798714792
 30
0.0
 10
162.3404614397
 20
90.9828429586
 30
0.0
  0
SPLINE
  5
4A9
100
AcDbEntity
  8
0
100
AcDbSpline
 62
7
  6
BYLAYER
 70
0
 71
3
 72
9
 73
5
 74
0
 42
0.0000001
 43
0.0000001
 44
0.0000000001
 40
0.0
 40
0.0
 40
0.0
 40
0.0
 40
0.5333073356
 40
1.0
 40
1.0
 40
1.0
 40
1.0
 10
162.7995456741
 20
89.2613411992
 30
0.0
 10
162.8185725018
 20
89.3594106822
 30
0.0
 10
162.8804831064
 20
89.5413082058
 30
0.0
 10
163.0178129609
 20
89.6811703548
 30
0.0
 10
163.0935269446
 20
89.7248699397
 30
0.0
  0
SPLINE
  5
4AA
100
AcDbEntity
  8
0
100
AcDbSpline
 62
7
  6
BYLAYER
 70
0
 71
3
 72
9
 73
5
 74
0
 42
0.0000001
 43
0.0000001
 44
0.0000000001
 40
0.0
 40
0.0
 40
0.0
 40
0.0
 40
0.4622913374
 40
1.0
 40
1.0
 40
1.0
 40
1.0
 10
163.7867875211
 20
88.2892143206
 30
0.0
 10
163.5843383369
 20
88.366401585
 30
0.0
 10
163.1941024732
 20
88.65298138
 30
0.0
 10
162.9175247021
 20
89.0386521495
 30
0.0
 10
162.7995456741
 20
89.2613411992
 30
0.0
  0
SPLINE
  5
4AB
100
AcDbEntity
  8
0
100
AcDbSpline
 62
7
  6
BYLAYER
 70
0
 71
3
 72
9
 73
5
 74
0
 42
0.0000001
 43
0.0000001
 44
0.0000000001
 40
0.0
 40
0.0
 40
0.0
 40
0.0
 40
0.5178851271
 40
1.0
 40
1.0
 40
1.0
 40
1.0
 10
163.0326288484
 20
87.6003930809
 30
0.0
 10
163.0580779018
 20
87.6607216539
 30
0.0
 10
163.1228117798
 20
87.7717712979
 30
0.0
 10
163.2209042778
 20
87.856185941
 30
0.0
 10
163.2736405441
 20
87.8867522383
 30
0.0
  0
SPLINE
  5
4AC
100
AcDbEntity
  8
0
100
AcDbSpline
 62
7
  6
BYLAYER
 70
0
 71
3
 72
9
 73
5
 74
0
 42
0.0000001
 43
0.0000001
 44
0.0000000001
 40
0.0
 40
0.0
 40
0.0
 40
0.0
 40
0.4771310437
 40
1.0
 40
1.0
 40
1.0
 40
1.0
 10
163.944408771
 20
86.4786554332
 30
0.0
 10
163.7434819903
 20
86.5961280306
 30
0.0
 10
163.3789183173
 20
86.9378284641
 30
0.0
 10
163.1283528184
 20
87.3639784827
 30
0.0
 10
163.0326288484
 20
87.6003930809
 30
0.0
  0
SPLINE
  5
4AD
100
AcDbEntity
  8
0
100
AcDbSpline
 62
7
  6
BYLAYER
 70
0
 71
3
 72
9
 73
5
 74
0
 42
0.0000001
 43
0.0000001
 44
0.0000000001
 40
0.0
 40
0.0
 40
0.0
 40
0.0
 40
0.4915968136
 40
1.0
 40
1.0
 40
1.0
 40
1.0
 10
163.8412153959
 20
84.8158426656
 30
0.0
 10
163.6491350579
 20
84.9672970793
 30
0.0
 10
163.3157948743
 20
85.3492973827
 30
0.0
 10
163.1016649708
 20
85.8070969804
 30
0.0
 10
163.0326288484
 20
86.0504656717
 30
0.0
  0
SPLINE
  5
4AE
100
AcDbEntity
  8
0
100
AcDbSpline
 62
7
  6
BYLAYER
 70
0
 71
3
 72
9
 73
5
 74
0
 42
0.0000001
 43
0.0000001
 44
0.0000000001
 40
0.0
 40
0.0
 40
0.0
 40
0.0
 40
0.5066296636
 40
1.0
 40
1.0
 40
1.0
 40
1.0
 10
163.4800024912
 20
83.3462784144
 30
0.0
 10
163.3020103378
 20
83.5253242897
 30
0.0
 10
163.0087776533
 20
83.9378521798
 30
0.0
 10
162.838034853
 20
84.4158264877
 30
0.0
 10
162.7995456741
 20
84.6586527316
 30
0.0
  0
SPLINE
  5
4AF
100
AcDbEntity
  8
0
100
AcDbSpline
 62
7
  6
BYLAYER
 70
0
 71
3
 72
9
 73
5
 74
0
 42
0.0000001
 43
0.0000001
 44
0.0000000001
 40
0.0
 40
0.0
 40
0.0
 40
0.0
 40
0.5212549941
 40
1.0
 40
1.0
 40
1.0
 40
1.0
 10
162.8728652167
 20
82.1190384146
 30
0.0
 10
162.7138882134
 20
82.3183633176
 30
0.0
 10
162.4640117912
 20
82.7465861638
 30
0.0
 10
162.3453237976
 20
83.2331279674
 30
0.0
 10
162.3404614397
 20
83.4672437925
 30
0.0
  0
SPLINE
  5
4B0
100
AcDbEntity
  8
0
100
AcDbSpline
 62
7
  6
BYLAYER
 70
0
 71
3
 72
19
 73
15
 74
0
 42
0.0000001
 43
0.0000001
 44
0.0000000001
 40
0.0
 40
0.0
 40
0.0
 40
0.0
 40
0.0428414844
 40
0.087451902
 40
0.1352646258
 40
0.1872061019
 40
0.2436882834
 40
0.304683419
 40
0.3698208505
 40
0.4384709219
 40
0.5827526572
 40
0.7298411655
 40
0.8713681177
 40
1.0
 40
1.0
 40
1.0
 40
1.0
 10
65.7922289506
 20
144.3295317485
 30
0.0
 10
66.1659897282
 20
144.5453106318
 30
0.0
 10
66.9898885887
 20
144.8877151001
 30
0.0
 10
68.3498911509
 20
145.0869991674
 30
0.0
 10
69.8103071324
 20
144.9795240438
 30
0.0
 10
71.3387356482
 20
144.573473207
 30
0.0
 10
72.905127159
 20
143.88114883
 30
0.0
 10
74.4782923962
 20
142.9186640404
 30
0.0
 10
76.0264588054
 20
141.7067267783
 30
0.0
 10
78.0467643734
 20
139.7606277809
 30
0.0
 10
80.2915713147
 20
136.8858187738
 30
0.0
 10
82.3764875332
 20
133.0327841686
 30
0.0
 10
83.7294183284
 20
129.032038118
 30
0.0
 10
84.0919704714
 20
126.3074605586
 30
0.0
 10
84.0919704714
 20
125.0116510303
 30
0.0
  0
SPLINE
  5
4B1
100
AcDbEntity
  8
0
100
AcDbSpline
 62
7
  6
BYLAYER
 70
0
 71
3
 72
9
 73
5
 74
0
 42
0.0000001
 43
0.0000001
 44
0.0000000001
 40
0.0
 40
0.0
 40
0.0
 40
0.0
 40
0.2575715881
 40
1.0
 40
1.0
 40
1.0
 40
1.0
 10
161.6571991756
 20
82.3334267812
 30
0.0
 10
161.6571991756
 20
82.3488385168
 30
0.0
 10
161.6581631902
 20
82.408665918
 30
0.0
 10
161.6630858124
 20
82.468456536
 30
0.0
 10
161.6693251875
 20
82.5124392122
 30
0.0
  0
SPLINE
  5
4B2
100
AcDbEntity
  8
0
100
AcDbSpline
 62
7
  6
BYLAYER
 70
0
 71
3
 72
9
 73
5
 74
0
 42
0.0000001
 43
0.0000001
 44
0.0000000001
 40
0.0
 40
0.0
 40
0.0
 40
0.0
 40
0.5253155788
 40
1.0
 40
1.0
 40
1.0
 40
1.0
 10
162.0363857646
 20
81.1677199369
 30
0.0
 10
161.919381665
 20
81.3501040069
 30
0.0
 10
161.7380050038
 20
81.7251817254
 30
0.0
 10
161.6571991756
 20
82.1376232264
 30
0.0
 10
161.6571991756
 20
82.3334267812
 30
0.0
  0
SPLINE
  5
4B3
100
AcDbEntity
  8
0
100
AcDbSpline
 62
7
  6
BYLAYER
 70
0
 71
3
 72
9
 73
5
 74
0
 42
0.0000001
 43
0.0000001
 44
0.0000000001
 40
0.0
 40
0.0
 40
0.0
 40
0.0
 40
0.2675290292
 40
1.0
 40
1.0
 40
1.0
 40
1.0
 10
160.7502656217
 20
81.4592063563
 30
0.0
 10
160.7502656217
 20
81.4921386747
 30
0.0
 10
160.7544872404
 20
81.6151056479
 30
0.0
 10
160.7766940727
 20
81.7381635578
 30
0.0
 10
160.8065290528
 20
81.8232502447
 30
0.0
  0
SPLINE
  5
4B4
100
AcDbEntity
  8
0
100
AcDbSpline
 62
7
  6
BYLAYER
 70
0
 71
3
 72
9
 73
5
 74
0
 42
0.0000001
 43
0.0000001
 44
0.0000000001
 40
0.0
 40
0.0
 40
0.0
 40
0.0
 40
0.2674905569
 40
1.0
 40
1.0
 40
1.0
 40
1.0
 10
160.9982475085
 20
80.5239567697
 30
0.0
 10
160.959032256
 20
80.6012619006
 30
0.0
 10
160.8262329433
 20
80.8964299431
 30
0.0
 10
160.7502656217
 20
81.2218296848
 30
0.0
 10
160.7502656217
 20
81.4592063563
 30
0.0
  0
SPLINE
  5
4B5
100
AcDbEntity
  8
0
100
AcDbSpline
 62
7
  6
BYLAYER
 70
0
 71
3
 72
9
 73
5
 74
0
 42
0.0000001
 43
0.0000001
 44
0.0000000001
 40
0.0
 40
0.0
 40
0.0
 40
0.0
 40
0.2782032372
 40
1.0
 40
1.0
 40
1.0
 40
1.0
 10
159.6469006244
 20
80.9014805251
 30
0.0
 10
159.6469006244
 20
80.95150186
 30
0.0
 10
159.6560928768
 20
81.1305551831
 30
0.0
 10
159.707277437
 20
81.3119720579
 30
0.0
 10
159.7779659871
 20
81.4208113769
 30
0.0
  0
SPLINE
  5
4B6
100
AcDbEntity
  8
0
100
AcDbSpline
 62
7
  6
BYLAYER
 70
0
 71
3
 72
9
 73
5
 74
0
 42
0.0000001
 43
0.0000001
 44
0.0000000001
 40
0.0
 40
0.0
 40
0.0
 40
0.0
 40
0.2661982664
 40
1.0
 40
1.0
 40
1.0
 40
1.0
 10
159.7876800738
 20
80.205746305
 30
0.0
 10
159.765055998
 20
80.2647257805
 30
0.0
 10
159.6887670028
 20
80.489286047
 30
0.0
 10
159.6469006244
 20
80.7273466701
 30
0.0
 10
159.6469006244
 20
80.9014805251
 30
0.0
  0
SPLINE
  5
4B7
100
AcDbEntity
  8
0
100
AcDbSpline
 62
7
  6
BYLAYER
 70
0
 71
3
 72
11
 73
7
 74
0
 42
0.0000001
 43
0.0000001
 44
0.0000000001
 40
0.0
 40
0.0
 40
0.0
 40
0.0
 40
0.2182570365
 40
0.4515083096
 40
0.710988151
 40
1.0
 40
1.0
 40
1.0
 40
1.0
 10
147.5326354967
 20
96.3177614966
 30
0.0
 10
147.4828464022
 20
96.2889578301
 30
0.0
 10
147.3686283728
 20
96.2471565232
 30
0.0
 10
147.1787618196
 20
96.2417153178
 30
0.0
 10
146.9765554529
 20
96.2897368791
 30
0.0
 10
146.8447760248
 20
96.351393813
 30
0.0
 10
146.7786039954
 20
96.3891132367
 30
0.0
  0
SPLINE
  5
4B8
100
AcDbEntity
  8
0
100
AcDbSpline
 62
7
  6
BYLAYER
 70
0
 71
3
 72
9
 73
5
 74
0
 42
0.0000001
 43
0.0000001
 44
0.0000000001
 40
0.0
 40
0.0
 40
0.0
 40
0.0
 40
0.5461606942
 40
1.0
 40
1.0
 40
1.0
 40
1.0
 10
158.3806293711
 20
80.6771955045
 30
0.0
 10
158.3806293711
 20
80.8040945299
 30
0.0
 10
158.4090399395
 20
81.0394179309
 30
0.0
 10
158.5362382699
 20
81.2476237661
 30
0.0
 10
158.615846572
 20
81.3167749128
 30
0.0
  0
SPLINE
  5
4B9
100
AcDbEntity
  8
0
100
AcDbSpline
 62
7
  6
BYLAYER
 70
0
 71
3
 72
9
 73
5
 74
0
 42
0.0000001
 43
0.0000001
 44
0.0000000001
 40
0.0
 40
0.0
 40
0.0
 40
0.0
 40
0.2629168592
 40
1.0
 40
1.0
 40
1.0
 40
1.0
 10
158.4435659344
 20
80.2234342003
 30
0.0
 10
158.4333670161
 20
80.2623279281
 30
0.0
 10
158.3981370431
 20
80.4111228145
 30
0.0
 10
158.3806293711
 20
80.5644710524
 30
0.0
 10
158.3806293711
 20
80.6771955045
 30
0.0
  0
SPLINE
  5
4BA
100
AcDbEntity
  8
0
100
AcDbSpline
 62
7
  6
BYLAYER
 70
0
 71
3
 72
8
 73
4
 74
0
 42
0.0000001
 43
0.0000001
 44
0.0000000001
 40
0.0
 40
0.0
 40
0.0
 40
0.0
 40
1.0
 40
1.0
 40
1.0
 40
1.0
 10
51.8178807293
 20
165.8418152362
 30
0.0
 10
51.8572269473
 20
165.8645316409
 30
0.0
 10
51.9000544656
 20
165.881962929
 30
0.0
 10
51.9439947353
 20
165.8935133671
 30
0.0
  0
SPLINE
  5
4BB
100
AcDbEntity
  8
0
100
AcDbSpline
 62
7
  6
BYLAYER
 70
0
 71
3
 72
9
 73
5
 74
0
 42
0.0000001
 43
0.0000001
 44
0.0000000001
 40
0.0
 40
0.0
 40
0.0
 40
0.0
 40
0.4562614297
 40
1.0
 40
1.0
 40
1.0
 40
1.0
 10
51.9439947353
 20
165.8935133671
 30
0.0
 10
52.0393733336
 20
165.9185852342
 30
0.0
 10
52.2643634096
 20
165.9136344179
 30
0.0
 10
52.4660537873
 20
165.8263638195
 30
0.0
 10
52.5678354076
 20
165.767601503
 30
0.0
  0
SPLINE
  5
4BC
100
AcDbEntity
  8
0
100
AcDbSpline
 62
7
  6
BYLAYER
 70
0
 71
3
 72
11
 73
7
 74
0
 42
0.0000001
 43
0.0000001
 44
0.0000000001
 40
0.0
 40
0.0
 40
0.0
 40
0.0
 40
0.2896002398
 40
0.5489839787
 40
0.7821339603
 40
1.0
 40
1.0
 40
1.0
 40
1.0
 10
156.9899268728
 20
80.7931660815
 30
0.0
 10
156.9899268728
 20
80.8702465038
 30
0.0
 10
157.0016598382
 20
81.0168541072
 30
0.0
 10
157.0609443877
 20
81.2183325567
 30
0.0
 10
157.1609478201
 20
81.3818734787
 30
0.0
 10
157.2549333935
 20
81.4607803544
 30
0.0
 10
157.3051298353
 20
81.4898126186
 30
0.0
  0
SPLINE
  5
4BD
100
AcDbEntity
  8
0
100
AcDbSpline
 62
7
  6
BYLAYER
 70
0
 71
3
 72
9
 73
5
 74
0
 42
0.0000001
 43
0.0000001
 44
0.0000000001
 40
0.0
 40
0.0
 40
0.0
 40
0.0
 40
0.2570569795
 40
1.0
 40
1.0
 40
1.0
 40
1.0
 10
157.0050250857
 20
80.5764171498
 30
0.0
 10
157.0025234783
 20
80.5948731972
 30
0.0
 10
156.9940429161
 20
80.6668301694
 30
0.0
 10
156.9899268728
 20
80.7393368637
 30
0.0
 10
156.9899268728
 20
80.7931660815
 30
0.0
  0
SPLINE
  5
4BE
100
AcDbEntity
  8
0
100
AcDbSpline
 62
7
  6
BYLAYER
 70
0
 71
3
 72
11
 73
7
 74
0
 42
0.0000001
 43
0.0000001
 44
0.0000000001
 40
0.0
 40
0.0
 40
0.0
 40
0.0
 40
0.217745073
 40
0.4508830113
 40
0.7104597664
 40
1.0
 40
1.0
 40
1.0
 40
1.0
 10
94.9372027918
 20
96.6373433263
 30
0.0
 10
94.9866730088
 20
96.6659048225
 30
0.0
 10
95.0793254055
 20
96.7436188351
 30
0.0
 10
95.1778850216
 20
96.9048406617
 30
0.0
 10
95.2363147181
 20
97.1034568562
 30
0.0
 10
95.2479127023
 20
97.2479916086
 30
0.0
 10
95.2479127023
 20
97.3239495539
 30
0.0
  0
SPLINE
  5
4BF
100
AcDbEntity
  8
0
100
AcDbSpline
 62
7
  6
BYLAYER
 70
0
 71
3
 72
11
 73
7
 74
0
 42
0.0000001
 43
0.0000001
 44
0.0000000001
 40
0.0
 40
0.0
 40
0.0
 40
0.0
 40
0.2892289641
 40
0.5488123116
 40
0.7818670671
 40
1.0
 40
1.0
 40
1.0
 40
1.0
 10
155.5182252027
 20
81.2530787212
 30
0.0
 10
155.5186450603
 20
81.3293496294
 30
0.0
 10
155.5306209432
 20
81.4744583145
 30
0.0
 10
155.5891870309
 20
81.674109473
 30
0.0
 10
155.6890979473
 20
81.8358108382
 30
0.0
 10
155.7824762718
 20
81.9136813596
 30
0.0
 10
155.832318708
 20
81.9423985895
 30
0.0
  0
SPLINE
  5
4C0
100
AcDbEntity
  8
0
100
AcDbSpline
 62
7
  6
BYLAYER
 70
0
 71
3
 72
10
 73
6
 74
0
 42
0.0000001
 43
0.0000001
 44
0.0000000001
 40
0.0
 40
0.0
 40
0.0
 40
0.0
 40
0.5302791259
 40
0.7696567171
 40
1.0
 40
1.0
 40
1.0
 40
1.0
 10
26.6563200301
 20
137.0114191526
 30
0.0
 10
26.4451355149
 20
137.0801490924
 30
0.0
 10
26.1176107407
 20
137.1374363653
 30
0.0
 10
25.7009241539
 20
137.0712807135
 30
0.0
 10
25.5173395206
 20
136.9941256564
 30
0.0
 10
25.4338154
 20
136.9458527276
 30
0.0
  0
SPLINE
  5
4C1
100
AcDbEntity
  8
0
100
AcDbSpline
 62
7
  6
BYLAYER
 70
0
 71
3
 72
9
 73
5
 74
0
 42
0.0000001
 43
0.0000001
 44
0.0000000001
 40
0.0
 40
0.0
 40
0.0
 40
0.0
 40
0.5349222659
 40
1.0
 40
1.0
 40
1.0
 40
1.0
 10
154.0243017951
 20
82.2349336444
 30
0.0
 10
154.0421128038
 20
82.3371169935
 30
0.0
 10
154.1026208539
 20
82.5267471951
 30
0.0
 10
154.2438164845
 20
82.6731664989
 30
0.0
 10
154.3219255701
 20
82.7182392141
 30
0.0
  0
SPLINE
  5
4C2
100
AcDbEntity
  8
0
100
AcDbSpline
 62
7
  6
BYLAYER
 70
0
 71
3
 72
9
 73
5
 74
0
 42
0.0000001
 43
0.0000001
 44
0.0000000001
 40
0.0
 40
0.0
 40
0.0
 40
0.0
 40
0.5198847506
 40
1.0
 40
1.0
 40
1.0
 40
1.0
 10
152.5732531683
 20
83.4891154434
 30
0.0
 10
152.59854164
 20
83.5531890882
 30
0.0
 10
152.6630582388
 20
83.671460975
 30
0.0
 10
152.7649248043
 20
83.7616469715
 30
0.0
 10
152.8199885043
 20
83.7935020965
 30
0.0
  0
SPLINE
  5
4C3
100
AcDbEntity
  8
0
100
AcDbSpline
 62
7
  6
BYLAYER
 70
0
 71
3
 72
9
 73
5
 74
0
 42
0.0000001
 43
0.0000001
 44
0.0000000001
 40
0.0
 40
0.0
 40
0.0
 40
0.0
 40
0.2548375709
 40
1.0
 40
1.0
 40
1.0
 40
1.0
 10
129.4184232613
 20
85.7820569463
 30
0.0
 10
129.3955111339
 20
85.7537778766
 30
0.0
 10
129.3016158521
 20
85.6462884004
 30
0.0
 10
129.1902909003
 20
85.5525145245
 30
0.0
 10
129.0981282966
 20
85.4992958625
 30
0.0
  0
SPLINE
  5
4C4
100
AcDbEntity
  8
0
100
AcDbSpline
 62
7
  6
BYLAYER
 70
0
 71
3
 72
11
 73
7
 74
0
 42
0.0000001
 43
0.0000001
 44
0.0000000001
 40
0.0
 40
0.0
 40
0.0
 40
0.0
 40
0.2177816419
 40
0.4509072171
 40
0.7103207752
 40
1.0
 40
1.0
 40
1.0
 40
1.0
 10
28.9337611876
 20
176.5017225442
 30
0.0
 10
29.0491829836
 20
176.5684300888
 30
0.0
 10
29.2652422747
 20
176.7499333012
 30
0.0
 10
29.4952178917
 20
177.125976791
 30
0.0
 10
29.6317554111
 20
177.5893594565
 30
0.0
 10
29.6586720727
 20
177.9266173689
 30
0.0
 10
29.6586720727
 20
178.1039404641
 30
0.0
  0
SPLINE
  5
4C5
100
AcDbEntity
  8
0
100
AcDbSpline
 62
7
  6
BYLAYER
 70
0
 71
3
 72
9
 73
5
 74
0
 42
0.0000001
 43
0.0000001
 44
0.0000000001
 40
0.0
 40
0.0
 40
0.0
 40
0.0
 40
0.2702051074
 40
1.0
 40
1.0
 40
1.0
 40
1.0
 10
28.0687056547
 20
136.6032515514
 30
0.0
 10
27.9837207354
 20
136.673888944
 30
0.0
 10
27.6598221789
 20
136.9230391344
 30
0.0
 10
27.2936904338
 20
137.123172585
 30
0.0
 10
27.0098719487
 20
137.2155412295
 30
0.0
  0
SPLINE
  5
4C6
100
AcDbEntity
  8
0
100
AcDbSpline
 62
7
  6
BYLAYER
 70
0
 71
3
 72
9
 73
5
 74
0
 42
0.0000001
 43
0.0000001
 44
0.0000000001
 40
0.0
 40
0.0
 40
0.0
 40
0.0
 40
0.2548377749
 40
1.0
 40
1.0
 40
1.0
 40
1.0
 10
154.9421566548
 20
129.9907053904
 30
0.0
 10
154.9551904726
 20
130.0246866022
 30
0.0
 10
155.0013296237
 20
130.1597436668
 30
0.0
 10
155.0268767487
 20
130.3030369646
 30
0.0
 10
155.026884435
 20
130.4094585977
 30
0.0
  0
SPLINE
  5
4C7
100
AcDbEntity
  8
0
100
AcDbSpline
 62
7
  6
BYLAYER
 70
0
 71
3
 72
11
 73
7
 74
0
 42
0.0000001
 43
0.0000001
 44
0.0000000001
 40
0.0
 40
0.0
 40
0.0
 40
0.0
 40
0.2318500959
 40
0.4880956242
 40
0.7506704316
 40
1.0
 40
1.0
 40
1.0
 40
1.0
 10
29.6586720727
 20
132.4859504191
 30
0.0
 10
29.6586720727
 20
132.8326284693
 30
0.0
 10
29.5467523539
 20
133.5632029226
 30
0.0
 10
29.1413586477
 20
134.6169700638
 30
0.0
 10
28.5304605075
 20
135.597369733
 30
0.0
 10
28.0018618191
 20
136.1608247073
 30
0.0
 10
27.7151537361
 20
136.3991294745
 30
0.0
  0
SPLINE
  5
4C8
100
AcDbEntity
  8
0
100
AcDbSpline
 62
7
  6
BYLAYER
 70
0
 71
3
 72
16
 73
12
 74
0
 42
0.0000001
 43
0.0000001
 44
0.0000000001
 40
0.0
 40
0.0
 40
0.0
 40
0.0
 40
0.0428765743
 40
0.0875234667
 40
0.186928609
 40
0.3042403422
 40
0.4379658104
 40
0.582370771
 40
0.729593422
 40
0.8712541043
 40
1.0
 40
1.0
 40
1.0
 40
1.0
 10
26.4944830202
 20
183.1761886181
 30
0.0
 10
26.5807467149
 20
183.2260389063
 30
0.0
 10
26.7709666174
 20
183.3050591198
 30
0.0
 10
27.2044732719
 20
183.3686378819
 30
0.0
 10
27.816497486
 20
183.2491292703
 30
0.0
 10
28.5374563963
 20
182.8536875225
 30
0.0
 10
29.2304700451
 20
182.2407202138
 30
0.0
 10
29.8417866721
 20
181.4579058576
 30
0.0
 10
30.3232646802
 20
180.5681568038
 30
0.0
 10
30.6356219204
 20
179.6445285043
 30
0.0
 10
30.7193278285
 20
179.0154717537
 30
0.0
 10
30.7193278285
 20
178.7163066949
 30
0.0
  0
SPLINE
  5
4C9
100
AcDbEntity
  8
0
100
AcDbSpline
 62
7
  6
BYLAYER
 70
0
 71
3
 72
9
 73
5
 74
0
 42
0.0000001
 43
0.0000001
 44
0.0000000001
 40
0.0
 40
0.0
 40
0.0
 40
0.0
 40
0.4646425812
 40
1.0
 40
1.0
 40
1.0
 40
1.0
 10
147.4493722222
 20
94.6217553681
 30
0.0
 10
147.3713712927
 20
94.5765455008
 30
0.0
 10
147.1735657525
 20
94.5273978014
 30
0.0
 10
146.9793402314
 20
94.5714275452
 30
0.0
 10
146.8817973704
 20
94.607145719
 30
0.0
  0
SPLINE
  5
4CA
100
AcDbEntity
  8
0
100
AcDbSpline
 62
7
  6
BYLAYER
 70
0
 71
3
 72
11
 73
7
 74
0
 42
0.0000001
 43
0.0000001
 44
0.0000000001
 40
0.0
 40
0.0
 40
0.0
 40
0.0
 40
0.2177816419
 40
0.4509072171
 40
0.7103207752
 40
1.0
 40
1.0
 40
1.0
 40
1.0
 10
28.9337611876
 20
130.8837324991
 30
0.0
 10
29.0491829836
 20
130.9504400438
 30
0.0
 10
29.2652422747
 20
131.1319432562
 30
0.0
 10
29.4952178917
 20
131.507986746
 30
0.0
 10
29.6317554111
 20
131.9713694115
 30
0.0
 10
29.6586720727
 20
132.3086273239
 30
0.0
 10
29.6586720727
 20
132.4859504191
 30
0.0
  0
SPLINE
  5
4CB
100
AcDbEntity
  8
0
100
AcDbSpline
 62
7
  6
BYLAYER
 70
0
 71
3
 72
18
 73
14
 74
0
 42
0.0000001
 43
0.0000001
 44
0.0000000001
 40
0.0
 40
0.0
 40
0.0
 40
0.0
 40
0.128654394
 40
0.2702038098
 40
0.4173193312
 40
0.5616297692
 40
0.6952665243
 40
0.7562724499
 40
0.8127633217
 40
0.8647144127
 40
0.9125354527
 40
0.9571523165
 40
1.0
 40
1.0
 40
1.0
 40
1.0
 10
62.7442154097
 20
180.692383342
 30
0.0
 10
61.8107757882
 20
180.1534649421
 30
0.0
 10
59.6972977872
 20
179.2814919111
 30
0.0
 10
56.2529734519
 20
178.5922374964
 30
0.0
 10
52.6091763254
 20
178.4915827277
 30
0.0
 10
49.0666029549
 20
178.9889932019
 30
0.0
 10
46.3516365333
 20
179.8957280468
 30
0.0
 10
44.4988171448
 20
180.903008098
 30
0.0
 10
43.3486775818
 20
181.743563363
 30
0.0
 10
42.4204497444
 20
182.6755863796
 30
0.0
 10
41.7355908556
 20
183.6828799302
 30
0.0
 10
41.313676691
 20
184.7454608769
 30
0.0
 10
41.2175761727
 20
185.4813296527
 30
0.0
 10
41.2176119567
 20
185.8402992548
 30
0.0
  0
SPLINE
  5
4CC
100
AcDbEntity
  8
0
100
AcDbSpline
 62
7
  6
BYLAYER
 70
0
 71
3
 72
11
 73
7
 74
0
 42
0.0000001
 43
0.0000001
 44
0.0000000001
 40
0.0
 40
0.0
 40
0.0
 40
0.0
 40
0.2372413576
 40
0.5000010231
 40
0.762760128
 40
1.0
 40
1.0
 40
1.0
 40
1.0
 10
129.9617593103
 20
139.6990774159
 30
0.0
 10
129.9617593103
 20
139.1194768372
 30
0.0
 10
130.1791645101
 20
137.8971455491
 30
0.0
 10
130.9368642773
 20
136.1795615334
 30
0.0
 10
132.0454903348
 20
134.6645901326
 30
0.0
 10
132.995359415
 20
133.8651551154
 30
0.0
 10
133.497307936
 20
133.5753615577
 30
0.0
  0
SPLINE
  5
4CD
100
AcDbEntity
  8
0
100
AcDbSpline
 62
7
  6
BYLAYER
 70
0
 71
3
 72
11
 73
7
 74
0
 42
0.0000001
 43
0.0000001
 44
0.0000000001
 40
0.0
 40
0.0
 40
0.0
 40
0.0
 40
0.2897016594
 40
0.5490895814
 40
0.7822189142
 40
1.0
 40
1.0
 40
1.0
 40
1.0
 10
158.8970550089
 20
89.2130500306
 30
0.0
 10
158.8970550089
 20
88.9597102009
 30
0.0
 10
158.8586452344
 20
88.4779090644
 30
0.0
 10
158.6635317617
 20
87.8159346709
 30
0.0
 10
158.3350015381
 20
87.2787803518
 30
0.0
 10
158.0264110877
 20
87.0193702874
 30
0.0
 10
157.8614866615
 20
86.9241350769
 30
0.0
  0
SPLINE
  5
4CE
100
AcDbEntity
  8
0
100
AcDbSpline
 62
7
  6
BYLAYER
 70
0
 71
3
 72
11
 73
7
 74
0
 42
0.0000001
 43
0.0000001
 44
0.0000000001
 40
0.0
 40
0.0
 40
0.0
 40
0.0
 40
0.2436416248
 40
0.5064127149
 40
0.7657359694
 40
1.0
 40
1.0
 40
1.0
 40
1.0
 10
126.8088027399
 20
151.0538469378
 30
0.0
 10
127.2658502195
 20
150.7325292144
 30
0.0
 10
128.1180395144
 20
149.9228532321
 30
0.0
 10
129.1080522138
 20
148.4587595491
 30
0.0
 10
129.7742201139
 20
146.8449812387
 30
0.0
 10
129.9617593103
 20
145.7121782469
 30
0.0
 10
129.9617593103
 20
145.1749892819
 30
0.0
  0
SPLINE
  5
4CF
100
AcDbEntity
  8
0
100
AcDbSpline
 62
7
  6
BYLAYER
 70
0
 71
3
 72
10
 73
6
 74
0
 42
0.0000001
 43
0.0000001
 44
0.0000000001
 40
0.0
 40
0.0
 40
0.0
 40
0.0
 40
0.5302791259
 40
0.7696567171
 40
1.0
 40
1.0
 40
1.0
 40
1.0
 10
26.6563200301
 20
182.6294091976
 30
0.0
 10
26.4451355149
 20
182.6981391374
 30
0.0
 10
26.1176107407
 20
182.7554264103
 30
0.0
 10
25.7009241539
 20
182.6892707585
 30
0.0
 10
25.5173395206
 20
182.6121157014
 30
0.0
 10
25.4338154
 20
182.5638427726
 30
0.0
  0
ENDSEC
  0
SECTION
  2
OBJECTS
  0
DICTIONARY
  5
C
100
AcDbDictionary
280
0
281
1
  3
ACAD_GROUP
350
D
  3
ACAD_MLINESTYLE
350
17
  3
ACAD_LAYOUT
350
1A
  3
ACAD_PLOTSETTINGS
350
19
  3
ACAD_PLOTSTYLENAME
350
E
  0
DICTIONARY
  5
D
102
{ACAD_REACTORS
330
C
102
}
100
AcDbDictionary
280
0
281
1
  0
ACDBDICTIONARYWDFLT
  5
E
102
{ACAD_REACTORS
330
C
102
}
100
AcDbDictionary
281
1
  3
Normal
350
F
100
AcDbDictionaryWithDefault
340
F
  0
DICTIONARY
  5
17
102
{ACAD_REACTORS
330
C
102
}
100
AcDbDictionary
280
0
281
1
  3
Standard
350
18
  0
DICTIONARY
  5
19
102
{ACAD_REACTORS
330
C
102
}
100
AcDbDictionary
281
1
  0
DICTIONARY
  5
1A
102
{ACAD_REACTORS
330
C
102
}
100
AcDbDictionary
281
1
  3
Model
350
4D0
  3
Layout1
350
4D1
  0
ACDBPLACEHOLDER
  5
F
102
{ACAD_REACTORS
330
E
102
}
  0
MLINESTYLE
  5
18
102
{ACAD_REACTORS
330
17
102
}
100
AcDbMlineStyle
  2
STANDARD
 70
0
  3

 62
256
 51
90.0
 52
90.0
 71
2
 49
0.5
 62
256
  6
BYLAYER
 49
-0.5
 62
256
  6
BYLAYER
  0
LAYOUT
  5
4D0
102
{ACAD_REACTORS
330
1A
102
}
100
AcDbPlotSettings
  1

  2
none_device
  4

  6

 40
0.0
 41
0.0
 42
0.0
 43
0.0
 44
210.0
 45
297.0
 46
0.0
 47
0.0
 48
0.0
 49
0.0
140
0.0
141
0.0
142
1.0
143
1.0
 70
1024
 72
1
 73
0
 74
0
  7

 75
0
147
1.0
148
0.0
149
0.0
100
AcDbLayout
  1
Model
 70
0
 71
0
 10
0.0
 20
0.0
 11
210.0
 21
297.0
 12
0.0
 22
0.0
 32
0.0
 14
0.0
 24
0.0
 34
0.0
 15
0.0
 25
0.0
 35
0.0
146
0.0
 13
0.0
 23
0.0
 33
0.0
 16
1.0
 26
0.0
 36
0.0
 17
0.0
 27
1.0
 37
0.0
 76
0
330
210
345
0
346
0
  0
LAYOUT
  5
4D1
102
{ACAD_REACTORS
330
1A
102
}
100
AcDbPlotSettings
  1

  2
none_device
  4

  6

 40
0.0
 41
0.0
 42
0.0
 43
0.0
 44
210.0
 45
297.0
 46
0.0
 47
0.0
 48
0.0
 49
0.0
140
0.0
141
0.0
142
1.0
143
1.0
 70
0
 72
1
 73
0
 74
0
  7

 75
0
147
1.0
148
0.0
149
0.0
100
AcDbLayout
  1
Layout1
 70
0
 71
1
 10
0.0
 20
0.0
 11
210.0
 21
297.0
 12
0.0
 22
0.0
 32
0.0
 14
0.0
 24
0.0
 34
0.0
 15
0.0
 25
0.0
 35
0.0
146
0.0
 13
0.0
 23
0.0
 33
0.0
 16
1.0
 26
0.0
 36
0.0
 17
0.0
 27
1.0
 37
0.0
 76
0
330
211
345
0
346
0
  0
ENDSEC
  0
EOF
