999
DXF file: C:\Users\sesa63760\Dev\_Creo\CAD\MCADID0002993_3D-CAD\drw0001_1.dxf
999
Pro/ENGINEER 2019471 by Parametric Technology Corporation
  0
SECTION
  2
HEADER
  9
$ACADVER
  1
AC1024
  9
$DWGCODEPAGE
  3
ANSI_1252
  9
$EXTMAX
 10
66.0956865011
 20
93.4781851944
 30
0.0
  9
$EXTMIN
 10
0.0
 20
0.0
 30
0.0
  9
$LIMMIN
 10
0.0
 20
0.0
  9
$LIMMAX
 10
66.0956865011
 20
93.4781851944
  9
$VIEWCTR
 10
33.0478432506
 20
46.7390925972
  9
$VIEWSIZE
 40
93.4781851944
  9
$CLAYER
  8
0
  9
$LTSCALE
 40
6.0933928127
  9
$CELTYPE
  6
BYLAYER
  9
$DIMSCALE
 40
1.0
  9
$DIMASZ
 40
0.7868534107
  9
$DIMEXO
 40
1.0
  9
$DIMDLI
 40
4.2099804888
  9
$DIMEXE
 40
1.0
  9
$DIMCEN
 40
0.9971006421
  9
$DIMLFAC
 40
1.0
  9
$DIMBLK
  1
_FILLED
  9
$DIMALT
 70
0
  9
$DIMALTF
 40
0.0393700787
  9
$DIMTXT
 40
1.101594775
  9
$DIMTOL
 70
1
  9
$DIMLIM
 70
0
  9
$DIMTFAC
 40
1.0
  9
$DIMTP
 40
0.01
  9
$DIMTM
 40
0.01
  9
$DIMGAP
 40
0.625
  9
$DIMDSEP
 70
46
  9
$AUNITS
 70
0
  9
$PDMODE
 70
3
  9
$PDSIZE
 40
0.3125
  9
$HANDSEED
  5
25A
  9
$TILEMODE
 70
1
  9
$MEASUREMENT
 70
1
  9
$INSUNITS
 70
4
  0
ENDSEC
  0
SECTION
  2
CLASSES
  0
CLASS
  1
ACDBDICTIONARYWDFLT
  2
AcDbDictionaryWithDefault
  3
AutoCAD 2000
 90
0
 91
1
280
0
281
0
  0
CLASS
  1
ACDBPLACEHOLDER
  2
AcDbPlaceHolder
  3
AutoCAD 2000
 90
0
 91
1
280
0
281
0
  0
CLASS
  1
LAYOUT
  2
AcDbLayout
  3
AutoCAD 2000
 90
0
 91
0
280
0
281
0
  0
ENDSEC
  0
SECTION
  2
TABLES
  0
TABLE
  2
VPORT
  5
8
100
AcDbSymbolTable
 70
2
  0
VPORT
  5
1F4
100
AcDbSymbolTableRecord
100
AcDbViewportTableRecord
  2
*ACTIVE
 70
0
 10
0.0
 20
0.0
 11
1.0
 21
1.0
 12
33.0478432506
 22
46.7390925972
 13
0.0
 23
0.0
 14
1.0
 24
1.0
 15
0.0
 25
0.0
 16
0.0
 26
0.0
 36
1.0
 17
0.0
 27
0.0
 37
0.0
 40
93.4781851944
 41
0.7070707071
 42
50.0
 43
0.0
 44
0.0
 50
0.0
 51
0.0
 71
0
 72
100
 73
1
 74
1
 75
0
 76
0
 77
0
 78
0
  0
ENDTAB
  0
TABLE
  2
LTYPE
  5
5
100
AcDbSymbolTable
 70
6
  0
LTYPE
  5
14
100
AcDbSymbolTableRecord
100
AcDbLinetypeTableRecord
  2
BYBLOCK
 70
0
  3

 72
65
 73
0
 40
0.0
  0
LTYPE
  5
15
100
AcDbSymbolTableRecord
100
AcDbLinetypeTableRecord
  2
BYLAYER
 70
0
  3

 72
65
 73
0
 40
0.0
  0
LTYPE
  5
16
100
AcDbSymbolTableRecord
100
AcDbLinetypeTableRecord
  2
CONTINUOUS
 70
64
  3
Solid line
 72
65
 73
0
 40
0.0
  0
LTYPE
  5
1F5
100
AcDbSymbolTableRecord
100
AcDbLinetypeTableRecord
  2
CENTER
 70
64
  3
____ _ ____ _ ____ _ ____ _ ____ _ ____ _ ____
 72
65
 73
4
 40
0.6
 49
0.375
 74
0
 49
-0.075
 74
0
 49
0.075
 74
0
 49
-0.075
 74
0
  0
LTYPE
  5
1F6
100
AcDbSymbolTableRecord
100
AcDbLinetypeTableRecord
  2
HIDDEN
 70
64
  3
- - - - - - - - - - - - - - - - - - - -
 72
65
 73
2
 40
0.2
 49
0.1
 74
0
 49
-0.1
 74
0
  0
LTYPE
  5
1F7
100
AcDbSymbolTableRecord
100
AcDbLinetypeTableRecord
  2
PHANTOM
 70
64
  3
_____ _ _ _____ _ _ _____ _ _ _____
 72
65
 73
6
 40
0.8
 49
0.45
 74
0
 49
-0.05
 74
0
 49
0.1
 74
0
 49
-0.05
 74
0
 49
0.1
 74
0
 49
-0.05
 74
0
  0
LTYPE
  5
1F8
100
AcDbSymbolTableRecord
100
AcDbLinetypeTableRecord
  2
DOT
 70
64
  3
. . . . . . . . . . . . . . . . . . . .
 72
65
 73
2
 40
0.2
 49
0.1
 74
0
 49
-0.1
 74
0
  0
LTYPE
  5
1F9
100
AcDbSymbolTableRecord
100
AcDbLinetypeTableRecord
  2
DASHED
 70
64
  3
- - - - - - - - - - - - - - - - - - - -
 72
65
 73
2
 40
0.2
 49
0.1
 74
0
 49
-0.1
 74
0
  0
ENDTAB
  0
TABLE
  2
LAYER
  5
2
100
AcDbSymbolTable
 70
36
  0
LAYER
  5
10
100
AcDbSymbolTableRecord
100
AcDbLayerTableRecord
  2
0
 70
0
 62
7
  6
CONTINUOUS
370
-3
390
F
  0
LAYER
  5
1FA
100
AcDbSymbolTableRecord
100
AcDbLayerTableRecord
  2
DEFAULT_1
 70
0
 62
7
  6
CENTER
370
-3
390
F
  0
LAYER
  5
1FB
100
AcDbSymbolTableRecord
100
AcDbLayerTableRecord
  2
DEFAULT_2
 70
0
 62
7
  6
HIDDEN
370
-3
390
F
  0
LAYER
  5
1FC
100
AcDbSymbolTableRecord
100
AcDbLayerTableRecord
  2
DEFAULT_3
 70
0
 62
7
  6
PHANTOM
370
-3
390
F
  0
LAYER
  5
1FD
100
AcDbSymbolTableRecord
100
AcDbLayerTableRecord
  2
00_COMPONENTS
 70
0
 62
7
  6
CONTINUOUS
370
-3
390
F
  0
LAYER
  5
1FE
100
AcDbSymbolTableRecord
100
AcDbLayerTableRecord
  2
01_1_DEFAULT_DATUMS
 70
0
 62
7
  6
CONTINUOUS
370
-3
390
F
  0
LAYER
  5
1FF
100
AcDbSymbolTableRecord
100
AcDbLayerTableRecord
  2
01_PLANES
 70
0
 62
7
  6
CONTINUOUS
370
-3
390
F
  0
LAYER
  5
200
100
AcDbSymbolTableRecord
100
AcDbLayerTableRecord
  2
02_COORD_SYS
 70
0
 62
7
  6
CONTINUOUS
370
-3
390
F
  0
LAYER
  5
201
100
AcDbSymbolTableRecord
100
AcDbLayerTableRecord
  2
03_AXES
 70
0
 62
7
  6
CONTINUOUS
370
-3
390
F
  0
LAYER
  5
202
100
AcDbSymbolTableRecord
100
AcDbLayerTableRecord
  2
04_POINTS
 70
0
 62
7
  6
CONTINUOUS
370
-3
390
F
  0
LAYER
  5
203
100
AcDbSymbolTableRecord
100
AcDbLayerTableRecord
  2
05_CURVES
 70
0
 62
7
  6
CONTINUOUS
370
-3
390
F
  0
LAYER
  5
204
100
AcDbSymbolTableRecord
100
AcDbLayerTableRecord
  2
06_SURFS
 70
0
 62
7
  6
CONTINUOUS
370
-3
390
F
  0
LAYER
  5
205
100
AcDbSymbolTableRecord
100
AcDbLayerTableRecord
  2
07_COSMETICS
 70
0
 62
7
  6
CONTINUOUS
370
-3
390
F
  0
LAYER
  5
206
100
AcDbSymbolTableRecord
100
AcDbLayerTableRecord
  2
10_NOTES
 70
0
 62
7
  6
CONTINUOUS
370
-3
390
F
  0
LAYER
  5
207
100
AcDbSymbolTableRecord
100
AcDbLayerTableRecord
  2
11_NOTES_PUB
 70
0
 62
7
  6
CONTINUOUS
370
-3
390
F
  0
LAYER
  5
208
100
AcDbSymbolTableRecord
100
AcDbLayerTableRecord
  2
13_REF_GTOL
 70
0
 62
7
  6
CONTINUOUS
370
-3
390
F
  0
LAYER
  5
209
100
AcDbSymbolTableRecord
100
AcDbLayerTableRecord
  2
16_MISC
 70
0
 62
7
  6
CONTINUOUS
370
-3
390
F
  0
LAYER
  5
20A
100
AcDbSymbolTableRecord
100
AcDbLayerTableRecord
  2
17_NO_PRINT
 70
0
 62
7
  6
CONTINUOUS
370
-3
390
F
  0
LAYER
  5
20B
100
AcDbSymbolTableRecord
100
AcDbLayerTableRecord
  2
18_DATUM_CAMS_JOINTS
 70
0
 62
7
  6
CONTINUOUS
370
-3
390
F
  0
LAYER
  5
20C
100
AcDbSymbolTableRecord
100
AcDbLayerTableRecord
  2
19_DATUM_FUNCTIONAL
 70
0
 62
7
  6
CONTINUOUS
370
-3
390
F
  0
LAYER
  5
20D
100
AcDbSymbolTableRecord
100
AcDbLayerTableRecord
  2
20_DATUM_KINEMATIC_SCHEME
 70
0
 62
7
  6
CONTINUOUS
370
-3
390
F
  0
ENDTAB
  0
TABLE
  2
STYLE
  5
3
100
AcDbSymbolTable
 70
1
  0
STYLE
  5
11
100
AcDbSymbolTableRecord
100
AcDbTextStyleTableRecord
  2
STANDARD
 70
0
 40
0.0
 41
1.0
 50
0.0
 71
0
 42
0.2
  3
ARIAL.TTF
  4

  0
STYLE
  5
20E
100
AcDbSymbolTableRecord
100
AcDbTextStyleTableRecord
  2
TEXTSTYLE_1
 70
0
 40
0.0
 41
0.8
 50
0.0
 71
0
 42
0.2
  3
gdt
  4

  0
ENDTAB
  0
TABLE
  2
VIEW
  5
6
100
AcDbSymbolTable
 70
0
  0
ENDTAB
  0
TABLE
  2
UCS
  5
7
100
AcDbSymbolTable
 70
0
  0
ENDTAB
  0
TABLE
  2
APPID
  5
9
100
AcDbSymbolTable
 70
1
  0
APPID
  5
20F
100
AcDbSymbolTableRecord
100
AcDbRegAppTableRecord
  2
ACAD
 70
0
  0
ENDTAB
  0
TABLE
  2
BLOCK_RECORD
  5
1
100
AcDbSymbolTable
 70
0
  0
BLOCK_RECORD
  5
210
100
AcDbSymbolTableRecord
100
AcDbBlockTableRecord
  2
*Model_Space
  0
BLOCK_RECORD
  5
211
100
AcDbSymbolTableRecord
100
AcDbBlockTableRecord
  2
*Paper_Space
  0
BLOCK_RECORD
  5
212
100
AcDbSymbolTableRecord
100
AcDbBlockTableRecord
  2
_FILLED
  0
ENDTAB
  0
TABLE
  2
DIMSTYLE
  5
A
100
AcDbSymbolTable
 70
1
100
AcDbDimStyleTable
 71
0
  0
DIMSTYLE
105
213
100
AcDbSymbolTableRecord
100
AcDbDimStyleTableRecord
  2
STANDARD
 70
0
  3

  4

 40
1.0
 41
0.7868534107
 42
1.0
 43
0.38
 44
1.0
 45
0.0
 46
0.0
 47
0.01
 48
0.01
140
1.101594775
141
0.09
142
0.0
143
25.4
144
1.0
145
0.0
146
1.0
147
0.625
 71
1
 72
0
 73
0
 74
0
 75
0
 76
0
 77
1
 78
8
 79
2
170
0
171
1
172
0
173
0
174
0
175
0
176
0
177
0
178
0
270
2
179
2
271
2
272
2
273
2
274
2
275
0
280
0
281
0
282
0
283
1
284
8
285
0
286
0
287
3
288
0
340
11
278
46
341
212
342
212
343
212
344
212
  0
ENDTAB
  0
ENDSEC
  0
SECTION
  2
BLOCKS
  0
BLOCK
  5
20
100
AcDbEntity
  8
0
100
AcDbBlockBegin
  2
*Model_Space
 70
0
 10
0.0
 20
0.0
 30
0.0
  3
*Model_Space
  1

  0
ENDBLK
  5
21
100
AcDbEntity
  8
0
100
AcDbBlockEnd
  0
BLOCK
  5
1C
100
AcDbEntity
  8
0
100
AcDbBlockBegin
  2
*Paper_Space
 70
0
 10
0.0
 20
0.0
 30
0.0
  3
*Paper_Space
  1

  0
ENDBLK
  5
1D
100
AcDbEntity
  8
0
100
AcDbBlockEnd
  0
BLOCK
  5
214
100
AcDbEntity
  8
0
100
AcDbBlockBegin
  2
_FILLED
 70
64
 10
0.0
 20
0.0
  3
_FILLED
  1

  0
SOLID
  5
215
100
AcDbEntity
  8
0
  6
BYBLOCK
 62
0
100
AcDbTrace
 10
0.0
 20
0.0
 11
-1.0
 21
0.25
 12
-1.0
 22
-0.25
 13
-1.0
 23
-0.25
  0
ENDBLK
  5
216
100
AcDbEntity
  8
0
  6
BYBLOCK
 62
0
100
AcDbBlockEnd
  0
ENDSEC
  0
SECTION
  2
ENTITIES
  0
LINE
  5
217
100
AcDbEntity
  8
0
100
AcDbLine
 62
7
  6
BYLAYER
 10
7.6596585689
 20
35.4113729188
 11
7.6596585689
 21
22.4493970468
  0
LINE
  5
218
100
AcDbEntity
  8
0
100
AcDbLine
 62
7
  6
BYLAYER
 10
10.8346585689
 20
35.4113729188
 11
10.8346585689
 21
39.2999656803
  0
LINE
  5
219
100
AcDbEntity
  8
0
100
AcDbLine
 62
7
  6
BYLAYER
 10
41.4937042492
 20
70.7749374789
 11
36.6873310983
 21
67.6292272507
  0
LINE
  5
21A
100
AcDbEntity
  8
0
100
AcDbLine
 62
7
  6
BYLAYER
 10
18.7477109592
 20
33.6734603705
 11
18.7477109592
 21
36.9139543385
  0
LINE
  5
21B
100
AcDbEntity
  8
0
100
AcDbLine
 62
7
  6
BYLAYER
 10
20.3596585689
 20
38.9759162835
 11
20.3596585689
 21
39.2999656803
  0
LINE
  5
21C
100
AcDbEntity
  8
0
100
AcDbLine
 62
7
  6
BYLAYER
 10
35.3720418891
 20
65.148140172
 11
28.513843056
 21
60.6595360752
  0
LINE
  5
21D
100
AcDbEntity
  8
0
100
AcDbLine
 62
7
  6
BYLAYER
 10
28.513843056
 20
60.6595360752
 11
21.1482234844
 21
46.7654484346
  0
LINE
  5
21E
100
AcDbEntity
  8
0
100
AcDbLine
 62
7
  6
BYLAYER
 10
23.5346585689
 20
35.4113729188
 11
23.5346585689
 21
22.4493970468
  0
LINE
  5
21F
100
AcDbEntity
  8
0
100
AcDbLine
 62
7
  6
BYLAYER
 10
36.6873310983
 20
67.6292272507
 11
35.3720418891
 21
65.148140172
  0
LINE
  5
220
100
AcDbEntity
  8
0
100
AcDbLine
 62
7
  6
BYLAYER
 10
21.1482234844
 20
46.7654484346
 11
13.4565619195
 21
41.7313535575
  0
LINE
  5
221
100
AcDbEntity
  8
0
100
AcDbLine
 62
7
  6
BYLAYER
 10
46.7045074229
 20
61.8459386386
 11
56.7689541499
 21
66.9717461528
  0
LINE
  5
222
100
AcDbEntity
  8
0
100
AcDbLine
 62
7
  6
BYLAYER
 10
37.4389338898
 20
55.5067490514
 11
45.2134782782
 21
59.4663127637
  0
LINE
  5
223
100
AcDbEntity
  8
0
100
AcDbLine
 62
7
  6
BYLAYER
 10
29.0891706793
 20
42.1808441515
 11
21.1482234844
 21
46.7654484346
  0
LINE
  5
224
100
AcDbEntity
  8
0
100
AcDbLine
 62
7
  6
BYLAYER
 10
45.2134782782
 20
56.2258187957
 11
38.0565383835
 21
52.580800119
  0
LINE
  5
225
100
AcDbEntity
  8
0
100
AcDbLine
 62
7
  6
BYLAYER
 10
29.0891706793
 20
42.1808441515
 11
37.4389338898
 21
55.5067490514
  0
LINE
  5
226
100
AcDbEntity
  8
0
100
AcDbLine
 62
7
  6
BYLAYER
 10
56.7689541499
 20
60.4907582168
 11
46.7045074229
 21
55.3649507027
  0
LINE
  5
227
100
AcDbEntity
  8
0
100
AcDbLine
 62
7
  6
BYLAYER
 10
10.8346585689
 20
38.9874360028
 11
9.9844751256
 21
38.6517839078
  0
LINE
  5
228
100
AcDbEntity
  8
0
100
AcDbLine
 62
7
  6
BYLAYER
 10
38.0565383835
 20
52.580800119
 11
29.706775173
 21
39.2548952192
  0
LINE
  5
229
100
AcDbEntity
  8
0
100
AcDbLine
 62
7
  6
BYLAYER
 10
18.7477109592
 20
36.9139543385
 11
29.0891706793
 21
42.1808441515
  0
LINE
  5
22A
100
AcDbEntity
  8
0
100
AcDbLine
 62
7
  6
BYLAYER
 10
38.0242738621
 20
68.5042393221
 11
38.0242504526
 21
71.7504561591
  0
LINE
  5
22B
100
AcDbEntity
  8
0
100
AcDbLine
 62
7
  6
BYLAYER
 10
45.2134782782
 20
59.4663127637
 11
46.7045074229
 21
61.8459386386
  0
LINE
  5
22C
100
AcDbEntity
  8
0
100
AcDbLine
 62
7
  6
BYLAYER
 10
29.706775173
 20
39.2548952192
 11
18.7477109592
 21
33.6734603705
  0
LINE
  5
22D
100
AcDbEntity
  8
0
100
AcDbLine
 62
7
  6
BYLAYER
 10
41.9930004525
 20
74.990978747
 11
41.9930255682
 21
71.5081630387
  0
LINE
  5
22E
100
AcDbEntity
  8
0
100
AcDbLine
 62
7
  6
BYLAYER
 10
45.9620429313
 20
70.4083492985
 11
45.9981858341
 21
70.7749483063
  0
LINE
  5
22F
100
AcDbEntity
  8
0
100
AcDbLine
 62
7
  6
BYLAYER
 10
37.4389338898
 20
55.5067490514
 11
28.513843056
 21
60.6595360752
  0
LINE
  5
230
100
AcDbEntity
  8
0
100
AcDbLine
 62
7
  6
BYLAYER
 10
45.9981858341
 20
70.2692130988
 11
45.9981858341
 21
70.7749483063
  0
LINE
  5
231
100
AcDbEntity
  8
0
100
AcDbLine
 62
7
  6
BYLAYER
 10
46.2985534624
 20
71.5081733879
 11
46.2985534624
 21
69.3702334916
  0
LINE
  5
232
100
AcDbEntity
  8
0
100
AcDbLine
 62
7
  6
BYLAYER
 10
46.7045074229
 20
55.3649507027
 11
45.2134782782
 21
56.2258187957
  0
LINE
  5
233
100
AcDbEntity
  8
0
100
AcDbLine
 62
7
  6
BYLAYER
 10
45.2134782782
 20
59.4663127637
 11
35.3720418891
 21
65.148140172
  0
LINE
  5
234
100
AcDbEntity
  8
0
100
AcDbLine
 62
7
  6
BYLAYER
 10
46.7045074229
 20
61.8459386386
 11
36.6873310983
 21
67.6292272507
  0
LINE
  5
235
100
AcDbEntity
  8
0
100
AcDbLine
 62
7
  6
BYLAYER
 10
56.7689541499
 20
66.9717461528
 11
56.7689541499
 21
60.4907582168
  0
LINE
  5
236
100
AcDbEntity
  8
0
100
AcDbLine
 62
7
  6
BYLAYER
 10
59.4555334994
 20
63.9273614586
 11
59.4555334994
 21
70.4083493946
  0
LINE
  5
237
100
AcDbEntity
  8
0
100
AcDbLine
 62
7
  6
BYLAYER
 10
45.9981858341
 20
70.7749483063
 11
41.4937042492
 21
70.7749374789
  0
LINE
  5
238
100
AcDbEntity
  8
0
100
AcDbLine
 62
7
  6
BYLAYER
 10
41.9930255682
 20
71.5081630387
 11
46.2985534624
 21
71.5081733879
  0
LINE
  5
239
100
AcDbEntity
  8
0
100
AcDbLine
 62
7
  6
BYLAYER
 10
51.5180004524
 20
74.9910016423
 11
41.9930004525
 21
74.990978747
  0
ARC
  5
23A
100
AcDbEntity
  8
0
100
AcDbCircle
 62
7
  6
BYLAYER
 10
20.8441360488
 20
35.4090289981
 40
2.6905009356
100
AcDbArc
 50
0.0499124913
 51
13.3691524238
  0
SPLINE
  5
23B
100
AcDbEntity
  8
0
100
AcDbSpline
 62
7
  6
BYLAYER
 70
0
 71
3
 72
15
 73
11
 74
0
 42
0.0000001
 43
0.0000001
 44
0.0000000001
 40
0.0
 40
0.0
 40
0.0
 40
0.0
 40
0.1148501698
 40
0.2389955678
 40
0.3696601327
 40
0.5034763721
 40
0.6368074063
 40
0.7660519867
 40
0.8879634837
 40
1.0
 40
1.0
 40
1.0
 40
1.0
 10
19.2454028071
 20
18.3988335232
 30
0.0
 10
18.9867285084
 20
18.2494887387
 30
0.0
 10
18.4195834013
 20
17.9875043128
 30
0.0
 10
17.4952926449
 20
17.7136195826
 30
0.0
 10
16.4950873712
 20
17.551354818
 30
0.0
 10
15.4591087168
 20
17.5072719404
 30
0.0
 10
14.4286465934
 20
17.5830738965
 30
0.0
 10
13.4447455417
 20
17.7758268319
 30
0.0
 10
12.5468064732
 20
18.0777163519
 30
0.0
 10
12.0027888939
 20
18.3577537611
 30
0.0
 10
11.7577181536
 20
18.5153570965
 30
0.0
  0
SPLINE
  5
23C
100
AcDbEntity
  8
0
100
AcDbSpline
 62
7
  6
BYLAYER
 70
0
 71
3
 72
23
 73
19
 74
0
 42
0.0000001
 43
0.0000001
 44
0.0000000001
 40
0.0
 40
0.0
 40
0.0
 40
0.0
 40
0.0427776152
 40
0.0872331174
 40
0.1347408651
 40
0.1862127452
 40
0.2420789236
 40
0.3023577238
 40
0.3667429003
 40
0.4346736181
 40
0.5054029655
 40
0.5780543246
 40
0.6516633821
 40
0.7252322185
 40
0.7977584382
 40
0.868277171
 40
0.9359605706
 40
1.0
 40
1.0
 40
1.0
 40
1.0
 10
20.3596500691
 20
39.299965655
 30
0.0
 10
20.359639571
 20
39.4319130797
 30
0.0
 10
20.3253778488
 20
39.7020752522
 30
0.0
 10
20.1744777526
 20
40.0930421849
 30
0.0
 10
19.929248802
 20
40.4648445606
 30
0.0
 10
19.5962347935
 20
40.8103543511
 30
0.0
 10
19.1828315223
 20
41.1237506014
 30
0.0
 10
18.6974400963
 20
41.3994728443
 30
0.0
 10
18.149682208
 20
41.6323430467
 30
0.0
 10
17.5504773856
 20
41.8178671113
 30
0.0
 10
16.9118440628
 20
41.9524291539
 30
0.0
 10
16.2466356673
 20
42.0333007034
 30
0.0
 10
15.5682828628
 20
42.0588394384
 30
0.0
 10
14.890509019
 20
42.0285527765
 30
0.0
 10
14.2270501519
 20
41.9430707095
 30
0.0
 10
13.5911763113
 20
41.8040721847
 30
0.0
 10
12.9959673984
 20
41.6143081935
 30
0.0
 10
12.6226223434
 20
41.4515723922
 30
0.0
 10
12.4466061787
 20
41.3619276254
 30
0.0
  0
SPLINE
  5
23D
100
AcDbEntity
  8
0
100
AcDbSpline
 62
7
  6
BYLAYER
 70
0
 71
3
 72
9
 73
5
 74
0
 42
0.0000001
 43
0.0000001
 44
0.0000000001
 40
0.0
 40
0.0
 40
0.0
 40
0.0
 40
0.4841840818
 40
1.0
 40
1.0
 40
1.0
 40
1.0
 10
21.2098420123
 20
19.2089860578
 30
0.0
 10
20.9149687385
 20
19.03874191
 30
0.0
 10
20.2817240257
 20
18.7282620826
 30
0.0
 10
19.6179382958
 20
18.4917326309
 30
0.0
 10
19.2706381763
 20
18.3870490973
 30
0.0
  0
SPLINE
  5
23E
100
AcDbEntity
  8
0
100
AcDbSpline
 62
7
  6
BYLAYER
 70
0
 71
3
 72
23
 73
19
 74
0
 42
0.0000001
 43
0.0000001
 44
0.0000000001
 40
0.0
 40
0.0
 40
0.0
 40
0.0
 40
0.0699364184
 40
0.1420181385
 40
0.2154954858
 40
0.28958132
 40
0.363467578
 40
0.4363493889
 40
0.5074570519
 40
0.5760847163
 40
0.6416177132
 40
0.7035682675
 40
0.761618654
 40
0.8156640632
 40
0.8658664572
 40
0.9127116586
 40
0.9570364574
 40
1.0
 40
1.0
 40
1.0
 40
1.0
 10
19.2706381763
 20
18.3870490973
 30
0.0
 10
18.9642709177
 20
18.2947035857
 30
0.0
 10
18.3336490332
 20
18.1344290109
 30
0.0
 10
17.3608034949
 20
17.9684835524
 30
0.0
 10
16.3592126184
 20
17.8753780046
 30
0.0
 10
15.3452684507
 20
17.8565843319
 30
0.0
 10
14.3354001331
 20
17.9123682369
 30
0.0
 10
13.346023337
 20
18.0418952697
 30
0.0
 10
12.3931932043
 20
18.2430477504
 30
0.0
 10
11.4923165398
 20
18.5125441399
 30
0.0
 10
10.6579299321
 20
18.8461236638
 30
0.0
 10
9.9034469284
 20
19.2385623099
 30
0.0
 10
9.2409211709
 20
19.6837704673
 30
0.0
 10
8.6810237802
 20
20.1751398377
 30
0.0
 10
8.2331273699
 20
20.7055965284
 30
0.0
 10
7.9053753844
 20
21.267594767
 30
0.0
 10
7.7049077266
 20
21.8521209706
 30
0.0
 10
7.6596993155
 20
22.2528247768
 30
0.0
 10
7.6596808717
 20
22.4493971487
 30
0.0
  0
SPLINE
  5
23F
100
AcDbEntity
  8
0
100
AcDbSpline
 62
7
  6
BYLAYER
 70
0
 71
3
 72
11
 73
7
 74
0
 42
0.0000001
 43
0.0000001
 44
0.0000000001
 40
0.0
 40
0.0
 40
0.0
 40
0.0
 40
0.2435013685
 40
0.4898015171
 40
0.7413569105
 40
1.0
 40
1.0
 40
1.0
 40
1.0
 10
38.02426325
 20
71.7504561599
 30
0.0
 10
38.0242634353
 20
71.9167578696
 30
0.0
 10
38.0561006196
 20
72.252104255
 30
0.0
 10
38.1977323336
 20
72.7410786632
 30
0.0
 10
38.4293777959
 20
73.2058254043
 30
0.0
 10
38.6370417368
 20
73.487972999
 30
0.0
 10
38.7526751422
 20
73.6215081249
 30
0.0
  0
SPLINE
  5
240
100
AcDbEntity
  8
0
100
AcDbSpline
 62
7
  6
BYLAYER
 70
0
 71
3
 72
11
 73
7
 74
0
 42
0.0000001
 43
0.0000001
 44
0.0000000001
 40
0.0
 40
0.0
 40
0.0
 40
0.0
 40
0.2361471272
 40
0.4833425935
 40
0.7392676411
 40
1.0
 40
1.0
 40
1.0
 40
1.0
 10
38.7526751422
 20
73.6215081249
 30
0.0
 10
38.9391086228
 20
73.8368041998
 30
0.0
 10
39.3787849631
 20
74.2295365066
 30
0.0
 10
40.166196946
 20
74.6616592987
 30
0.0
 10
41.0537166137
 20
74.9304554551
 30
0.0
 10
41.6785523009
 20
74.9909779912
 30
0.0
 10
41.9930004525
 20
74.990978747
 30
0.0
  0
SPLINE
  5
241
100
AcDbEntity
  8
0
100
AcDbSpline
 62
7
  6
BYLAYER
 70
0
 71
3
 72
15
 73
11
 74
0
 42
0.0000001
 43
0.0000001
 44
0.0000000001
 40
0.0
 40
0.0
 40
0.0
 40
0.0
 40
0.1485425659
 40
0.2895069492
 40
0.4227374305
 40
0.5486431204
 40
0.6680005255
 40
0.7819414783
 40
0.8919887066
 40
1.0
 40
1.0
 40
1.0
 40
1.0
 10
9.9844751256
 20
38.6517839078
 30
0.0
 10
9.8055094659
 20
38.5484586528
 30
0.0
 10
9.4648309891
 20
38.3324638576
 30
0.0
 10
8.9989735873
 20
37.9719931966
 30
0.0
 10
8.5960613829
 20
37.5862925067
 30
0.0
 10
8.2600982794
 20
37.1790832907
 30
0.0
 10
7.9945308626
 20
36.7538912266
 30
0.0
 10
7.8022269978
 20
36.3145985492
 30
0.0
 10
7.685781943
 20
35.8656079667
 30
0.0
 10
7.6596670743
 20
35.5616376403
 30
0.0
 10
7.6596811743
 20
35.411373044
 30
0.0
  0
SPLINE
  5
242
100
AcDbEntity
  8
0
100
AcDbSpline
 62
7
  6
BYLAYER
 70
0
 71
3
 72
15
 73
11
 74
0
 42
0.0000001
 43
0.0000001
 44
0.0000000001
 40
0.0
 40
0.0
 40
0.0
 40
0.0
 40
0.1080091214
 40
0.2180555003
 40
0.3319993489
 40
0.4513504467
 40
0.5772552405
 40
0.7104979593
 40
0.8514743989
 40
1.0
 40
1.0
 40
1.0
 40
1.0
 10
57.0742767656
 20
70.4083493941
 30
0.0
 10
57.0742772576
 20
70.3031664005
 30
0.0
 10
57.0559762073
 20
70.0903947743
 30
0.0
 10
56.9745004932
 20
69.776091489
 30
0.0
 10
56.8398526762
 20
69.4686066544
 30
0.0
 10
56.6539974513
 20
69.1709533457
 30
0.0
 10
56.418803668
 20
68.8859144712
 30
0.0
 10
56.1367529771
 20
68.6159053592
 30
0.0
 10
55.8106365475
 20
68.3635856484
 30
0.0
 10
55.5721734339
 20
68.2123810453
 30
0.0
 10
55.4469119098
 20
68.1400617023
 30
0.0
  0
SPLINE
  5
243
100
AcDbEntity
  8
0
100
AcDbSpline
 62
7
  6
BYLAYER
 70
0
 71
3
 72
19
 73
15
 74
0
 42
0.0000001
 43
0.0000001
 44
0.0000000001
 40
0.0
 40
0.0
 40
0.0
 40
0.0
 40
0.0450644846
 40
0.0909782471
 40
0.138514941
 40
0.1883130138
 40
0.2408485003
 40
0.2964318502
 40
0.3552146164
 40
0.417216394
 40
0.5502692401
 40
0.693835518
 40
0.8449451896
 40
1.0
 40
1.0
 40
1.0
 40
1.0
 10
59.4555233057
 20
70.4083493899
 30
0.0
 10
59.4555138445
 20
70.5586169092
 30
0.0
 10
59.4294040371
 20
70.8625910281
 30
0.0
 10
59.3129462287
 20
71.3115802414
 30
0.0
 10
59.1206786129
 20
71.7508926244
 30
0.0
 10
58.8550553605
 20
72.1760731691
 30
0.0
 10
58.5190982384
 20
72.5833133086
 30
0.0
 10
58.116207671
 20
72.9688925707
 30
0.0
 10
57.6504150636
 20
73.3295130233
 30
0.0
 10
56.9345551593
 20
73.7830753819
 30
0.0
 10
55.9063393182
 20
74.2617839857
 30
0.0
 10
54.5380124816
 20
74.6777007549
 30
0.0
 10
53.0569039562
 20
74.9336781358
 30
0.0
 10
52.0350307029
 20
74.9910028851
 30
0.0
 10
51.5180004524
 20
74.9910016423
 30
0.0
  0
SPLINE
  5
244
100
AcDbEntity
  8
0
100
AcDbSpline
 62
7
  6
BYLAYER
 70
0
 71
3
 72
15
 73
11
 74
0
 42
0.0000001
 43
0.0000001
 44
0.0000000001
 40
0.0
 40
0.0
 40
0.0
 40
0.0
 40
0.1098664498
 40
0.221493957
 40
0.3365114219
 40
0.4562882036
 40
0.5819038482
 40
0.7141541371
 40
0.853520627
 40
1.0
 40
1.0
 40
1.0
 40
1.0
 10
59.4555233081
 20
63.927361454
 30
0.0
 10
59.4555320179
 20
63.7891046808
 30
0.0
 10
59.4334634342
 20
63.5099015144
 30
0.0
 10
59.3350548388
 20
63.0964361623
 30
0.0
 10
59.1721699885
 20
62.690451752
 30
0.0
 10
58.9467679527
 20
62.2953952215
 30
0.0
 10
58.6608218365
 20
61.9144152123
 30
0.0
 10
58.3168959955
 20
61.5503232362
 30
0.0
 10
57.9179048151
 20
61.2061510297
 30
0.0
 10
57.6247676689
 20
60.9967571133
 30
0.0
 10
57.4705337383
 20
60.8958129632
 30
0.0
  0
SPLINE
  5
245
100
AcDbEntity
  8
0
100
AcDbSpline
 62
7
  6
BYLAYER
 70
0
 71
3
 72
13
 73
9
 74
0
 42
0.0000001
 43
0.0000001
 44
0.0000000001
 40
0.0
 40
0.0
 40
0.0
 40
0.0
 40
0.1150758796
 40
0.2330276003
 40
0.354101888
 40
0.4783337345
 40
0.7349145282
 40
1.0
 40
1.0
 40
1.0
 40
1.0
 10
38.333152944
 20
68.7877151527
 30
0.0
 10
38.3996382989
 20
68.9171239199
 30
0.0
 10
38.5538609725
 20
69.1695562852
 30
0.0
 10
38.8392128048
 20
69.5162068941
 30
0.0
 10
39.1763636204
 20
69.8300140064
 30
0.0
 10
39.6927097087
 20
70.201261976
 30
0.0
 10
40.4374775542
 20
70.5543640286
 30
0.0
 10
41.0863631101
 20
70.7011326247
 30
0.0
 10
41.4191416766
 20
70.7408752265
 30
0.0
  0
SPLINE
  5
246
100
AcDbEntity
  8
0
100
AcDbSpline
 62
7
  6
BYLAYER
 70
0
 71
3
 72
15
 73
11
 74
0
 42
0.0000001
 43
0.0000001
 44
0.0000000001
 40
0.0
 40
0.0
 40
0.0
 40
0.0
 40
0.1080098582
 40
0.2180560734
 40
0.3319966236
 40
0.4513534046
 40
0.5772590706
 40
0.7104908902
 40
0.8514573555
 40
1.0
 40
1.0
 40
1.0
 40
1.0
 10
23.5346362661
 20
22.4493969449
 30
0.0
 10
23.5346503648
 20
22.2991343657
 30
0.0
 10
23.5085330892
 20
21.9951679218
 30
0.0
 10
23.3920943449
 20
21.5461799038
 30
0.0
 10
23.199789051
 20
21.106890965
 30
0.0
 10
22.9342279865
 20
20.6816969581
 30
0.0
 10
22.5982637751
 20
20.2744872198
 30
0.0
 10
22.195349867
 20
19.8887816489
 30
0.0
 10
21.7294877134
 20
19.5283092156
 30
0.0
 10
21.3888077423
 20
19.3123113535
 30
0.0
 10
21.2098420123
 20
19.2089860578
 30
0.0
  0
SPLINE
  5
247
100
AcDbEntity
  8
0
100
AcDbSpline
 62
7
  6
BYLAYER
 70
0
 71
3
 72
9
 73
5
 74
0
 42
0.0000001
 43
0.0000001
 44
0.0000000001
 40
0.0
 40
0.0
 40
0.0
 40
0.0
 40
0.2441542994
 40
1.0
 40
1.0
 40
1.0
 40
1.0
 10
57.4705337383
 20
60.8958129632
 30
0.0
 10
57.4153523896
 20
60.8596974708
 30
0.0
 10
57.1871945207
 20
60.7150721316
 30
0.0
 10
56.9508822168
 20
60.5834139065
 30
0.0
 10
56.7689541499
 20
60.4907582168
 30
0.0
  0
SPLINE
  5
248
100
AcDbEntity
  8
0
100
AcDbSpline
 62
7
  6
BYLAYER
 70
0
 71
3
 72
9
 73
5
 74
0
 42
0.0000001
 43
0.0000001
 44
0.0000000001
 40
0.0
 40
0.0
 40
0.0
 40
0.0
 40
0.2580590898
 40
1.0
 40
1.0
 40
1.0
 40
1.0
 10
12.4466061787
 20
41.3619276254
 30
0.0
 10
12.3955910018
 20
41.3359456729
 30
0.0
 10
12.1997060998
 20
41.2317983534
 30
0.0
 10
12.0111838543
 20
41.1135240562
 30
0.0
 10
11.8777147014
 20
41.0171964013
 30
0.0
  0
SPLINE
  5
249
100
AcDbEntity
  8
0
100
AcDbSpline
 62
7
  6
BYLAYER
 70
0
 71
3
 72
13
 73
9
 74
0
 42
0.0000001
 43
0.0000001
 44
0.0000000001
 40
0.0
 40
0.0
 40
0.0
 40
0.0
 40
0.2828085341
 40
0.5394825219
 40
0.6597180416
 40
0.7756738227
 40
0.8886159481
 40
1.0
 40
1.0
 40
1.0
 40
1.0
 10
11.8777147014
 20
41.0171964013
 30
0.0
 10
11.7183809214
 20
40.9022016701
 30
0.0
 10
11.4305891343
 20
40.6586486031
 30
0.0
 10
11.1432988256
 20
40.2963250147
 30
0.0
 10
10.9825633807
 20
39.9929988522
 30
0.0
 10
10.8975106447
 20
39.7650112439
 30
0.0
 10
10.8461722568
 20
39.5334511351
 30
0.0
 10
10.8346609114
 20
39.3773559575
 30
0.0
 10
10.8346670688
 20
39.2999657057
 30
0.0
  0
SPLINE
  5
24A
100
AcDbEntity
  8
0
100
AcDbSpline
 62
7
  6
BYLAYER
 70
0
 71
3
 72
21
 73
17
 74
0
 42
0.0000001
 43
0.0000001
 44
0.0000000001
 40
0.0
 40
0.0
 40
0.0
 40
0.0
 40
0.0551745754
 40
0.1111909192
 40
0.168570349
 40
0.2276975706
 40
0.2887314142
 40
0.351651034
 40
0.4819261004
 40
0.5487924256
 40
0.6160468456
 40
0.7492770137
 40
0.8145182692
 40
0.8782005615
 40
0.9400597884
 40
1.0
 40
1.0
 40
1.0
 40
1.0
 10
38.8222201544
 20
73.7170068766
 30
0.0
 10
38.8307979067
 20
73.8523422549
 30
0.0
 10
38.8743970934
 20
74.1241024083
 30
0.0
 10
39.016395416
 20
74.5157178067
 30
0.0
 10
39.2312900145
 20
74.8838189732
 30
0.0
 10
39.5132414916
 20
75.2194181891
 30
0.0
 10
39.8553612275
 20
75.5145769939
 30
0.0
 10
40.3856296452
 20
75.8485346508
 30
0.0
 10
40.9952371502
 20
76.069828748
 30
0.0
 10
41.6385976324
 20
76.1702560469
 30
0.0
 10
42.2968518958
 20
76.1884603253
 30
0.0
 10
42.9499876415
 20
76.0815619958
 30
0.0
 10
43.5540709699
 20
75.8530051531
 30
0.0
 10
43.9670552362
 20
75.6274107241
 30
0.0
 10
44.3322935658
 20
75.3519274271
 30
0.0
 10
44.5415296069
 20
75.1356855662
 30
0.0
 10
44.6346962103
 20
75.0215667043
 30
0.0
  0
SPLINE
  5
24B
100
AcDbEntity
  8
0
100
AcDbSpline
 62
7
  6
BYLAYER
 70
0
 71
3
 72
24
 73
20
 74
0
 42
0.0000001
 43
0.0000001
 44
0.0000000001
 40
0.0
 40
0.0
 40
0.0
 40
0.0
 40
0.0623734594
 40
0.1287366352
 40
0.1983249539
 40
0.2703063231
 40
0.3436881926
 40
0.4174229099
 40
0.4904516618
 40
0.5617420962
 40
0.6303429282
 40
0.6954352445
 40
0.7563875148
 40
0.8128281783
 40
0.8647335245
 40
0.9125121729
 40
0.9570859122
 40
0.978654508
 40
1.0
 40
1.0
 40
1.0
 40
1.0
 10
55.4469119098
 20
68.1400617023
 30
0.0
 10
55.2473329805
 20
68.0248354415
 30
0.0
 10
54.8194985637
 20
67.8139457171
 30
0.0
 10
54.1294490091
 20
67.5638310873
 30
0.0
 10
53.3836577885
 20
67.3745386746
 30
0.0
 10
52.5982515504
 20
67.2499799751
 30
0.0
 10
51.789771597
 20
67.1928341939
 30
0.0
 10
50.9755039419
 20
67.2042841059
 30
0.0
 10
50.1728090984
 20
67.2840766802
 30
0.0
 10
49.3987949249
 20
67.4305740623
 30
0.0
 10
48.6699005335
 20
67.6406344781
 30
0.0
 10
48.0015207816
 20
67.9098586947
 30
0.0
 10
47.4077168663
 20
68.2328039855
 30
0.0
 10
46.9009214734
 20
68.6030859755
 30
0.0
 10
46.4919315762
 20
69.0138454833
 30
0.0
 10
46.1901145943
 20
69.4573981011
 30
0.0
 10
46.0333726456
 20
69.8526369988
 30
0.0
 10
45.9719805829
 20
70.1707295212
 30
0.0
 10
45.9618417464
 20
70.3294833128
 30
0.0
 10
45.961843851
 20
70.4083493002
 30
0.0
  0
SPLINE
  5
24C
100
AcDbEntity
  8
0
100
AcDbSpline
 62
7
  6
BYLAYER
 70
0
 71
3
 72
14
 73
10
 74
0
 42
0.0000001
 43
0.0000001
 44
0.0000000001
 40
0.0
 40
0.0
 40
0.0
 40
0.0
 40
0.1504597494
 40
0.2930267463
 40
0.5531398387
 40
0.6721957562
 40
0.7851856868
 40
0.8937559205
 40
1.0
 40
1.0
 40
1.0
 40
1.0
 10
18.7477109592
 20
37.2380037353
 30
0.0
 10
18.8705840414
 20
37.3005828104
 30
0.0
 10
19.104984283
 20
37.4327026652
 30
0.0
 10
19.5212566358
 20
37.7225402973
 30
0.0
 10
19.8708360404
 20
38.0571346873
 30
0.0
 10
20.1251844804
 20
38.4313701763
 30
0.0
 10
20.2597294771
 20
38.7146108341
 30
0.0
 10
20.3412917413
 20
39.0052735405
 30
0.0
 10
20.359657816
 20
39.2025967234
 30
0.0
 10
20.3596500691
 20
39.299965655
 30
0.0
  0
SPLINE
  5
24D
100
AcDbEntity
  8
0
100
AcDbSpline
 62
7
  6
BYLAYER
 70
0
 71
3
 72
9
 73
5
 74
0
 42
0.0000001
 43
0.0000001
 44
0.0000000001
 40
0.0
 40
0.0
 40
0.0
 40
0.0
 40
0.4744190657
 40
1.0
 40
1.0
 40
1.0
 40
1.0
 10
19.8330201786
 20
34.1545600207
 30
0.0
 10
19.6903220464
 20
33.9942577528
 30
0.0
 10
19.3488272454
 20
33.6919268742
 30
0.0
 10
18.9595754519
 20
33.4573132398
 30
0.0
 10
18.7477109592
 20
33.3494109737
 30
0.0
  0
SPLINE
  5
24E
100
AcDbEntity
  8
0
100
AcDbSpline
 62
7
  6
BYLAYER
 70
0
 71
3
 72
25
 73
21
 74
0
 42
0.0000001
 43
0.0000001
 44
0.0000000001
 40
0.0
 40
0.0
 40
0.0
 40
0.0
 40
0.0213320994
 40
0.0428924289
 40
0.0648981372
 40
0.0875426902
 40
0.1353182296
 40
0.1872191199
 40
0.2436562881
 40
0.3046037345
 40
0.369691501
 40
0.4382887265
 40
0.5095748284
 40
0.5825991186
 40
0.6563307663
 40
0.7297065527
 40
0.801684246
 40
0.8712723127
 40
0.9376230261
 40
1.0
 40
1.0
 40
1.0
 40
1.0
 10
7.6596811743
 20
35.411373044
 30
0.0
 10
7.6596917404
 20
35.2987694908
 30
0.0
 10
7.6742301139
 20
35.0720993583
 30
0.0
 10
7.7393082618
 20
34.7349040816
 30
0.0
 10
7.8474004905
 20
34.4016313239
 30
0.0
 10
8.0511489224
 20
33.9572941474
 30
0.0
 10
8.4169061428
 20
33.4191703985
 30
0.0
 10
9.0011056409
 20
32.8326232156
 30
0.0
 10
9.7251033186
 20
32.3035479952
 30
0.0
 10
10.5733743612
 20
31.8421853446
 30
0.0
 10
11.5281985211
 20
31.4575298742
 30
0.0
 10
12.5694938502
 20
31.1574448545
 30
0.0
 10
13.675248375
 20
30.9481677866
 30
0.0
 10
14.8219743603
 20
30.8341269033
 30
0.0
 10
15.9852313074
 20
30.8177502913
 30
0.0
 10
17.1402223983
 20
30.8993955038
 30
0.0
 10
18.2622628756
 20
31.0773514203
 30
0.0
 10
19.3276751022
 20
31.3477625114
 30
0.0
 10
20.3135110161
 20
31.7050244884
 30
0.0
 10
20.9246915506
 20
32.0063312167
 30
0.0
 10
21.2098420123
 20
32.1709619298
 30
0.0
  0
SPLINE
  5
24F
100
AcDbEntity
  8
0
100
AcDbSpline
 62
7
  6
BYLAYER
 70
0
 71
3
 72
15
 73
11
 74
0
 42
0.0000001
 43
0.0000001
 44
0.0000000001
 40
0.0
 40
0.0
 40
0.0
 40
0.0
 40
0.1485425659
 40
0.2895069492
 40
0.4227374305
 40
0.5486431204
 40
0.6680005255
 40
0.7819414783
 40
0.8919887066
 40
1.0
 40
1.0
 40
1.0
 40
1.0
 10
21.2098420123
 20
32.1709619298
 30
0.0
 10
21.3888076719
 20
32.2742871848
 30
0.0
 10
21.7294861488
 20
32.4902819799
 30
0.0
 10
22.1953435505
 20
32.8507526409
 30
0.0
 10
22.598255755
 20
33.2364533308
 30
0.0
 10
22.9342188585
 20
33.6436625469
 30
0.0
 10
23.1997862753
 20
34.068854611
 30
0.0
 10
23.39209014
 20
34.5081472883
 30
0.0
 10
23.5085351949
 20
34.9571378709
 30
0.0
 10
23.5346500636
 20
35.2611081972
 30
0.0
 10
23.5346359635
 20
35.4113727935
 30
0.0
  0
SPLINE
  5
250
100
AcDbEntity
  8
0
100
AcDbSpline
 62
7
  6
BYLAYER
 70
0
 71
3
 72
15
 73
11
 74
0
 42
0.0000001
 43
0.0000001
 44
0.0000000001
 40
0.0
 40
0.0
 40
0.0
 40
0.0
 40
0.136295529
 40
0.2710942694
 40
0.4029249665
 40
0.5307902722
 40
0.6540858301
 40
0.7728352746
 40
0.8877072764
 40
1.0
 40
1.0
 40
1.0
 40
1.0
 10
41.9930255682
 20
71.5081630387
 30
0.0
 10
41.7473886784
 20
71.5081624483
 30
0.0
 10
41.2579909494
 20
71.4710452716
 30
0.0
 10
40.5480114031
 20
71.3057802205
 30
0.0
 10
39.8867494838
 20
71.0361116329
 30
0.0
 10
39.2968979165
 20
70.6710685997
 30
0.0
 10
38.7987349837
 20
70.2222764651
 30
0.0
 10
38.4099031174
 20
69.7043378444
 30
0.0
 10
38.1449336168
 20
69.1349490251
 30
0.0
 10
38.0572884236
 20
68.7308282991
 30
0.0
 10
38.0372820025
 20
68.5294414727
 30
0.0
  0
SPLINE
  5
251
100
AcDbEntity
  8
0
100
AcDbSpline
 62
7
  6
BYLAYER
 70
0
 71
3
 72
23
 73
19
 74
0
 42
0.0000001
 43
0.0000001
 44
0.0000000001
 40
0.0
 40
0.0
 40
0.0
 40
0.0
 40
0.064039098
 40
0.13172098
 40
0.2022385647
 40
0.2747639867
 40
0.3483322306
 40
0.4219413982
 40
0.4945937291
 40
0.56532438
 40
0.6332563886
 40
0.697642581
 40
0.7579218631
 40
0.813788068
 40
0.8652597573
 40
0.9127671592
 40
0.9572223537
 40
1.0
 40
1.0
 40
1.0
 40
1.0
 10
18.7477109592
 20
33.3494109737
 30
0.0
 10
18.5716957076
 20
33.2597666719
 30
0.0
 10
18.1983565118
 20
33.0970317603
 30
0.0
 10
17.6031562786
 20
32.9072708443
 30
0.0
 10
16.9672933218
 20
32.7682733914
 30
0.0
 10
16.3038429717
 20
32.6827864783
 30
0.0
 10
15.6260730221
 20
32.6524990689
 30
0.0
 10
14.9477187735
 20
32.6780354548
 30
0.0
 10
14.2825023089
 20
32.7589021697
 30
0.0
 10
13.6438581533
 20
32.8934667035
 30
0.0
 10
13.0446424884
 20
33.0789931233
 30
0.0
 10
12.4968759104
 20
33.311865041
 30
0.0
 10
12.0114808846
 20
33.5875906991
 30
0.0
 10
11.5980781834
 20
33.9009893102
 30
0.0
 10
11.2650653427
 20
34.2464976232
 30
0.0
 10
11.0198370387
 20
34.6182980718
 30
0.0
 10
10.8689438535
 20
35.0092646475
 30
0.0
 10
10.8346756737
 20
35.2794254064
 30
0.0
 10
10.8346675291
 20
35.4113729255
 30
0.0
  0
SPLINE
  5
252
100
AcDbEntity
  8
0
100
AcDbSpline
 62
7
  6
BYLAYER
 70
0
 71
3
 72
23
 73
19
 74
0
 42
0.0000001
 43
0.0000001
 44
0.0000000001
 40
0.0
 40
0.0
 40
0.0
 40
0.0
 40
0.0623833515
 40
0.1287490816
 40
0.1983465977
 40
0.2703364877
 40
0.3437249215
 40
0.4174678452
 40
0.4905049731
 40
0.5618042866
 40
0.6304129602
 40
0.6955106158
 40
0.756467951
 40
0.8129145982
 40
0.8648229087
 40
0.9126047277
 40
0.9571861753
 40
1.0
 40
1.0
 40
1.0
 40
1.0
 10
47.5891550891
 20
72.6766370869
 30
0.0
 10
47.7887486491
 20
72.7918717946
 30
0.0
 10
48.2165823037
 20
73.0027761945
 30
0.0
 10
48.906656479
 20
73.2528766217
 30
0.0
 10
49.6524576855
 20
73.4421638851
 30
0.0
 10
50.4378839664
 20
73.5667372067
 30
0.0
 10
51.2463818373
 20
73.6238785822
 30
0.0
 10
52.0606658155
 20
73.6124090982
 30
0.0
 10
52.863383
 20
73.5325931337
 30
0.0
 10
53.6374252335
 20
73.3861068912
 30
0.0
 10
54.3663322055
 20
73.1760233313
 30
0.0
 10
55.0346999465
 20
72.9067516798
 30
0.0
 10
55.6284975839
 20
72.5837971081
 30
0.0
 10
56.135291711
 20
72.2134964085
 30
0.0
 10
56.5442639087
 20
71.8027861171
 30
0.0
 10
56.8460025136
 20
71.3589501289
 30
0.0
 10
57.0319691446
 20
70.8907703455
 30
0.0
 10
57.0742760256
 20
70.5665217446
 30
0.0
 10
57.0742767656
 20
70.4083493941
 30
0.0
  0
SPLINE
  5
253
100
AcDbEntity
  8
0
100
AcDbSpline
 62
7
  6
BYLAYER
 70
0
 71
3
 72
10
 73
6
 74
0
 42
0.0000001
 43
0.0000001
 44
0.0000000001
 40
0.0
 40
0.0
 40
0.0
 40
0.0
 40
0.4687024933
 40
0.7264785578
 40
1.0
 40
1.0
 40
1.0
 40
1.0
 10
46.2985534624
 20
71.5081733879
 30
0.0
 10
46.4450493253
 20
71.7399105793
 30
0.0
 10
46.7309899817
 20
72.0633845494
 30
0.0
 10
47.1882262021
 20
72.4286926464
 30
0.0
 10
47.4505982652
 20
72.5966417448
 30
0.0
 10
47.5891550891
 20
72.6766370869
 30
0.0
  0
SPLINE
  5
254
100
AcDbEntity
  8
0
100
AcDbSpline
 62
7
  6
BYLAYER
 70
0
 71
3
 72
14
 73
10
 74
0
 42
0.0000001
 43
0.0000001
 44
0.0000000001
 40
0.0
 40
0.0
 40
0.0
 40
0.0
 40
0.1062428993
 40
0.2148125732
 40
0.3278025727
 40
0.4468580694
 40
0.7069733676
 40
0.8495416069
 40
1.0
 40
1.0
 40
1.0
 40
1.0
 10
20.3596496088
 20
38.9759162768
 30
0.0
 10
20.3596556189
 20
38.8785484596
 30
0.0
 10
20.3412906291
 20
38.6812271866
 30
0.0
 10
20.2597302117
 20
38.39056541
 30
0.0
 10
20.1251847707
 20
38.1073261273
 30
0.0
 10
19.87083958
 20
37.7330866445
 30
0.0
 10
19.5212565973
 20
37.3984912819
 30
0.0
 10
19.1049825269
 20
37.1086533929
 30
0.0
 10
18.8705828922
 20
36.9765328283
 30
0.0
 10
18.7477109592
 20
36.9139543385
 30
0.0
  0
SPLINE
  5
255
100
AcDbEntity
  8
0
100
AcDbSpline
 62
7
  6
BYLAYER
 70
0
 71
3
 72
15
 73
11
 74
0
 42
0.0000001
 43
0.0000001
 44
0.0000000001
 40
0.0
 40
0.0
 40
0.0
 40
0.0
 40
0.1464793431
 40
0.2858457933
 40
0.4180960632
 40
0.5437117104
 40
0.6634885029
 40
0.7785059863
 40
0.8901335182
 40
1.0
 40
1.0
 40
1.0
 40
1.0
 10
57.4705337383
 20
67.3768008992
 30
0.0
 10
57.6247676373
 20
67.4777450286
 30
0.0
 10
57.917904723
 20
67.6871388778
 30
0.0
 10
58.3168958224
 20
68.0313110072
 30
0.0
 10
58.6608216295
 20
68.3954029151
 30
0.0
 10
58.9467677813
 20
68.7763828888
 30
0.0
 10
59.1721698557
 20
69.1714394418
 30
0.0
 10
59.3350547854
 20
69.5774238949
 30
0.0
 10
59.4334633887
 20
69.9908893423
 30
0.0
 10
59.4555320108
 20
70.2700925764
 30
0.0
 10
59.4555233057
 20
70.4083493899
 30
0.0
  0
SPLINE
  5
256
100
AcDbEntity
  8
0
100
AcDbSpline
 62
7
  6
BYLAYER
 70
0
 71
3
 72
9
 73
5
 74
0
 42
0.0000001
 43
0.0000001
 44
0.0000000001
 40
0.0
 40
0.0
 40
0.0
 40
0.0
 40
0.2558729148
 40
1.0
 40
1.0
 40
1.0
 40
1.0
 10
56.7689541499
 20
66.9717461528
 30
0.0
 10
56.8305408786
 20
67.0031121807
 30
0.0
 10
57.0696664208
 20
67.1287338139
 30
0.0
 10
57.3023549149
 20
67.2667299937
 30
0.0
 10
57.4705337383
 20
67.3768008992
 30
0.0
  0
SPLINE
  5
257
100
AcDbEntity
  8
0
100
AcDbSpline
 62
7
  6
BYLAYER
 70
0
 71
3
 72
23
 73
19
 74
0
 42
0.0000001
 43
0.0000001
 44
0.0000000001
 40
0.0
 40
0.0
 40
0.0
 40
0.0
 40
0.0427776152
 40
0.0872331174
 40
0.1347408651
 40
0.1862127452
 40
0.2420789236
 40
0.3023577238
 40
0.3667429003
 40
0.4346736181
 40
0.5054029655
 40
0.5780543246
 40
0.6516633821
 40
0.7252322185
 40
0.7977584382
 40
0.868277171
 40
0.9359605706
 40
1.0
 40
1.0
 40
1.0
 40
1.0
 10
10.8346670688
 20
39.2999657057
 30
0.0
 10
10.8346775669
 20
39.168018281
 30
0.0
 10
10.8689392891
 20
38.8978561085
 30
0.0
 10
11.0198393852
 20
38.5068891758
 30
0.0
 10
11.2650683358
 20
38.1350868001
 30
0.0
 10
11.5980823444
 20
37.7895770096
 30
0.0
 10
12.0114856156
 20
37.4761807593
 30
0.0
 10
12.4968770415
 20
37.2004585164
 30
0.0
 10
13.0446349298
 20
36.967588314
 30
0.0
 10
13.6438397523
 20
36.7820642494
 30
0.0
 10
14.2824730751
 20
36.6475022068
 30
0.0
 10
14.9476814706
 20
36.5666306572
 30
0.0
 10
15.626034275
 20
36.5410919223
 30
0.0
 10
16.3038081189
 20
36.5713785842
 30
0.0
 10
16.967266986
 20
36.6568606512
 30
0.0
 10
17.6031408266
 20
36.795859176
 30
0.0
 10
18.1983497395
 20
36.9856231671
 30
0.0
 10
18.5716947944
 20
37.1483589684
 30
0.0
 10
18.7477109592
 20
37.2380037353
 30
0.0
  0
ENDSEC
  0
SECTION
  2
OBJECTS
  0
DICTIONARY
  5
C
100
AcDbDictionary
280
0
281
1
  3
ACAD_GROUP
350
D
  3
ACAD_MLINESTYLE
350
17
  3
ACAD_LAYOUT
350
1A
  3
ACAD_PLOTSETTINGS
350
19
  3
ACAD_PLOTSTYLENAME
350
E
  0
DICTIONARY
  5
D
102
{ACAD_REACTORS
330
C
102
}
100
AcDbDictionary
280
0
281
1
  0
ACDBDICTIONARYWDFLT
  5
E
102
{ACAD_REACTORS
330
C
102
}
100
AcDbDictionary
281
1
  3
Normal
350
F
100
AcDbDictionaryWithDefault
340
F
  0
DICTIONARY
  5
17
102
{ACAD_REACTORS
330
C
102
}
100
AcDbDictionary
280
0
281
1
  3
Standard
350
18
  0
DICTIONARY
  5
19
102
{ACAD_REACTORS
330
C
102
}
100
AcDbDictionary
281
1
  0
DICTIONARY
  5
1A
102
{ACAD_REACTORS
330
C
102
}
100
AcDbDictionary
281
1
  3
Model
350
258
  3
Layout1
350
259
  0
ACDBPLACEHOLDER
  5
F
102
{ACAD_REACTORS
330
E
102
}
  0
MLINESTYLE
  5
18
102
{ACAD_REACTORS
330
17
102
}
100
AcDbMlineStyle
  2
STANDARD
 70
0
  3

 62
256
 51
90.0
 52
90.0
 71
2
 49
0.5
 62
256
  6
BYLAYER
 49
-0.5
 62
256
  6
BYLAYER
  0
LAYOUT
  5
258
102
{ACAD_REACTORS
330
1A
102
}
100
AcDbPlotSettings
  1

  2
none_device
  4

  6

 40
0.0
 41
0.0
 42
0.0
 43
0.0
 44
210.0
 45
297.0
 46
0.0
 47
0.0
 48
0.0
 49
0.0
140
0.0
141
0.0
142
1.0
143
1.0
 70
1024
 72
1
 73
0
 74
0
  7

 75
0
147
1.0
148
0.0
149
0.0
100
AcDbLayout
  1
Model
 70
0
 71
0
 10
0.0
 20
0.0
 11
210.0
 21
297.0
 12
0.0
 22
0.0
 32
0.0
 14
0.0
 24
0.0
 34
0.0
 15
0.0
 25
0.0
 35
0.0
146
0.0
 13
0.0
 23
0.0
 33
0.0
 16
1.0
 26
0.0
 36
0.0
 17
0.0
 27
1.0
 37
0.0
 76
0
330
210
345
0
346
0
  0
LAYOUT
  5
259
102
{ACAD_REACTORS
330
1A
102
}
100
AcDbPlotSettings
  1

  2
none_device
  4

  6

 40
0.0
 41
0.0
 42
0.0
 43
0.0
 44
210.0
 45
297.0
 46
0.0
 47
0.0
 48
0.0
 49
0.0
140
0.0
141
0.0
142
1.0
143
1.0
 70
0
 72
1
 73
0
 74
0
  7

 75
0
147
1.0
148
0.0
149
0.0
100
AcDbLayout
  1
Layout1
 70
0
 71
1
 10
0.0
 20
0.0
 11
210.0
 21
297.0
 12
0.0
 22
0.0
 32
0.0
 14
0.0
 24
0.0
 34
0.0
 15
0.0
 25
0.0
 35
0.0
146
0.0
 13
0.0
 23
0.0
 33
0.0
 16
1.0
 26
0.0
 36
0.0
 17
0.0
 27
1.0
 37
0.0
 76
0
330
211
345
0
346
0
  0
ENDSEC
  0
EOF
